  0
SECTION
  2
HEADER
  9
$ACADVER
  1
AC1027
  9
$ACADMAINTVER
 70
     8
  9
$DWGCODEPAGE
  3
ANSI_932
  9
$REQUIREDVERSIONS
160
                 0
  9
$LASTSAVEDBY
  1
megumi.kubo
  9
$INSBASE
 10
0.0
 20
0.0
 30
0.0
  9
$EXTMIN
 10
82.5
 20
79.0
 30
0.0
  9
$EXTMAX
 10
378.0
 20
287.071143291314
 30
0.0
  9
$LIMMIN
 10
0.0
 20
0.0
  9
$LIMMAX
 10
405.0
 20
284.0
  9
$ORTHOMODE
 70
     0
  9
$REGENMODE
 70
     1
  9
$FILLMODE
 70
     1
  9
$QTEXTMODE
 70
     0
  9
$MIRRTEXT
 70
     1
  9
$LTSCALE
 40
15.0
  9
$ATTMODE
 70
     1
  9
$TEXTSIZE
 40
8.0
  9
$TRACEWID
 40
0.05
  9
$TEXTSTYLE
  7
Standard
  9
$CLAYER
  8
CSLAYER1
  9
$CELTYPE
  6
ByLayer
  9
$CECOLOR
 62
   256
  9
$CELTSCALE
 40
1.0
  9
$DISPSILH
 70
     0
  9
$DIMSCALE
 40
1.0
  9
$DIMASZ
 40
0.18
  9
$DIMEXO
 40
0.0625
  9
$DIMDLI
 40
0.38
  9
$DIMRND
 40
0.0
  9
$DIMDLE
 40
0.0
  9
$DIMEXE
 40
0.18
  9
$DIMTP
 40
0.0
  9
$DIMTM
 40
0.0
  9
$DIMTXT
 40
0.18
  9
$DIMCEN
 40
0.09
  9
$DIMTSZ
 40
0.0
  9
$DIMTOL
 70
     0
  9
$DIMLIM
 70
     0
  9
$DIMTIH
 70
     1
  9
$DIMTOH
 70
     1
  9
$DIMSE1
 70
     0
  9
$DIMSE2
 70
     0
  9
$DIMTAD
 70
     0
  9
$DIMZIN
 70
     0
  9
$DIMBLK
  1

  9
$DIMASO
 70
     1
  9
$DIMSHO
 70
     1
  9
$DIMPOST
  1

  9
$DIMAPOST
  1

  9
$DIMALT
 70
     0
  9
$DIMALTD
 70
     2
  9
$DIMALTF
 40
25.4
  9
$DIMLFAC
 40
1.0
  9
$DIMTOFL
 70
     0
  9
$DIMTVP
 40
0.0
  9
$DIMTIX
 70
     0
  9
$DIMSOXD
 70
     0
  9
$DIMSAH
 70
     0
  9
$DIMBLK1
  1

  9
$DIMBLK2
  1

  9
$DIMSTYLE
  2
Standard
  9
$DIMCLRD
 70
     0
  9
$DIMCLRE
 70
     0
  9
$DIMCLRT
 70
     0
  9
$DIMTFAC
 40
1.0
  9
$DIMGAP
 40
0.09
  9
$DIMJUST
 70
     0
  9
$DIMSD1
 70
     0
  9
$DIMSD2
 70
     0
  9
$DIMTOLJ
 70
     1
  9
$DIMTZIN
 70
     0
  9
$DIMALTZ
 70
     0
  9
$DIMALTTZ
 70
     0
  9
$DIMUPT
 70
     0
  9
$DIMDEC
 70
     4
  9
$DIMTDEC
 70
     4
  9
$DIMALTU
 70
     2
  9
$DIMALTTD
 70
     2
  9
$DIMTXSTY
  7
Standard
  9
$DIMAUNIT
 70
     0
  9
$DIMADEC
 70
     0
  9
$DIMALTRND
 40
0.0
  9
$DIMAZIN
 70
     0
  9
$DIMDSEP
 70
    46
  9
$DIMATFIT
 70
     3
  9
$DIMFRAC
 70
     0
  9
$DIMLDRBLK
  1

  9
$DIMLUNIT
 70
     2
  9
$DIMLWD
 70
    -2
  9
$DIMLWE
 70
    -2
  9
$DIMTMOVE
 70
     2
  9
$DIMFXL
 40
1.0
  9
$DIMFXLON
 70
     0
  9
$DIMJOGANG
 40
0.785398163397
  9
$DIMTFILL
 70
     0
  9
$DIMTFILLCLR
 70
     0
  9
$DIMARCSYM
 70
     0
  9
$DIMLTYPE
  6

  9
$DIMLTEX1
  6

  9
$DIMLTEX2
  6

  9
$DIMTXTDIRECTION
 70
     0
  9
$LUNITS
 70
     2
  9
$LUPREC
 70
     4
  9
$SKETCHINC
 40
0.1
  9
$FILLETRAD
 40
0.0
  9
$AUNITS
 70
     0
  9
$AUPREC
 70
     0
  9
$MENU
  1
ACAD
  9
$ELEVATION
 40
0.0
  9
$PELEVATION
 40
0.0
  9
$THICKNESS
 40
0.0
  9
$LIMCHECK
 70
     0
  9
$CHAMFERA
 40
0.0
  9
$CHAMFERB
 40
0.0
  9
$CHAMFERC
 40
0.0
  9
$CHAMFERD
 40
0.0
  9
$SKPOLY
 70
     0
  9
$TDCREATE
 40
2457847.0
  9
$TDUCREATE
 40
2457846.625
  9
$TDUPDATE
 40
2457875.612516725
  9
$TDUUPDATE
 40
2457875.237516725
  9
$TDINDWG
 40
0.0118457523
  9
$TDUSRTIMER
 40
0.0118457523
  9
$USRTIMER
 70
     1
  9
$ANGBASE
 50
0.0
  9
$ANGDIR
 70
     0
  9
$PDMODE
 70
     0
  9
$PDSIZE
 40
0.0
  9
$PLINEWID
 40
0.0
  9
$SPLFRAME
 70
     0
  9
$SPLINETYPE
 70
     6
  9
$SPLINESEGS
 70
     8
  9
$HANDSEED
  5
5B6
  9
$SURFTAB1
 70
     6
  9
$SURFTAB2
 70
     6
  9
$SURFTYPE
 70
     6
  9
$SURFU
 70
     6
  9
$SURFV
 70
     6
  9
$UCSBASE
  2

  9
$UCSNAME
  2

  9
$UCSORG
 10
0.0
 20
0.0
 30
0.0
  9
$UCSXDIR
 10
1.0
 20
0.0
 30
0.0
  9
$UCSYDIR
 10
0.0
 20
1.0
 30
0.0
  9
$UCSORTHOREF
  2

  9
$UCSORTHOVIEW
 70
     0
  9
$UCSORGTOP
 10
0.0
 20
0.0
 30
0.0
  9
$UCSORGBOTTOM
 10
0.0
 20
0.0
 30
0.0
  9
$UCSORGLEFT
 10
0.0
 20
0.0
 30
0.0
  9
$UCSORGRIGHT
 10
0.0
 20
0.0
 30
0.0
  9
$UCSORGFRONT
 10
0.0
 20
0.0
 30
0.0
  9
$UCSORGBACK
 10
0.0
 20
0.0
 30
0.0
  9
$PUCSBASE
  2

  9
$PUCSNAME
  2

  9
$PUCSORG
 10
0.0
 20
0.0
 30
0.0
  9
$PUCSXDIR
 10
1.0
 20
0.0
 30
0.0
  9
$PUCSYDIR
 10
0.0
 20
1.0
 30
0.0
  9
$PUCSORTHOREF
  2

  9
$PUCSORTHOVIEW
 70
     0
  9
$PUCSORGTOP
 10
0.0
 20
0.0
 30
0.0
  9
$PUCSORGBOTTOM
 10
0.0
 20
0.0
 30
0.0
  9
$PUCSORGLEFT
 10
0.0
 20
0.0
 30
0.0
  9
$PUCSORGRIGHT
 10
0.0
 20
0.0
 30
0.0
  9
$PUCSORGFRONT
 10
0.0
 20
0.0
 30
0.0
  9
$PUCSORGBACK
 10
0.0
 20
0.0
 30
0.0
  9
$USERI1
 70
     0
  9
$USERI2
 70
     0
  9
$USERI3
 70
     0
  9
$USERI4
 70
     0
  9
$USERI5
 70
     0
  9
$USERR1
 40
0.0
  9
$USERR2
 40
0.0
  9
$USERR3
 40
0.0
  9
$USERR4
 40
0.0
  9
$USERR5
 40
0.0
  9
$WORLDVIEW
 70
     1
  9
$SHADEDGE
 70
     3
  9
$SHADEDIF
 70
    70
  9
$TILEMODE
 70
     1
  9
$MAXACTVP
 70
    64
  9
$PINSBASE
 10
0.0
 20
0.0
 30
0.0
  9
$PLIMCHECK
 70
     0
  9
$PEXTMIN
 10
1.000000000000E+20
 20
1.000000000000E+20
 30
1.000000000000E+20
  9
$PEXTMAX
 10
-1.000000000000E+20
 20
-1.000000000000E+20
 30
-1.000000000000E+20
  9
$PLIMMIN
 10
0.0
 20
0.0
  9
$PLIMMAX
 10
12.0
 20
9.0
  9
$UNITMODE
 70
     0
  9
$VISRETAIN
 70
     1
  9
$PLINEGEN
 70
     0
  9
$PSLTSCALE
 70
     1
  9
$TREEDEPTH
 70
  3020
  9
$CMLSTYLE
  2
Standard
  9
$CMLJUST
 70
     0
  9
$CMLSCALE
 40
1.0
  9
$PROXYGRAPHICS
 70
     1
  9
$MEASUREMENT
 70
     0
  9
$CELWEIGHT
370
    -1
  9
$ENDCAPS
280
     0
  9
$JOINSTYLE
280
     0
  9
$LWDISPLAY
290
     0
  9
$INSUNITS
 70
     0
  9
$HYPERLINKBASE
  1

  9
$STYLESHEET
  1

  9
$XEDIT
290
     1
  9
$CEPSNTYPE
380
     0
  9
$PSTYLEMODE
290
     1
  9
$FINGERPRINTGUID
  2
{C169065A-E898-4FB0-AB51-AD6580CC2E03}
  9
$VERSIONGUID
  2
{FAEB1C32-E019-11D5-929B-00C0DF256EC4}
  9
$EXTNAMES
290
     1
  9
$PSVPSCALE
 40
0.0
  9
$OLESTARTUP
290
     0
  9
$SORTENTS
280
   127
  9
$INDEXCTL
280
     0
  9
$HIDETEXT
280
     1
  9
$XCLIPFRAME
280
     2
  9
$HALOGAP
280
     0
  9
$OBSCOLOR
 70
   257
  9
$OBSLTYPE
280
     0
  9
$INTERSECTIONDISPLAY
280
     0
  9
$INTERSECTIONCOLOR
 70
   257
  9
$DIMASSOC
280
     2
  9
$PROJECTNAME
  1

  9
$CAMERADISPLAY
290
     0
  9
$LENSLENGTH
 40
50.0
  9
$CAMERAHEIGHT
 40
0.0
  9
$STEPSPERSEC
 40
2.0
  9
$STEPSIZE
 40
6.0
  9
$3DDWFPREC
 40
2.0
  9
$PSOLWIDTH
 40
0.25
  9
$PSOLHEIGHT
 40
4.0
  9
$LOFTANG1
 40
1.570796326795
  9
$LOFTANG2
 40
1.570796326795
  9
$LOFTMAG1
 40
0.0
  9
$LOFTMAG2
 40
0.0
  9
$LOFTPARAM
 70
     7
  9
$LOFTNORMALS
280
     1
  9
$LATITUDE
 40
37.795
  9
$LONGITUDE
 40
-122.394
  9
$NORTHDIRECTION
 40
0.0
  9
$TIMEZONE
 70
 -8000
  9
$LIGHTGLYPHDISPLAY
280
     1
  9
$TILEMODELIGHTSYNCH
280
     1
  9
$SOLIDHIST
280
     0
  9
$SHOWHIST
280
     1
  9
$DWFFRAME
280
     2
  9
$DGNFRAME
280
     2
  9
$REALWORLDSCALE
290
     1
  9
$INTERFERECOLOR
 62
   256
  9
$CSHADOW
280
     0
  9
$SHADOWPLANELOCATION
 40
0.0
  0
ENDSEC
  0
SECTION
  2
CLASSES
  0
CLASS
  1
ACDBDICTIONARYWDFLT
  2
AcDbDictionaryWithDefault
  3
ObjectDBX Classes
 90
        0
 91
        5
280
     0
281
     0
  0
CLASS
  1
SCALE
  2
AcDbScale
  3
ObjectDBX Classes
 90
     1153
 91
        5
280
     0
281
     0
  0
CLASS
  1
VISUALSTYLE
  2
AcDbVisualStyle
  3
ObjectDBX Classes
 90
     4095
 91
        5
280
     0
281
     0
  0
CLASS
  1
MATERIAL
  2
AcDbMaterial
  3
ObjectDBX Classes
 90
     1153
 91
        5
280
     0
281
     0
  0
CLASS
  1
TABLESTYLE
  2
AcDbTableStyle
  3
ObjectDBX Classes
 90
     4095
 91
        5
280
     0
281
     0
  0
CLASS
  1
MLEADERSTYLE
  2
AcDbMLeaderStyle
  3
ACDB_MLEADERSTYLE_CLASS
 90
     4095
 91
        5
280
     0
281
     0
  0
CLASS
  1
SUN
  2
AcDbSun
  3
SCENEOE
 90
     1153
 91
        5
280
     0
281
     0
  0
CLASS
  1
DICTIONARYVAR
  2
AcDbDictionaryVar
  3
ObjectDBX Classes
 90
        0
 91
        4
280
     0
281
     0
  0
CLASS
  1
SORTENTSTABLE
  2
AcDbSortentsTable
  3
ObjectDBX Classes
 90
        0
 91
        4
280
     0
281
     0
  0
CLASS
  1
CELLSTYLEMAP
  2
AcDbCellStyleMap
  3
ObjectDBX Classes
 90
     1152
 91
        4
280
     0
281
     0
  0
CLASS
  1
XRECORD
  2
AcDbXrecord
  3
ObjectDBX Classes
 90
        0
 91
        1
280
     0
281
     0
  0
CLASS
  1
LWPOLYLINE
  2
AcDbPolyline
  3
ObjectDBX Classes
 90
        0
 91
        1
280
     0
281
     1
  0
CLASS
  1
HATCH
  2
AcDbHatch
  3
ObjectDBX Classes
 90
        0
 91
        1
280
     0
281
     1
  0
CLASS
  1
ACDBPLACEHOLDER
  2
AcDbPlaceHolder
  3
ObjectDBX Classes
 90
        0
 91
        1
280
     0
281
     0
  0
CLASS
  1
LAYOUT
  2
AcDbLayout
  3
ObjectDBX Classes
 90
        0
 91
        1
280
     0
281
     0
  0
ENDSEC
  0
SECTION
  2
TABLES
  0
TABLE
  2
VPORT
  5
8
330
0
100
AcDbSymbolTable
 70
     1
  0
VPORT
  5
3B
330
8
100
AcDbSymbolTableRecord
100
AcDbViewportTableRecord
  2
*Active
 70
     0
 10
0.0
 20
0.0
 11
1.0
 21
1.0
 12
230.25
 22
183.035571645657
 13
0.0
 23
0.0
 14
0.5
 24
0.5
 15
0.5
 25
0.5
 16
0.0
 26
0.0
 36
1.0
 17
0.0
 27
0.0
 37
0.0
 40
212.232566157141
 41
1.489432703003
 42
50.0
 43
0.0
 44
0.0
 50
0.0
 51
0.0
 71
    16
 72
   100
 73
     1
 74
     3
 75
     0
 76
     0
 77
     0
 78
     0
281
     0
 65
     1
110
0.0
120
0.0
130
0.0
111
1.0
121
0.0
131
0.0
112
0.0
122
1.0
132
0.0
 79
     0
146
0.0
348
316
 60
     3
 61
     5
292
     1
282
     1
141
0.0
142
0.0
 63
   256
361
333
  0
ENDTAB
  0
TABLE
  2
LTYPE
  5
5
330
0
100
AcDbSymbolTable
 70
    10
  0
LTYPE
  5
14
330
5
100
AcDbSymbolTableRecord
100
AcDbLinetypeTableRecord
  2
ByBlock
 70
     0
  3

 72
    65
 73
     0
 40
0.0
  0
LTYPE
  5
15
330
5
100
AcDbSymbolTableRecord
100
AcDbLinetypeTableRecord
  2
ByLayer
 70
     0
  3

 72
    65
 73
     0
 40
0.0
  0
LTYPE
  5
16
330
5
100
AcDbSymbolTableRecord
100
AcDbLinetypeTableRecord
  2
CONTINUOUS
 70
     0
  3
Solid line
 72
    65
 73
     0
 40
0.0
  0
LTYPE
  5
21
330
5
100
AcDbSymbolTableRecord
100
AcDbLinetypeTableRecord
  2
DASHED
 70
     0
  3
__ __ __ __ __ __ __ __ __ __ __ __ __ __ __
 72
    65
 73
     2
 40
0.75
 49
0.5
 74
     0
 49
-0.25
 74
     0
  0
LTYPE
  5
22
330
5
100
AcDbSymbolTableRecord
100
AcDbLinetypeTableRecord
  2
HIDDEN
 70
     0
  3
_ _ _ _ _ _ _ _ _ _ _ _ _ _ _ _ _ _ _ _ _ _ _
 72
    65
 73
     2
 40
0.375
 49
0.25
 74
     0
 49
-0.125
 74
     0
  0
LTYPE
  5
23
330
5
100
AcDbSymbolTableRecord
100
AcDbLinetypeTableRecord
  2
DOT
 70
     0
  3
...............................................
 72
    65
 73
     2
 40
0.25
 49
0.0
 74
     0
 49
-0.25
 74
     0
  0
LTYPE
  5
24
330
5
100
AcDbSymbolTableRecord
100
AcDbLinetypeTableRecord
  2
DASHDOT
 70
     0
  3
__ . __ . __ . __ . __ . __ . __ . __ . __ . __
 72
    65
 73
     4
 40
1.0
 49
0.5
 74
     0
 49
-0.25
 74
     0
 49
0.0
 74
     0
 49
-0.25
 74
     0
  0
LTYPE
  5
25
330
5
100
AcDbSymbolTableRecord
100
AcDbLinetypeTableRecord
  2
DIVIDE
 70
     0
  3
__ . . __ . . __ . . __ . . __ . . __ . . __
 72
    65
 73
     6
 40
1.25
 49
0.5
 74
     0
 49
-0.25
 74
     0
 49
0.0
 74
     0
 49
-0.25
 74
     0
 49
0.0
 74
     0
 49
-0.25
 74
     0
  0
LTYPE
  5
26
330
5
100
AcDbSymbolTableRecord
100
AcDbLinetypeTableRecord
  2
CENTER
 70
     0
  3
____ _ ____ _ ____ _ ____ _ ____ _ ____ _ ____ 
 72
    65
 73
     4
 40
2.0
 49
1.25
 74
     0
 49
-0.25
 74
     0
 49
0.25
 74
     0
 49
-0.25
 74
     0
  0
LTYPE
  5
27
330
5
100
AcDbSymbolTableRecord
100
AcDbLinetypeTableRecord
  2
PHANTOM
 70
     0
  3
______  __  __  ______  __  __  ______  __  __ 
 72
    65
 73
     6
 40
2.5
 49
1.25
 74
     0
 49
-0.25
 74
     0
 49
0.25
 74
     0
 49
-0.25
 74
     0
 49
0.25
 74
     0
 49
-0.25
 74
     0
  0
LTYPE
  5
28
330
5
100
AcDbSymbolTableRecord
100
AcDbLinetypeTableRecord
  2
BORDER
 70
     0
  3
__ __ . __ __ . __ __ . __ __ . __ __ . __ __ .
 72
    65
 73
     6
 40
1.75
 49
0.5
 74
     0
 49
-0.25
 74
     0
 49
0.5
 74
     0
 49
-0.25
 74
     0
 49
0.0
 74
     0
 49
-0.25
 74
     0
  0
LTYPE
  5
4FD
330
5
100
AcDbSymbolTableRecord
100
AcDbLinetypeTableRecord
  2
DYN_DIM
 70
     0
  3
Dashed dynamic dimension line
 72
    65
 73
     2
 40
1.055722852875
 49
0.301635100822
 74
     0
 49
-0.754087752054
 74
     0
  0
ENDTAB
  0
TABLE
  2
LAYER
  5
2
330
0
100
AcDbSymbolTable
 70
    12
  0
LAYER
  5
10
330
2
100
AcDbSymbolTableRecord
100
AcDbLayerTableRecord
  2
0
 70
     0
 62
     7
  6
CONTINUOUS
370
    -3
390
F
347
32D
348
0
  0
LAYER
  5
29
330
2
100
AcDbSymbolTableRecord
100
AcDbLayerTableRecord
  2
CSLAYER1
 70
     0
 62
     7
  6
CONTINUOUS
370
    -3
390
F
347
32D
348
0
  0
LAYER
  5
32
330
2
100
AcDbSymbolTableRecord
100
AcDbLayerTableRecord
  2
CSLAYER10
 70
     0
 62
     3
  6
CONTINUOUS
370
    -3
390
F
347
32D
348
0
  0
LAYER
  5
4FE
330
2
100
AcDbSymbolTableRecord
100
AcDbLayerTableRecord
  2
Defpoints
 70
     0
 62
     7
  6
CONTINUOUS
290
     0
370
    -3
390
F
347
32D
348
0
  0
ENDTAB
  0
TABLE
  2
STYLE
  5
3
330
0
100
AcDbSymbolTable
 70
     3
  0
STYLE
  5
11
330
3
100
AcDbSymbolTableRecord
100
AcDbTextStyleTableRecord
  2
Standard
 70
     0
 40
0.0
 41
1.0
 50
0.0
 71
     0
 42
8.0
  3
txt
  4
extfont.shx
  0
STYLE
  5
39
330
3
100
AcDbSymbolTableRecord
100
AcDbTextStyleTableRecord
  2
FX_FONT
 70
     0
 40
1.0
 41
1.0
 50
0.0
 71
     0
 42
1.0
  3
monotxt
  4
extfont.shx
  0
STYLE
  5
4FC
330
3
100
AcDbSymbolTableRecord
100
AcDbTextStyleTableRecord
  2
DYN_DIM
 70
     0
 40
0.0
 41
1.0
 50
0.0
 71
     0
 42
8.0
  3
txt
  4
extfont.shx
  0
ENDTAB
  0
TABLE
  2
VIEW
  5
6
330
0
100
AcDbSymbolTable
 70
     0
  0
ENDTAB
  0
TABLE
  2
UCS
  5
7
330
0
100
AcDbSymbolTable
 70
     0
  0
ENDTAB
  0
TABLE
  2
APPID
  5
9
330
0
100
AcDbSymbolTable
 70
     2
  0
APPID
  5
12
330
9
100
AcDbSymbolTableRecord
100
AcDbRegAppTableRecord
  2
ACAD
 70
     0
  0
APPID
  5
4F5
330
9
100
AcDbSymbolTableRecord
100
AcDbRegAppTableRecord
  2
ACAD_MLEADERVER
 70
     0
  0
ENDTAB
  0
TABLE
  2
DIMSTYLE
  5
A
330
0
100
AcDbSymbolTable
 70
     1
100
AcDbDimStyleTable
  0
DIMSTYLE
105
3A
330
A
100
AcDbSymbolTableRecord
100
AcDbDimStyleTableRecord
  2
Standard
 70
     0
178
     0
340
11
  0
ENDTAB
  0
TABLE
  2
BLOCK_RECORD
  5
1
330
0
100
AcDbSymbolTable
 70
    34
  0
BLOCK_RECORD
  5
1D
102
{ACAD_XDICTIONARY
360
367
102
}
330
1
100
AcDbSymbolTableRecord
100
AcDbBlockTableRecord
  2
*Model_Space
340
1E
 70
     0
280
     1
281
     0
  0
BLOCK_RECORD
  5
1B
330
1
100
AcDbSymbolTableRecord
100
AcDbBlockTableRecord
  2
*Paper_Space
340
1C
 70
     0
280
     1
281
     0
  0
BLOCK_RECORD
  5
D2
330
1
100
AcDbSymbolTableRecord
100
AcDbBlockTableRecord
  2
FXDIM0000
340
0
 70
     0
280
     1
281
     0
  0
BLOCK_RECORD
  5
FA
330
1
100
AcDbSymbolTableRecord
100
AcDbBlockTableRecord
  2
FXDIM0001
340
0
 70
     0
280
     1
281
     0
  0
BLOCK_RECORD
  5
11D
330
1
100
AcDbSymbolTableRecord
100
AcDbBlockTableRecord
  2
FXDIM0002
340
0
 70
     0
280
     1
281
     0
  0
BLOCK_RECORD
  5
149
330
1
100
AcDbSymbolTableRecord
100
AcDbBlockTableRecord
  2
FXDIM0003
340
0
 70
     0
280
     1
281
     0
  0
BLOCK_RECORD
  5
152
330
1
100
AcDbSymbolTableRecord
100
AcDbBlockTableRecord
  2
FXDIM0004
340
0
 70
     0
280
     1
281
     0
  0
BLOCK_RECORD
  5
15A
330
1
100
AcDbSymbolTableRecord
100
AcDbBlockTableRecord
  2
FXDIM0005
340
0
 70
     0
280
     1
281
     0
  0
BLOCK_RECORD
  5
162
330
1
100
AcDbSymbolTableRecord
100
AcDbBlockTableRecord
  2
FXDIM0006
340
0
 70
     0
280
     1
281
     0
  0
BLOCK_RECORD
  5
16A
330
1
100
AcDbSymbolTableRecord
100
AcDbBlockTableRecord
  2
FXDIM0007
340
0
 70
     0
280
     1
281
     0
  0
BLOCK_RECORD
  5
33B
102
{ACAD_XDICTIONARY
360
360
102
}
330
1
100
AcDbSymbolTableRecord
100
AcDbBlockTableRecord
  2
ACE0198
340
0
 70
     0
280
     1
281
     0
  0
BLOCK_RECORD
  5
370
102
{ACAD_XDICTIONARY
360
394
102
}
330
1
100
AcDbSymbolTableRecord
100
AcDbBlockTableRecord
  2
ACE0118
340
0
 70
     0
280
     1
281
     0
  0
BLOCK_RECORD
  5
39C
102
{ACAD_XDICTIONARY
360
3C1
102
}
330
1
100
AcDbSymbolTableRecord
100
AcDbBlockTableRecord
  2
ACE0148
340
0
 70
     0
280
     1
281
     0
  0
ENDTAB
  0
ENDSEC
  0
SECTION
  2
BLOCKS
  0
BLOCK
  5
30D
330
1D
100
AcDbEntity
  8
0
100
AcDbBlockBegin
  2
*Model_Space
 70
     0
 10
0.0
 20
0.0
 30
0.0
  3
*Model_Space
  1

  0
ENDBLK
  5
30E
330
1D
100
AcDbEntity
  8
0
100
AcDbBlockEnd
  0
BLOCK
  5
30F
330
1B
100
AcDbEntity
 67
     1
  8
0
100
AcDbBlockBegin
  2
*Paper_Space
 70
     0
 10
0.0
 20
0.0
 30
0.0
  3
*Paper_Space
  1

  0
ENDBLK
  5
310
330
1B
100
AcDbEntity
 67
     1
  8
0
100
AcDbBlockEnd
  0
BLOCK
  5
D1
330
D2
100
AcDbEntity
  8
CSLAYER1
100
AcDbBlockBegin
  2
FXDIM0000
 70
     0
 10
0.0
 20
0.0
 30
0.0
  3
FXDIM0000
  1

  0
LINE
  5
D3
330
D2
100
AcDbEntity
  8
CSLAYER1
  6
Continuous
 62
     7
100
AcDbLine
 10
280.971306
 20
119.630317
 30
0.0
 11
273.828173
 21
130.66953
 31
0.0
  0
LINE
  5
D4
330
D2
100
AcDbEntity
  8
CSLAYER1
  6
Continuous
 62
     7
100
AcDbLine
 10
280.971306
 20
119.630317
 30
0.0
 11
279.487222
 21
120.971023
 31
0.0
  0
LINE
  5
D5
330
D2
100
AcDbEntity
  8
CSLAYER1
  6
Continuous
 62
     7
100
AcDbLine
 10
280.971306
 20
119.630317
 30
0.0
 11
280.356405
 21
121.533445
 31
0.0
  0
LINE
  5
D6
330
D2
100
AcDbEntity
  8
CSLAYER1
  6
Continuous
 62
     7
100
AcDbLine
 10
273.828173
 20
130.66953
 30
0.0
 11
261.828173
 21
130.66953
 31
0.0
  0
TEXT
  5
D7
330
D2
100
AcDbEntity
  8
CSLAYER1
 62
     7
100
AcDbText
 10
262.828186
 20
131.669525
 30
0.0
 40
4.0
  1
R1.5
 41
0.652173913043
  7
FX_FONT
 72
     5
 11
272.828186
 21
131.669525
 31
0.0
100
AcDbText
  0
ENDBLK
  5
D8
330
D2
100
AcDbEntity
  8
0
100
AcDbBlockEnd
  0
BLOCK
  5
F9
330
FA
100
AcDbEntity
  8
CSLAYER1
100
AcDbBlockBegin
  2
FXDIM0001
 70
     0
 10
0.0
 20
0.0
 30
0.0
  3
FXDIM0001
  1

  0
LINE
  5
FB
330
FA
100
AcDbEntity
  8
CSLAYER1
  6
Continuous
 62
     7
100
AcDbLine
 10
158.5
 20
198.0
 30
0.0
 11
158.5
 21
183.0
 31
0.0
  0
ENDBLK
  5
FC
330
FA
100
AcDbEntity
  8
0
100
AcDbBlockEnd
  0
BLOCK
  5
11C
330
11D
100
AcDbEntity
  8
CSLAYER1
100
AcDbBlockBegin
  2
FXDIM0002
 70
     0
 10
0.0
 20
0.0
 30
0.0
  3
FXDIM0002
  1

  0
LINE
  5
11E
330
11D
100
AcDbEntity
  8
CSLAYER1
  6
Continuous
 62
     7
100
AcDbLine
 10
154.0
 20
143.732051
 30
0.0
 11
145.762396
 21
158.0
 31
0.0
  0
LINE
  5
11F
330
11D
100
AcDbEntity
  8
CSLAYER1
  6
Continuous
 62
     7
100
AcDbLine
 10
154.0
 20
143.732051
 30
0.0
 11
152.585786
 21
145.146264
 31
0.0
  0
LINE
  5
120
330
11D
100
AcDbEntity
  8
CSLAYER1
  6
Continuous
 62
     7
100
AcDbLine
 10
154.0
 20
143.732051
 30
0.0
 11
153.482362
 21
145.663902
 31
0.0
  0
LINE
  5
121
330
11D
100
AcDbEntity
  8
CSLAYER1
  6
Continuous
 62
     7
100
AcDbLine
 10
145.762396
 20
158.0
 30
0.0
 11
174.762396
 21
158.0
 31
0.0
  0
LINE
  5
122
330
11D
100
AcDbEntity
  8
CSLAYER1
  6
Continuous
 62
     7
100
AcDbLine
 10
174.762396
 20
158.0
 30
0.0
 11
148.310015
 21
158.0
 31
0.0
  0
TEXT
  5
123
330
11D
100
AcDbEntity
  8
CSLAYER1
 62
     7
100
AcDbText
 10
145.848938
 20
159.455276
 30
0.0
 40
4.0
  1
2-3.5mmネジ用穴
 41
0.595739559514
  7
FX_FONT
 72
     5
 11
173.348938
 21
159.455276
 31
0.0
100
AcDbText
  0
ENDBLK
  5
124
330
11D
100
AcDbEntity
  8
0
100
AcDbBlockEnd
  0
BLOCK
  5
148
330
149
100
AcDbEntity
  8
CSLAYER1
100
AcDbBlockBegin
  2
FXDIM0003
 70
     0
 10
0.0
 20
0.0
 30
0.0
  3
FXDIM0003
  1

  0
LINE
  5
14A
330
149
100
AcDbEntity
  8
CSLAYER1
  6
Continuous
 62
     7
100
AcDbLine
 10
344.55
 20
240.818653
 30
0.0
 11
353.892305
 21
257.0
 31
0.0
  0
LINE
  5
14B
330
149
100
AcDbEntity
  8
CSLAYER1
  6
Continuous
 62
     7
100
AcDbLine
 10
344.55
 20
240.818653
 30
0.0
 11
345.067638
 21
242.750505
 31
0.0
  0
LINE
  5
14C
330
149
100
AcDbEntity
  8
CSLAYER1
  6
Continuous
 62
     7
100
AcDbLine
 10
344.55
 20
240.818653
 30
0.0
 11
345.964214
 21
242.232867
 31
0.0
  0
LINE
  5
14D
330
149
100
AcDbEntity
  8
CSLAYER1
  6
Continuous
 62
     7
100
AcDbLine
 10
353.892305
 20
257.0
 30
0.0
 11
324.892305
 21
257.0
 31
0.0
  0
LINE
  5
14E
330
149
100
AcDbEntity
  8
CSLAYER1
  6
Continuous
 62
     7
100
AcDbLine
 10
324.892305
 20
257.0
 30
0.0
 11
349.80342
 21
257.0
 31
0.0
  0
TEXT
  5
14F
330
149
100
AcDbEntity
  8
CSLAYER1
 62
     7
100
AcDbText
 10
325.942749
 20
258.085358
 30
0.0
 40
4.0
  1
4-3.5mmネジ用穴
 41
0.595739559514
  7
FX_FONT
 72
     5
 11
353.442749
 21
258.085358
 31
0.0
100
AcDbText
  0
ENDBLK
  5
150
330
149
100
AcDbEntity
  8
0
100
AcDbBlockEnd
  0
BLOCK
  5
151
330
152
100
AcDbEntity
  8
CSLAYER1
100
AcDbBlockBegin
  2
FXDIM0004
 70
     0
 10
0.0
 20
0.0
 30
0.0
  3
FXDIM0004
  1

  0
LINE
  5
153
330
152
100
AcDbEntity
  8
CSLAYER1
  6
Continuous
 62
     7
100
AcDbLine
 10
180.455657
 20
235.281878
 30
0.0
 11
168.684642
 21
255.669873
 31
0.0
  0
CIRCLE
  5
154
330
152
100
AcDbEntity
  8
CSLAYER1
  6
Continuous
 62
     7
100
AcDbCircle
 10
180.455657
 20
235.281878
 30
0.0
 40
0.5
  0
CIRCLE
  5
155
330
152
100
AcDbEntity
  8
CSLAYER1
  6
Continuous
 62
     7
100
AcDbCircle
 10
180.455657
 20
235.281878
 30
0.0
 40
0.25
  0
CIRCLE
  5
156
330
152
100
AcDbEntity
  8
CSLAYER1
  6
Continuous
 62
     7
100
AcDbCircle
 10
166.184642
 20
260.0
 30
0.0
 40
5.0
  0
TEXT
  5
157
330
152
100
AcDbEntity
  8
CSLAYER1
 62
     7
100
AcDbText
 10
164.934647
 20
258.0
 30
0.0
 40
4.0
  1
3
 41
0.75
  7
FX_FONT
 72
     5
 11
167.434647
 21
258.0
 31
0.0
100
AcDbText
  0
ENDBLK
  5
158
330
152
100
AcDbEntity
  8
0
100
AcDbBlockEnd
  0
BLOCK
  5
159
330
15A
100
AcDbEntity
  8
CSLAYER1
100
AcDbBlockBegin
  2
FXDIM0005
 70
     0
 10
0.0
 20
0.0
 30
0.0
  3
FXDIM0005
  1

  0
LINE
  5
15B
330
15A
100
AcDbEntity
  8
CSLAYER1
  6
Continuous
 62
     7
100
AcDbLine
 10
315.282415
 20
239.321573
 30
0.0
 11
305.826229
 21
255.700167
 31
0.0
  0
CIRCLE
  5
15C
330
15A
100
AcDbEntity
  8
CSLAYER1
  6
Continuous
 62
     7
100
AcDbCircle
 10
315.282415
 20
239.321573
 30
0.0
 40
0.5
  0
CIRCLE
  5
15D
330
15A
100
AcDbEntity
  8
CSLAYER1
  6
Continuous
 62
     7
100
AcDbCircle
 10
315.282415
 20
239.321573
 30
0.0
 40
0.25
  0
CIRCLE
  5
15E
330
15A
100
AcDbEntity
  8
CSLAYER1
  6
Continuous
 62
     7
100
AcDbCircle
 10
303.274477
 20
260.0
 30
0.0
 40
5.0
  0
TEXT
  5
15F
330
15A
100
AcDbEntity
  8
CSLAYER1
 62
     7
100
AcDbText
 10
302.024445
 20
257.999969
 30
0.0
 40
4.0
  1
1
 41
0.9375
  7
FX_FONT
 72
     5
 11
304.524445
 21
257.999969
 31
0.0
100
AcDbText
  0
ENDBLK
  5
160
330
15A
100
AcDbEntity
  8
0
100
AcDbBlockEnd
  0
BLOCK
  5
161
330
162
100
AcDbEntity
  8
CSLAYER1
100
AcDbBlockBegin
  2
FXDIM0006
 70
     0
 10
0.0
 20
0.0
 30
0.0
  3
FXDIM0006
  1

  0
LINE
  5
163
330
162
100
AcDbEntity
  8
CSLAYER1
  6
Continuous
 62
     7
100
AcDbLine
 10
282.438109
 20
225.404054
 30
0.0
 11
264.91813
 21
255.669873
 31
0.0
  0
CIRCLE
  5
164
330
162
100
AcDbEntity
  8
CSLAYER1
  6
Continuous
 62
     7
100
AcDbCircle
 10
282.438109
 20
225.404054
 30
0.0
 40
0.5
  0
CIRCLE
  5
165
330
162
100
AcDbEntity
  8
CSLAYER1
  6
Continuous
 62
     7
100
AcDbCircle
 10
282.438109
 20
225.404054
 30
0.0
 40
0.25
  0
CIRCLE
  5
166
330
162
100
AcDbEntity
  8
CSLAYER1
  6
Continuous
 62
     7
100
AcDbCircle
 10
262.41813
 20
260.0
 30
0.0
 40
5.0
  0
TEXT
  5
167
330
162
100
AcDbEntity
  8
CSLAYER1
 62
     7
100
AcDbText
 10
261.168121
 20
257.999969
 30
0.0
 40
4.0
  1
2
 41
0.75
  7
FX_FONT
 72
     5
 11
263.668121
 21
257.999969
 31
0.0
100
AcDbText
  0
ENDBLK
  5
168
330
162
100
AcDbEntity
  8
0
100
AcDbBlockEnd
  0
BLOCK
  5
169
330
16A
100
AcDbEntity
  8
CSLAYER1
100
AcDbBlockBegin
  2
FXDIM0007
 70
     0
 10
0.0
 20
0.0
 30
0.0
  3
FXDIM0007
  1

  0
LINE
  5
16B
330
16A
100
AcDbEntity
  8
CSLAYER1
  6
Continuous
 62
     7
100
AcDbLine
 10
146.547619
 20
139.811673
 30
0.0
 11
136.826441
 21
156.649248
 31
0.0
  0
CIRCLE
  5
16C
330
16A
100
AcDbEntity
  8
CSLAYER1
  6
Continuous
 62
     7
100
AcDbCircle
 10
146.547619
 20
139.811673
 30
0.0
 40
0.5
  0
CIRCLE
  5
16D
330
16A
100
AcDbEntity
  8
CSLAYER1
  6
Continuous
 62
     7
100
AcDbCircle
 10
146.547619
 20
139.811673
 30
0.0
 40
0.25
  0
CIRCLE
  5
16E
330
16A
100
AcDbEntity
  8
CSLAYER1
  6
Continuous
 62
     7
100
AcDbCircle
 10
134.326441
 20
160.979375
 30
0.0
 40
5.0
  0
TEXT
  5
16F
330
16A
100
AcDbEntity
  8
CSLAYER1
 62
     7
100
AcDbText
 10
133.076447
 20
158.97937
 30
0.0
 40
4.0
  1
4
 41
0.75
  7
FX_FONT
 72
     5
 11
135.576447
 21
158.97937
 31
0.0
100
AcDbText
  0
ENDBLK
  5
170
330
16A
100
AcDbEntity
  8
0
100
AcDbBlockEnd
  0
BLOCK
  5
363
330
33B
100
AcDbEntity
  8
0
100
AcDbBlockBegin
  2
ACE0198
 70
     0
 10
0.0
 20
0.0
 30
0.0
  3
ACE0198
  1

  0
SPLINE
  5
362
330
33B
100
AcDbEntity
  8
CSLAYER1
100
AcDbSpline
210
0.0
220
0.0
230
1.0
 70
  1064
 71
     3
 72
     9
 73
     5
 74
     3
 42
0.000000001
 43
0.0000000001
 44
0.0
 12
1.0
 22
0.0
 32
0.0
 13
-0.9895890930501341
 23
-0.1439215998945711
 33
0.0
 40
0.0
 40
0.0
 40
0.0
 40
0.0
 40
4.077003198404423
 40
8.200688357521997
 40
8.200688357521997
 40
8.200688357521997
 40
8.200688357521997
 10
0.0000000000000284
 20
6.5
 30
0.0
 10
1.359001066134836
 20
6.5
 30
0.0
 10
3.6404548487558
 20
3.174101051066299
 30
0.0
 10
1.360251285545181
 20
0.1978291218539001
 30
0.0
 10
0.0000000000000284
 20
0.0
 30
0.0
 11
0.0000000000000284
 21
6.5
 31
0.0
 11
2.500000000000028
 21
3.279448016286665
 31
0.0
 11
0.0000000000000284
 21
0.0
 31
0.0
  0
ENDBLK
  5
364
330
33B
100
AcDbEntity
  8
0
100
AcDbBlockEnd
  0
BLOCK
  5
397
330
370
100
AcDbEntity
  8
0
100
AcDbBlockBegin
  2
ACE0118
 70
     0
 10
0.0
 20
0.0
 30
0.0
  3
ACE0118
  1

  0
SPLINE
  5
396
330
370
100
AcDbEntity
  8
CSLAYER1
100
AcDbSpline
210
0.0
220
0.0
230
1.0
 70
  1064
 71
     3
 72
     9
 73
     5
 74
     3
 42
0.000000001
 43
0.0000000001
 44
0.0
 12
1.0
 22
0.0
 32
0.0
 13
-0.9895890930501341
 23
-0.1439215998945711
 33
0.0
 40
0.0
 40
0.0
 40
0.0
 40
0.0
 40
4.093518063421004
 40
8.200616387003334
 40
8.200616387003334
 40
8.200616387003334
 40
8.200616387003334
 10
0.0000000000000284
 20
6.5
 30
0.0
 10
1.364506021140363
 20
6.5
 30
0.0
 10
3.640347186572666
 20
3.158178349714538
 30
0.0
 10
1.35477990170055
 20
0.1970333872180933
 30
0.0
 10
0.0000000000000284
 20
0.0
 30
0.0
 11
0.0000000000000284
 21
6.5
 31
0.0
 11
2.500000000000028
 21
3.258566654155288
 31
0.0
 11
0.0000000000000284
 21
0.0
 31
0.0
  0
ENDBLK
  5
398
330
370
100
AcDbEntity
  8
0
100
AcDbBlockEnd
  0
BLOCK
  5
3C6
330
39C
100
AcDbEntity
  8
0
100
AcDbBlockBegin
  2
ACE0148
 70
     0
 10
0.0
 20
0.0
 30
0.0
  3
ACE0148
  1

  0
CIRCLE
  5
3C3
330
39C
100
AcDbEntity
  8
CSLAYER1
100
AcDbCircle
 10
3.25
 20
3.25
 30
0.0
 40
3.25
  0
LINE
  5
3C4
330
39C
100
AcDbEntity
  8
CSLAYER1
100
AcDbLine
 10
1.66993489012
 20
1.66993489012
 30
0.0
 11
4.83006510988
 21
4.83006510988
 31
0.0
  0
LINE
  5
3C5
330
39C
100
AcDbEntity
  8
CSLAYER1
100
AcDbLine
 10
1.66993489012
 20
4.83006510988
 30
0.0
 11
4.83006510988
 21
1.66993489012
 31
0.0
  0
ENDBLK
  5
3C7
330
39C
100
AcDbEntity
  8
0
100
AcDbBlockEnd
  0
ENDSEC
  0
SECTION
  2
ENTITIES
  0
LINE
  5
174
330
1D
100
AcDbEntity
  8
CSLAYER1
  6
Continuous
100
AcDbLine
 10
190.5
 20
232.0
 30
0.0
 11
190.5
 21
212.0
 31
0.0
  0
ARC
  5
175
330
1D
100
AcDbEntity
  8
CSLAYER1
  6
Continuous
100
AcDbCircle
 10
182.5
 20
212.0
 30
0.0
 40
8.0
100
AcDbArc
 50
270.0
 51
0.0
  0
LINE
  5
176
330
1D
100
AcDbEntity
  8
CSLAYER1
  6
Continuous
100
AcDbLine
 10
182.5
 20
204.0
 30
0.0
 11
172.5
 21
204.0
 31
0.0
  0
ARC
  5
177
330
1D
100
AcDbEntity
  8
CSLAYER1
  6
Continuous
100
AcDbCircle
 10
172.5
 20
206.0
 30
0.0
 40
2.0
100
AcDbArc
 50
180.0
 51
270.0
  0
LINE
  5
178
330
1D
100
AcDbEntity
  8
CSLAYER1
  6
Continuous
100
AcDbLine
 10
170.5
 20
206.0
 30
0.0
 11
170.5
 21
208.0
 31
0.0
  0
ARC
  5
179
330
1D
100
AcDbEntity
  8
CSLAYER1
  6
Continuous
100
AcDbCircle
 10
171.5
 20
208.0
 30
0.0
 40
1.0
100
AcDbArc
 50
90.0
 51
180.0
  0
LINE
  5
17A
330
1D
100
AcDbEntity
  8
CSLAYER1
  6
Continuous
100
AcDbLine
 10
171.5
 20
209.0
 30
0.0
 11
174.0
 21
209.0
 31
0.0
  0
ARC
  5
17B
330
1D
100
AcDbEntity
  8
CSLAYER1
  6
Continuous
100
AcDbCircle
 10
174.0
 20
210.5
 30
0.0
 40
1.5
100
AcDbArc
 50
270.0
 51
0.0
  0
LINE
  5
17C
330
1D
100
AcDbEntity
  8
CSLAYER1
  6
Continuous
100
AcDbLine
 10
175.5
 20
210.5
 30
0.0
 11
175.5
 21
216.0
 31
0.0
  0
ARC
  5
17D
330
1D
100
AcDbEntity
  8
CSLAYER1
  6
Continuous
100
AcDbCircle
 10
175.0
 20
216.0
 30
0.0
 40
0.5
100
AcDbArc
 50
0.0
 51
90.0
  0
LINE
  5
17E
330
1D
100
AcDbEntity
  8
CSLAYER1
  6
Continuous
100
AcDbLine
 10
175.0
 20
216.5
 30
0.0
 11
174.5
 21
216.5
 31
0.0
  0
LINE
  5
17F
330
1D
100
AcDbEntity
  8
CSLAYER1
  6
Continuous
100
AcDbLine
 10
173.5
 20
216.5
 30
0.0
 11
173.0
 21
216.5
 31
0.0
  0
LINE
  5
180
330
1D
100
AcDbEntity
  8
CSLAYER1
  6
Continuous
100
AcDbLine
 10
173.0
 20
213.453723
 30
0.0
 11
173.0
 21
230.453723
 31
0.0
  0
ARC
  5
181
330
1D
100
AcDbEntity
  8
CSLAYER1
  6
Continuous
100
AcDbCircle
 10
171.5
 20
230.453723
 30
0.0
 40
1.5
100
AcDbArc
 50
0.0
 51
90.0
  0
LINE
  5
182
330
1D
100
AcDbEntity
  8
CSLAYER1
  6
Continuous
100
AcDbLine
 10
171.5
 20
231.953723
 30
0.0
 11
164.7
 21
231.953723
 31
0.0
  0
LINE
  5
183
330
1D
100
AcDbEntity
  8
CSLAYER1
  6
Continuous
100
AcDbLine
 10
164.7
 20
232.4
 30
0.0
 11
163.7
 21
232.4
 31
0.0
  0
LINE
  5
184
330
1D
100
AcDbEntity
  8
CSLAYER1
  6
Continuous
100
AcDbLine
 10
163.7
 20
232.4
 30
0.0
 11
163.7
 21
234.0
 31
0.0
  0
LINE
  5
185
330
1D
100
AcDbEntity
  8
CSLAYER1
  6
Continuous
100
AcDbLine
 10
163.7
 20
234.0
 30
0.0
 11
159.5
 21
234.0
 31
0.0
  0
LINE
  5
186
330
1D
100
AcDbEntity
  8
CSLAYER1
  6
Continuous
100
AcDbLine
 10
159.5
 20
232.8
 30
0.0
 11
158.5
 21
232.8
 31
0.0
  0
LINE
  5
187
330
1D
100
AcDbEntity
  8
CSLAYER1
  6
Continuous
100
AcDbLine
 10
158.5
 20
232.8
 30
0.0
 11
158.5
 21
245.0
 31
0.0
  0
LINE
  5
188
330
1D
100
AcDbEntity
  8
CSLAYER1
  6
Continuous
100
AcDbLine
 10
158.5
 20
245.0
 30
0.0
 11
159.5
 21
245.0
 31
0.0
  0
LINE
  5
189
330
1D
100
AcDbEntity
  8
CSLAYER1
  6
Continuous
100
AcDbLine
 10
159.5
 20
245.0
 30
0.0
 11
159.5
 21
231.4
 31
0.0
  0
LINE
  5
18A
330
1D
100
AcDbEntity
  8
CSLAYER1
  6
Continuous
100
AcDbLine
 10
159.5
 20
231.4
 30
0.0
 11
158.5
 21
231.4
 31
0.0
  0
LINE
  5
18B
330
1D
100
AcDbEntity
  8
CSLAYER1
  6
Continuous
100
AcDbLine
 10
158.5
 20
231.4
 30
0.0
 11
158.5
 21
212.6
 31
0.0
  0
LINE
  5
18C
330
1D
100
AcDbEntity
  8
CSLAYER1
  6
Continuous
100
AcDbLine
 10
158.5
 20
212.6
 30
0.0
 11
159.5
 21
212.6
 31
0.0
  0
LINE
  5
18D
330
1D
100
AcDbEntity
  8
CSLAYER1
  6
Continuous
100
AcDbLine
 10
159.5
 20
212.6
 30
0.0
 11
159.5
 21
199.0
 31
0.0
  0
LINE
  5
18E
330
1D
100
AcDbEntity
  8
CSLAYER1
  6
Continuous
100
AcDbLine
 10
159.5
 20
199.0
 30
0.0
 11
158.5
 21
199.0
 31
0.0
  0
LINE
  5
18F
330
1D
100
AcDbEntity
  8
CSLAYER1
  6
Continuous
100
AcDbLine
 10
158.5
 20
199.0
 30
0.0
 11
158.5
 21
211.2
 31
0.0
  0
LINE
  5
190
330
1D
100
AcDbEntity
  8
CSLAYER1
  6
Continuous
100
AcDbLine
 10
158.5
 20
211.2
 30
0.0
 11
159.5
 21
211.2
 31
0.0
  0
ARC
  5
191
330
1D
100
AcDbEntity
  8
CSLAYER1
  6
Continuous
100
AcDbCircle
 10
159.5
 20
210.5
 30
0.0
 40
1.0
100
AcDbArc
 50
90.0
 51
135.572996
  0
ARC
  5
192
330
1D
100
AcDbEntity
  8
CSLAYER1
  6
Continuous
100
AcDbCircle
 10
159.5
 20
212.6
 30
0.0
 40
1.0
100
AcDbArc
 50
180.0
 51
270.0
  0
LINE
  5
193
330
1D
100
AcDbEntity
  8
CSLAYER1
  6
Continuous
100
AcDbLine
 10
159.5
 20
210.0
 30
0.0
 11
163.7
 21
210.0
 31
0.0
  0
LINE
  5
194
330
1D
100
AcDbEntity
  8
CSLAYER1
  6
Continuous
100
AcDbLine
 10
163.7
 20
210.0
 30
0.0
 11
163.7
 21
211.6
 31
0.0
  0
LINE
  5
195
330
1D
100
AcDbEntity
  8
CSLAYER1
  6
Continuous
100
AcDbLine
 10
163.7
 20
211.6
 30
0.0
 11
164.7
 21
211.6
 31
0.0
  0
LINE
  5
196
330
1D
100
AcDbEntity
  8
CSLAYER1
  6
Continuous
100
AcDbLine
 10
164.7
 20
211.6
 30
0.0
 11
164.7
 21
232.4
 31
0.0
  0
LINE
  5
197
330
1D
100
AcDbEntity
  8
CSLAYER1
  6
Continuous
100
AcDbLine
 10
164.0
 20
232.5
 30
0.0
 11
164.0
 21
233.5
 31
0.0
  0
LINE
  5
198
330
1D
100
AcDbEntity
  8
CSLAYER1
  6
Continuous
100
AcDbLine
 10
163.7
 20
233.5
 30
0.0
 11
173.5
 21
233.5
 31
0.0
  0
ARC
  5
199
330
1D
100
AcDbEntity
  8
CSLAYER1
  6
Continuous
100
AcDbCircle
 10
173.5
 20
232.5
 30
0.0
 40
1.0
100
AcDbArc
 50
0.0
 51
90.0
  0
LINE
  5
19A
330
1D
100
AcDbEntity
  8
CSLAYER1
  6
Continuous
100
AcDbLine
 10
174.5
 20
232.5
 30
0.0
 11
174.5
 21
211.5
 31
0.0
  0
ARC
  5
19B
330
1D
100
AcDbEntity
  8
CSLAYER1
  6
Continuous
100
AcDbCircle
 10
173.5
 20
211.5
 30
0.0
 40
1.0
100
AcDbArc
 50
270.0
 51
0.0
  0
LINE
  5
19C
330
1D
100
AcDbEntity
  8
CSLAYER1
  6
Continuous
100
AcDbLine
 10
173.5
 20
210.5
 30
0.0
 11
163.7
 21
210.5
 31
0.0
  0
LINE
  5
19D
330
1D
100
AcDbEntity
  8
CSLAYER1
  6
Continuous
100
AcDbLine
 10
164.0
 20
210.5
 30
0.0
 11
164.0
 21
211.5
 31
0.0
  0
LINE
  5
19E
330
1D
100
AcDbEntity
  8
CSLAYER1
  6
Continuous
100
AcDbLine
 10
163.7
 20
211.5
 30
0.0
 11
173.5
 21
211.5
 31
0.0
  0
LINE
  5
19F
330
1D
100
AcDbEntity
  8
CSLAYER1
  6
Continuous
100
AcDbLine
 10
173.5
 20
211.5
 30
0.0
 11
173.5
 21
232.5
 31
0.0
  0
LINE
  5
1A0
330
1D
100
AcDbEntity
  8
CSLAYER1
  6
Continuous
100
AcDbLine
 10
173.5
 20
232.5
 30
0.0
 11
163.7
 21
232.5
 31
0.0
  0
LINE
  5
1A1
330
1D
100
AcDbEntity
  8
CSLAYER1
  6
Continuous
100
AcDbLine
 10
164.7
 20
230.453723
 30
0.0
 11
171.5
 21
230.453723
 31
0.0
  0
LINE
  5
1A2
330
1D
100
AcDbEntity
  8
CSLAYER1
  6
Continuous
100
AcDbLine
 10
173.0
 20
227.5
 30
0.0
 11
173.5
 21
227.5
 31
0.0
  0
LINE
  5
1A3
330
1D
100
AcDbEntity
  8
CSLAYER1
  6
Continuous
100
AcDbLine
 10
174.5
 20
227.5
 30
0.0
 11
175.0
 21
227.5
 31
0.0
  0
ARC
  5
1A4
330
1D
100
AcDbEntity
  8
CSLAYER1
  6
Continuous
100
AcDbCircle
 10
175.0
 20
228.0
 30
0.0
 40
0.5
100
AcDbArc
 50
270.0
 51
0.0
  0
LINE
  5
1A5
330
1D
100
AcDbEntity
  8
CSLAYER1
  6
Continuous
100
AcDbLine
 10
175.5
 20
228.0
 30
0.0
 11
175.5
 21
233.5
 31
0.0
  0
ARC
  5
1A6
330
1D
100
AcDbEntity
  8
CSLAYER1
  6
Continuous
100
AcDbCircle
 10
174.0
 20
233.5
 30
0.0
 40
1.5
100
AcDbArc
 50
0.0
 51
90.0
  0
LINE
  5
1A7
330
1D
100
AcDbEntity
  8
CSLAYER1
  6
Continuous
100
AcDbLine
 10
174.0
 20
235.0
 30
0.0
 11
171.5
 21
235.0
 31
0.0
  0
ARC
  5
1A8
330
1D
100
AcDbEntity
  8
CSLAYER1
  6
Continuous
100
AcDbCircle
 10
171.5
 20
236.0
 30
0.0
 40
1.0
100
AcDbArc
 50
180.0
 51
270.0
  0
LINE
  5
1A9
330
1D
100
AcDbEntity
  8
CSLAYER1
  6
Continuous
100
AcDbLine
 10
170.5
 20
236.0
 30
0.0
 11
170.5
 21
238.0
 31
0.0
  0
ARC
  5
1AA
330
1D
100
AcDbEntity
  8
CSLAYER1
  6
Continuous
100
AcDbCircle
 10
172.5
 20
238.0
 30
0.0
 40
2.0
100
AcDbArc
 50
90.0
 51
180.0
  0
LINE
  5
1AB
330
1D
100
AcDbEntity
  8
CSLAYER1
  6
Continuous
100
AcDbLine
 10
172.5
 20
240.0
 30
0.0
 11
182.5
 21
240.0
 31
0.0
  0
ARC
  5
1AC
330
1D
100
AcDbEntity
  8
CSLAYER1
  6
Continuous
100
AcDbCircle
 10
182.5
 20
232.0
 30
0.0
 40
8.0
100
AcDbArc
 50
0.0
 51
90.0
  0
ARC
  5
1AD
330
1D
100
AcDbEntity
  8
CSLAYER1
  6
Continuous
100
AcDbCircle
 10
171.5
 20
213.453723
 30
0.0
 40
1.5
100
AcDbArc
 50
270.0
 51
0.0
  0
LINE
  5
1AE
330
1D
100
AcDbEntity
  8
CSLAYER1
  6
Continuous
100
AcDbLine
 10
171.5
 20
211.953723
 30
0.0
 11
164.7
 21
211.953723
 31
0.0
  0
LINE
  5
1AF
330
1D
100
AcDbEntity
  8
CSLAYER1
  6
Continuous
100
AcDbLine
 10
161.0
 20
148.0
 30
0.0
 11
149.0
 21
148.0
 31
0.0
  0
ARC
  5
1B0
330
1D
100
AcDbEntity
  8
CSLAYER1
  6
Continuous
100
AcDbCircle
 10
149.0
 20
144.0
 30
0.0
 40
4.0
100
AcDbArc
 50
90.0
 51
180.0
  0
LINE
  5
1B1
330
1D
100
AcDbEntity
  8
CSLAYER1
  6
Continuous
100
AcDbLine
 10
145.0
 20
144.0
 30
0.0
 11
145.0
 21
106.0
 31
0.0
  0
ARC
  5
1B2
330
1D
100
AcDbEntity
  8
CSLAYER1
  6
Continuous
100
AcDbCircle
 10
149.0
 20
106.0
 30
0.0
 40
4.0
100
AcDbArc
 50
180.0
 51
270.0
  0
LINE
  5
1B3
330
1D
100
AcDbEntity
  8
CSLAYER1
  6
Continuous
100
AcDbLine
 10
149.0
 20
102.0
 30
0.0
 11
161.0
 21
102.0
 31
0.0
  0
ARC
  5
1B4
330
1D
100
AcDbEntity
  8
CSLAYER1
  6
Continuous
100
AcDbCircle
 10
161.0
 20
106.0
 30
0.0
 40
4.0
100
AcDbArc
 50
270.0
 51
0.0
  0
LINE
  5
1B5
330
1D
100
AcDbEntity
  8
CSLAYER1
  6
Continuous
100
AcDbLine
 10
165.0
 20
106.0
 30
0.0
 11
165.0
 21
144.0
 31
0.0
  0
ARC
  5
1B6
330
1D
100
AcDbEntity
  8
CSLAYER1
  6
Continuous
100
AcDbCircle
 10
161.0
 20
144.0
 30
0.0
 40
4.0
100
AcDbArc
 50
0.0
 51
90.0
  0
LINE
  5
1B8
330
1D
100
AcDbEntity
  8
CSLAYER1
  6
Continuous
100
AcDbLine
 10
145.0
 20
136.0
 30
0.0
 11
165.0
 21
136.0
 31
0.0
  0
LINE
  5
1B9
330
1D
100
AcDbEntity
  8
CSLAYER1
  6
Continuous
100
AcDbLine
 10
165.0
 20
114.0
 30
0.0
 11
145.0
 21
114.0
 31
0.0
  0
ARC
  5
1BB
330
1D
100
AcDbEntity
  8
CSLAYER1
  6
Continuous
100
AcDbCircle
 10
108.5
 20
114.0
 30
0.0
 40
1.5
100
AcDbArc
 50
270.0
 51
0.0
  0
LINE
  5
1BC
330
1D
100
AcDbEntity
  8
CSLAYER1
  6
Continuous
100
AcDbLine
 10
108.5
 20
112.5
 30
0.0
 11
93.5
 21
112.5
 31
0.0
  0
LINE
  5
1BD
330
1D
100
AcDbEntity
  8
CSLAYER1
  6
Continuous
100
AcDbLine
 10
93.5
 20
112.5
 30
0.0
 11
93.5
 21
102.0
 31
0.0
  0
LINE
  5
1BE
330
1D
100
AcDbEntity
  8
CSLAYER1
  6
Continuous
100
AcDbLine
 10
93.5
 20
102.0
 30
0.0
 11
92.0
 21
102.0
 31
0.0
  0
LINE
  5
1BF
330
1D
100
AcDbEntity
  8
CSLAYER1
  6
Continuous
100
AcDbLine
 10
92.0
 20
102.0
 30
0.0
 11
92.0
 21
112.5
 31
0.0
  0
ARC
  5
1C0
330
1D
100
AcDbEntity
  8
CSLAYER1
  6
Continuous
100
AcDbCircle
 10
93.5
 20
112.5
 30
0.0
 40
1.5
100
AcDbArc
 50
90.0
 51
180.0
  0
LINE
  5
1C1
330
1D
100
AcDbEntity
  8
CSLAYER1
  6
Continuous
100
AcDbLine
 10
93.5
 20
114.0
 30
0.0
 11
108.5
 21
114.0
 31
0.0
  0
LINE
  5
1C2
330
1D
100
AcDbEntity
  8
CSLAYER1
  6
Continuous
100
AcDbLine
 10
108.5
 20
114.0
 30
0.0
 11
108.5
 21
136.0
 31
0.0
  0
LINE
  5
1C3
330
1D
100
AcDbEntity
  8
CSLAYER1
  6
Continuous
100
AcDbLine
 10
108.5
 20
136.0
 30
0.0
 11
93.5
 21
136.0
 31
0.0
  0
ARC
  5
1C4
330
1D
100
AcDbEntity
  8
CSLAYER1
  6
Continuous
100
AcDbCircle
 10
93.5
 20
137.5
 30
0.0
 40
1.5
100
AcDbArc
 50
180.0
 51
270.0
  0
LINE
  5
1C5
330
1D
100
AcDbEntity
  8
CSLAYER1
  6
Continuous
100
AcDbLine
 10
92.0
 20
137.5
 30
0.0
 11
92.0
 21
148.0
 31
0.0
  0
LINE
  5
1C6
330
1D
100
AcDbEntity
  8
CSLAYER1
  6
Continuous
100
AcDbLine
 10
92.0
 20
148.0
 30
0.0
 11
93.5
 21
148.0
 31
0.0
  0
LINE
  5
1C7
330
1D
100
AcDbEntity
  8
CSLAYER1
  6
Continuous
100
AcDbLine
 10
93.5
 20
148.0
 30
0.0
 11
93.5
 21
137.5
 31
0.0
  0
LINE
  5
1C8
330
1D
100
AcDbEntity
  8
CSLAYER1
  6
Continuous
100
AcDbLine
 10
93.5
 20
137.5
 30
0.0
 11
108.5
 21
137.5
 31
0.0
  0
ARC
  5
1C9
330
1D
100
AcDbEntity
  8
CSLAYER1
  6
Continuous
100
AcDbCircle
 10
108.5
 20
136.0
 30
0.0
 40
1.5
100
AcDbArc
 50
0.0
 51
90.0
  0
LINE
  5
1CA
330
1D
100
AcDbEntity
  8
CSLAYER1
  6
Continuous
100
AcDbLine
 10
110.0
 20
136.0
 30
0.0
 11
110.0
 21
114.0
 31
0.0
  0
LINE
  5
1D1
330
1D
100
AcDbEntity
  8
CSLAYER1
  6
Continuous
100
AcDbLine
 10
283.5
 20
105.540248
 30
0.0
 11
283.5
 21
106.540248
 31
0.0
  0
LINE
  5
1D2
330
1D
100
AcDbEntity
  8
CSLAYER1
  6
Continuous
100
AcDbLine
 10
283.5
 20
106.540248
 30
0.0
 11
353.0
 21
106.540248
 31
0.0
  0
LINE
  5
1D3
330
1D
100
AcDbEntity
  8
CSLAYER1
  6
Continuous
100
AcDbLine
 10
353.0
 20
105.540248
 30
0.0
 11
283.5
 21
105.540248
 31
0.0
  0
LINE
  5
1D4
330
1D
100
AcDbEntity
  8
CSLAYER1
  6
Continuous
100
AcDbLine
 10
283.75
 20
106.540248
 30
0.0
 11
283.75
 21
110.540248
 31
0.0
  0
LINE
  5
1D5
330
1D
100
AcDbEntity
  8
CSLAYER1
  6
Continuous
100
AcDbLine
 10
283.5
 20
110.540248
 30
0.0
 11
283.5
 21
121.540248
 31
0.0
  0
LINE
  5
1D6
330
1D
100
AcDbEntity
  8
CSLAYER1
  6
Continuous
100
AcDbLine
 10
283.5
 20
121.540248
 30
0.0
 11
325.5
 21
121.540248
 31
0.0
  0
LINE
  5
1D7
330
1D
100
AcDbEntity
  8
CSLAYER1
  6
Continuous
100
AcDbLine
 10
328.5
 20
121.540248
 30
0.0
 11
351.5
 21
121.540248
 31
0.0
  0
ARC
  5
1D8
330
1D
100
AcDbEntity
  8
CSLAYER1
  6
Continuous
100
AcDbCircle
 10
351.5
 20
120.040248
 30
0.0
 40
1.5
100
AcDbArc
 50
0.0
 51
90.0
  0
LINE
  5
1D9
330
1D
100
AcDbEntity
  8
CSLAYER1
  6
Continuous
100
AcDbLine
 10
353.0
 20
120.040248
 30
0.0
 11
353.0
 21
105.540248
 31
0.0
  0
LINE
  5
1DA
330
1D
100
AcDbEntity
  8
CSLAYER1
  6
Continuous
100
AcDbLine
 10
354.0
 20
105.540248
 30
0.0
 11
354.0
 21
110.240248
 31
0.0
  0
LINE
  5
1DB
330
1D
100
AcDbEntity
  8
CSLAYER1
  6
Continuous
100
AcDbLine
 10
354.0
 20
110.240248
 30
0.0
 11
353.0
 21
110.240248
 31
0.0
  0
LINE
  5
1DC
330
1D
100
AcDbEntity
  8
CSLAYER1
  6
Continuous
100
AcDbLine
 10
353.0
 20
111.240248
 30
0.0
 11
354.0
 21
111.240248
 31
0.0
  0
ARC
  5
1DD
330
1D
100
AcDbEntity
  8
CSLAYER1
  6
Continuous
100
AcDbCircle
 10
354.0
 20
110.240248
 30
0.0
 40
1.0
100
AcDbArc
 50
0.0
 51
90.0
  0
LINE
  5
1DE
330
1D
100
AcDbEntity
  8
CSLAYER1
  6
Continuous
100
AcDbLine
 10
355.0
 20
110.240248
 30
0.0
 11
355.0
 21
105.540248
 31
0.0
  0
LINE
  5
1DF
330
1D
100
AcDbEntity
  8
CSLAYER1
  6
Continuous
100
AcDbLine
 10
355.0
 20
105.540248
 30
0.0
 11
354.0
 21
105.540248
 31
0.0
  0
LINE
  5
1E0
330
1D
100
AcDbEntity
  8
CSLAYER1
  6
Continuous
100
AcDbLine
 10
328.5
 20
117.040248
 30
0.0
 11
328.5
 21
137.040248
 31
0.0
  0
LINE
  5
1E1
330
1D
100
AcDbEntity
  8
CSLAYER1
  6
Continuous
100
AcDbLine
 10
328.5
 20
137.040248
 30
0.0
 11
325.5
 21
137.040248
 31
0.0
  0
LINE
  5
1E2
330
1D
100
AcDbEntity
  8
CSLAYER1
  6
Continuous
100
AcDbLine
 10
325.5
 20
137.040248
 30
0.0
 11
325.5
 21
117.040248
 31
0.0
  0
LINE
  5
1E3
330
1D
100
AcDbEntity
  8
CSLAYER1
  6
Continuous
100
AcDbLine
 10
325.5
 20
117.040248
 30
0.0
 11
328.5
 21
117.040248
 31
0.0
  0
LINE
  5
1E4
330
1D
100
AcDbEntity
  8
CSLAYER1
  6
Continuous
100
AcDbLine
 10
285.0
 20
110.540248
 30
0.0
 11
283.5
 21
110.540248
 31
0.0
  0
LINE
  5
1E5
330
1D
100
AcDbEntity
  8
CSLAYER1
  6
Continuous
100
AcDbLine
 10
284.75
 20
110.540248
 30
0.0
 11
284.75
 21
106.540248
 31
0.0
  0
LINE
  5
1E6
330
1D
100
AcDbEntity
  8
CSLAYER1
  6
Continuous
100
AcDbLine
 10
285.0
 20
106.540248
 30
0.0
 11
285.0
 21
110.540248
 31
0.0
  0
LINE
  5
1E7
330
1D
100
AcDbEntity
  8
CSLAYER1
  6
Continuous
100
AcDbLine
 10
283.5
 20
112.040248
 30
0.0
 11
280.5
 21
112.040248
 31
0.0
  0
LINE
  5
1E8
330
1D
100
AcDbEntity
  8
CSLAYER1
  6
Continuous
100
AcDbLine
 10
280.5
 20
112.040248
 30
0.0
 11
280.5
 21
118.540248
 31
0.0
  0
ARC
  5
1E9
330
1D
100
AcDbEntity
  8
CSLAYER1
  6
Continuous
100
AcDbCircle
 10
282.0
 20
118.540248
 30
0.0
 40
1.5
100
AcDbArc
 50
90.0
 51
180.0
  0
LINE
  5
1EA
330
1D
100
AcDbEntity
  8
CSLAYER1
  6
Continuous
100
AcDbLine
 10
282.0
 20
120.040248
 30
0.0
 11
283.5
 21
120.040248
 31
0.0
  0
ARC
  5
1EB
330
1D
100
AcDbEntity
  8
CSLAYER1
  6
Continuous
100
AcDbCircle
 10
287.5
 20
203.0
 30
0.0
 40
4.0
100
AcDbArc
 50
180.0
 51
270.0
  0
LINE
  5
1EC
330
1D
100
AcDbEntity
  8
CSLAYER1
  6
Continuous
100
AcDbLine
 10
283.5
 20
203.0
 30
0.0
 11
283.5
 21
241.0
 31
0.0
  0
ARC
  5
1ED
330
1D
100
AcDbEntity
  8
CSLAYER1
  6
Continuous
100
AcDbCircle
 10
287.5
 20
241.0
 30
0.0
 40
4.0
100
AcDbArc
 50
90.0
 51
180.0
  0
LINE
  5
1EE
330
1D
100
AcDbEntity
  8
CSLAYER1
  6
Continuous
100
AcDbLine
 10
287.5
 20
245.0
 30
0.0
 11
349.0
 21
245.0
 31
0.0
  0
ARC
  5
1EF
330
1D
100
AcDbEntity
  8
CSLAYER1
  6
Continuous
100
AcDbCircle
 10
349.0
 20
241.0
 30
0.0
 40
4.0
100
AcDbArc
 50
0.0
 51
90.0
  0
LINE
  5
1F0
330
1D
100
AcDbEntity
  8
CSLAYER1
  6
Continuous
100
AcDbLine
 10
353.0
 20
241.0
 30
0.0
 11
353.0
 21
203.0
 31
0.0
  0
ARC
  5
1F1
330
1D
100
AcDbEntity
  8
CSLAYER1
  6
Continuous
100
AcDbCircle
 10
349.0
 20
203.0
 30
0.0
 40
4.0
100
AcDbArc
 50
270.0
 51
0.0
  0
LINE
  5
1F2
330
1D
100
AcDbEntity
  8
CSLAYER1
  6
Continuous
100
AcDbLine
 10
349.0
 20
199.0
 30
0.0
 11
287.5
 21
199.0
 31
0.0
  0
LINE
  5
1F4
330
1D
100
AcDbEntity
  8
CSLAYER1
  6
Continuous
100
AcDbLine
 10
283.5
 20
210.5
 30
0.0
 11
325.5
 21
210.5
 31
0.0
  0
LINE
  5
1F5
330
1D
100
AcDbEntity
  8
CSLAYER1
  6
Continuous
100
AcDbLine
 10
328.5
 20
210.5
 30
0.0
 11
353.0
 21
210.5
 31
0.0
  0
LINE
  5
1F6
330
1D
100
AcDbEntity
  8
CSLAYER1
  6
Continuous
100
AcDbLine
 10
354.0
 20
211.5
 30
0.0
 11
354.0
 21
212.6
 31
0.0
  0
LINE
  5
1F7
330
1D
100
AcDbEntity
  8
CSLAYER1
  6
Continuous
100
AcDbLine
 10
353.0
 20
212.6
 30
0.0
 11
355.0
 21
212.6
 31
0.0
  0
LINE
  5
1F8
330
1D
100
AcDbEntity
  8
CSLAYER1
  6
Continuous
100
AcDbLine
 10
355.0
 20
211.5
 30
0.0
 11
354.0
 21
211.5
 31
0.0
  0
LINE
  5
1F9
330
1D
100
AcDbEntity
  8
CSLAYER1
  6
Continuous
100
AcDbLine
 10
355.0
 20
211.5
 30
0.0
 11
355.0
 21
232.5
 31
0.0
  0
LINE
  5
1FA
330
1D
100
AcDbEntity
  8
CSLAYER1
  6
Continuous
100
AcDbLine
 10
355.0
 20
232.5
 30
0.0
 11
354.0
 21
232.5
 31
0.0
  0
LINE
  5
1FB
330
1D
100
AcDbEntity
  8
CSLAYER1
  6
Continuous
100
AcDbLine
 10
354.0
 20
232.5
 30
0.0
 11
354.0
 21
231.4
 31
0.0
  0
LINE
  5
1FC
330
1D
100
AcDbEntity
  8
CSLAYER1
  6
Continuous
100
AcDbLine
 10
355.0
 20
231.4
 30
0.0
 11
353.0
 21
231.4
 31
0.0
  0
LINE
  5
1FD
330
1D
100
AcDbEntity
  8
CSLAYER1
  6
Continuous
100
AcDbLine
 10
353.0
 20
233.5
 30
0.0
 11
328.5
 21
233.5
 31
0.0
  0
LINE
  5
1FE
330
1D
100
AcDbEntity
  8
CSLAYER1
  6
Continuous
100
AcDbLine
 10
325.5
 20
233.5
 30
0.0
 11
283.5
 21
233.5
 31
0.0
  0
LINE
  5
1FF
330
1D
100
AcDbEntity
  8
CSLAYER1
  6
Continuous
100
AcDbLine
 10
283.5
 20
232.0
 30
0.0
 11
280.5
 21
232.0
 31
0.0
  0
LINE
  5
200
330
1D
100
AcDbEntity
  8
CSLAYER1
  6
Continuous
100
AcDbLine
 10
280.5
 20
232.0
 30
0.0
 11
280.5
 21
212.0
 31
0.0
  0
LINE
  5
201
330
1D
100
AcDbEntity
  8
CSLAYER1
  6
Continuous
100
AcDbLine
 10
280.5
 20
212.0
 30
0.0
 11
283.5
 21
212.0
 31
0.0
  0
LINE
  5
202
330
1D
100
AcDbEntity
  8
CSLAYER1
  6
Continuous
100
AcDbLine
 10
305.5
 20
216.0
 30
0.0
 11
325.5
 21
216.0
 31
0.0
  0
LINE
  5
203
330
1D
100
AcDbEntity
  8
CSLAYER1
  6
Continuous
100
AcDbLine
 10
321.5
 20
220.5
 30
0.0
 11
314.5
 21
220.5
 31
0.0
  0
LINE
  5
204
330
1D
100
AcDbEntity
  8
CSLAYER1
  6
Continuous
100
AcDbLine
 10
314.5
 20
220.5
 30
0.0
 11
314.5
 21
218.0
 31
0.0
  0
LINE
  5
205
330
1D
100
AcDbEntity
  8
CSLAYER1
  6
Continuous
100
AcDbLine
 10
314.5
 20
218.0
 30
0.0
 11
309.5
 21
222.0
 31
0.0
  0
LINE
  5
206
330
1D
100
AcDbEntity
  8
CSLAYER1
  6
Continuous
100
AcDbLine
 10
309.5
 20
222.0
 30
0.0
 11
314.5
 21
226.0
 31
0.0
  0
LINE
  5
207
330
1D
100
AcDbEntity
  8
CSLAYER1
  6
Continuous
100
AcDbLine
 10
314.5
 20
226.0
 30
0.0
 11
314.5
 21
223.5
 31
0.0
  0
LINE
  5
208
330
1D
100
AcDbEntity
  8
CSLAYER1
  6
Continuous
100
AcDbLine
 10
314.5
 20
223.5
 30
0.0
 11
321.5
 21
223.5
 31
0.0
  0
LINE
  5
209
330
1D
100
AcDbEntity
  8
CSLAYER1
  6
Continuous
100
AcDbLine
 10
321.5
 20
223.5
 30
0.0
 11
321.5
 21
220.5
 31
0.0
  0
LINE
  5
20A
330
1D
100
AcDbEntity
  8
CSLAYER1
  6
Continuous
100
AcDbLine
 10
325.5
 20
228.0
 30
0.0
 11
305.5
 21
228.0
 31
0.0
  0
LINE
  5
20B
330
1D
100
AcDbEntity
  8
CSLAYER1
  6
Continuous
100
AcDbLine
 10
305.5
 20
228.0
 30
0.0
 11
305.5
 21
216.0
 31
0.0
  0
LINE
  5
20C
330
1D
100
AcDbEntity
  8
CSLAYER1
  6
Continuous
100
AcDbLine
 10
325.5
 20
240.0
 30
0.0
 11
325.5
 21
204.0
 31
0.0
  0
LINE
  5
20D
330
1D
100
AcDbEntity
  8
CSLAYER1
  6
Continuous
100
AcDbLine
 10
325.5
 20
204.0
 30
0.0
 11
328.5
 21
204.0
 31
0.0
  0
LINE
  5
20E
330
1D
100
AcDbEntity
  8
CSLAYER1
  6
Continuous
100
AcDbLine
 10
328.5
 20
204.0
 30
0.0
 11
328.5
 21
240.0
 31
0.0
  0
LINE
  5
20F
330
1D
100
AcDbEntity
  8
CSLAYER1
  6
Continuous
100
AcDbLine
 10
328.5
 20
240.0
 30
0.0
 11
325.5
 21
240.0
 31
0.0
  0
LINE
  5
213
330
1D
100
AcDbEntity
  8
CSLAYER1
  6
Continuous
100
AcDbLine
 10
171.5
 20
213.546277
 30
0.0
 11
164.7
 21
213.546277
 31
0.0
  0
ARC
  5
214
330
1D
100
AcDbEntity
  8
CSLAYER1
  6
Continuous
100
AcDbCircle
 10
159.5
 20
231.4
 30
0.0
 40
1.0
100
AcDbArc
 50
90.0
 51
180.0
  0
ARC
  5
215
330
1D
100
AcDbEntity
  8
CSLAYER1
  6
Continuous
100
AcDbCircle
 10
159.5
 20
233.5
 30
0.0
 40
1.0
100
AcDbArc
 50
224.427004
 51
270.0
  0
LINE
  5
223
330
1D
100
AcDbEntity
  8
CSLAYER10
  6
Continuous
100
AcDbLine
 10
155.0
 20
98.889143
 30
0.0
 11
155.0
 21
150.690163
 31
0.0
  0
LINE
  5
224
330
1D
100
AcDbEntity
  8
CSLAYER10
  6
Continuous
100
AcDbLine
 10
150.775
 20
142.0
 30
0.0
 11
178.0
 21
142.0
 31
0.0
  0
LINE
  5
225
330
1D
100
AcDbEntity
  8
CSLAYER10
  6
Continuous
100
AcDbLine
 10
164.564282
 20
205.0
 30
0.0
 11
152.730949
 21
205.0
 31
0.0
  0
LINE
  5
226
330
1D
100
AcDbEntity
  8
CSLAYER10
  6
Continuous
100
AcDbLine
 10
148.504758
 20
222.0
 30
0.0
 11
195.087746
 21
222.0
 31
0.0
  0
LINE
  5
227
330
1D
100
AcDbEntity
  8
CSLAYER10
  6
Continuous
100
AcDbLine
 10
164.564282
 20
239.0
 30
0.0
 11
152.730949
 21
239.0
 31
0.0
  0
LINE
  5
228
330
1D
100
AcDbEntity
  8
CSLAYER10
  6
Continuous
100
AcDbLine
 10
256.855162
 20
222.0
 30
0.0
 11
360.700038
 21
222.0
 31
0.0
  0
LINE
  5
229
330
1D
100
AcDbEntity
  8
CSLAYER10
  6
Continuous
100
AcDbLine
 10
347.725
 20
239.0
 30
0.0
 11
339.275
 21
239.0
 31
0.0
  0
LINE
  5
22A
330
1D
100
AcDbEntity
  8
CSLAYER10
  6
Continuous
100
AcDbLine
 10
343.5
 20
243.225
 30
0.0
 11
343.5
 21
234.775
 31
0.0
  0
LINE
  5
22B
330
1D
100
AcDbEntity
  8
CSLAYER10
  6
PHANTOM
100
AcDbLine
 10
308.5
 20
240.0
 30
0.0
 11
305.5
 21
240.0
 31
0.0
  0
LINE
  5
22C
330
1D
100
AcDbEntity
  8
CSLAYER10
  6
PHANTOM
100
AcDbLine
 10
305.5
 20
240.0
 30
0.0
 11
305.5
 21
228.0
 31
0.0
  0
LINE
  5
22D
330
1D
100
AcDbEntity
  8
CSLAYER10
  6
PHANTOM
100
AcDbLine
 10
305.5
 20
216.0
 30
0.0
 11
305.5
 21
204.0
 31
0.0
  0
LINE
  5
22E
330
1D
100
AcDbEntity
  8
CSLAYER10
  6
PHANTOM
100
AcDbLine
 10
305.5
 20
204.0
 30
0.0
 11
308.5
 21
204.0
 31
0.0
  0
LINE
  5
22F
330
1D
100
AcDbEntity
  8
CSLAYER10
  6
PHANTOM
100
AcDbLine
 10
308.5
 20
204.0
 30
0.0
 11
308.5
 21
240.0
 31
0.0
  0
LINE
  5
230
330
1D
100
AcDbEntity
  8
CSLAYER10
  6
Continuous
100
AcDbLine
 10
297.725
 20
239.0
 30
0.0
 11
289.275
 21
239.0
 31
0.0
  0
LINE
  5
231
330
1D
100
AcDbEntity
  8
CSLAYER10
  6
Continuous
100
AcDbLine
 10
293.5
 20
234.775
 30
0.0
 11
293.5
 21
243.225
 31
0.0
  0
LINE
  5
232
330
1D
100
AcDbEntity
  8
CSLAYER10
  6
PHANTOM
100
AcDbLine
 10
280.5
 20
232.0
 30
0.0
 11
260.5
 21
232.0
 31
0.0
  0
LINE
  5
233
330
1D
100
AcDbEntity
  8
CSLAYER10
  6
PHANTOM
100
AcDbLine
 10
260.5
 20
232.0
 30
0.0
 11
260.5
 21
212.0
 31
0.0
  0
LINE
  5
234
330
1D
100
AcDbEntity
  8
CSLAYER10
  6
PHANTOM
100
AcDbLine
 10
260.5
 20
212.0
 30
0.0
 11
280.5
 21
212.0
 31
0.0
  0
LINE
  5
235
330
1D
100
AcDbEntity
  8
CSLAYER10
  6
Continuous
100
AcDbLine
 10
289.275
 20
205.0
 30
0.0
 11
297.725
 21
205.0
 31
0.0
  0
LINE
  5
236
330
1D
100
AcDbEntity
  8
CSLAYER10
  6
Continuous
100
AcDbLine
 10
293.5
 20
209.225
 30
0.0
 11
293.5
 21
186.0
 31
0.0
  0
LINE
  5
237
330
1D
100
AcDbEntity
  8
CSLAYER10
  6
Continuous
100
AcDbLine
 10
339.275
 20
205.0
 30
0.0
 11
347.725
 21
205.0
 31
0.0
  0
LINE
  5
238
330
1D
100
AcDbEntity
  8
CSLAYER10
  6
Continuous
100
AcDbLine
 10
343.5
 20
209.225
 30
0.0
 11
343.5
 21
186.0
 31
0.0
  0
LINE
  5
239
330
1D
100
AcDbEntity
  8
CSLAYER10
  6
PHANTOM
100
AcDbLine
 10
308.5
 20
137.040248
 30
0.0
 11
305.5
 21
137.040248
 31
0.0
  0
LINE
  5
23A
330
1D
100
AcDbEntity
  8
CSLAYER10
  6
PHANTOM
100
AcDbLine
 10
305.5
 20
137.040248
 30
0.0
 11
305.5
 21
117.040248
 31
0.0
  0
LINE
  5
23B
330
1D
100
AcDbEntity
  8
CSLAYER10
  6
PHANTOM
100
AcDbLine
 10
305.5
 20
117.040248
 30
0.0
 11
308.5
 21
117.040248
 31
0.0
  0
LINE
  5
23C
330
1D
100
AcDbEntity
  8
CSLAYER10
  6
PHANTOM
100
AcDbLine
 10
308.5
 20
117.040248
 30
0.0
 11
308.5
 21
137.040248
 31
0.0
  0
LINE
  5
23D
330
1D
100
AcDbEntity
  8
CSLAYER10
  6
Continuous
100
AcDbLine
 10
318.5
 20
125.040248
 30
0.0
 11
318.5
 21
98.683642
 31
0.0
  0
LINE
  5
23E
330
1D
100
AcDbEntity
  8
CSLAYER10
  6
Continuous
100
AcDbLine
 10
343.5
 20
96.993166
 30
0.0
 11
343.5
 21
112.207452
 31
0.0
  0
LINE
  5
23F
330
1D
100
AcDbEntity
  8
CSLAYER10
  6
Continuous
100
AcDbLine
 10
293.5
 20
112.207452
 30
0.0
 11
293.5
 21
96.993166
 31
0.0
  0
LINE
  5
240
330
1D
100
AcDbEntity
  8
CSLAYER10
  6
PHANTOM
100
AcDbLine
 10
280.5
 20
112.040248
 30
0.0
 11
260.5
 21
112.040248
 31
0.0
  0
LINE
  5
241
330
1D
100
AcDbEntity
  8
CSLAYER10
  6
PHANTOM
100
AcDbLine
 10
260.5
 20
112.040248
 30
0.0
 11
260.5
 21
118.540248
 31
0.0
  0
ARC
  5
242
330
1D
100
AcDbEntity
  8
CSLAYER10
  6
PHANTOM
100
AcDbCircle
 10
262.0
 20
118.540248
 30
0.0
 40
1.5
100
AcDbArc
 50
90.0
 51
180.0
  0
LINE
  5
243
330
1D
100
AcDbEntity
  8
CSLAYER10
  6
PHANTOM
100
AcDbLine
 10
262.0
 20
120.040248
 30
0.0
 11
282.0
 21
120.040248
 31
0.0
  0
LINE
  5
244
330
1D
100
AcDbEntity
  8
CSLAYER10
  6
Continuous
100
AcDbLine
 10
248.5
 20
105.540248
 30
0.0
 11
248.5
 21
92.510194
 31
0.0
  0
LINE
  5
262
330
1D
100
AcDbEntity
  8
CSLAYER10
  6
Continuous
100
AcDbLine
 10
178.0
 20
108.0
 30
0.0
 11
150.775
 21
108.0
 31
0.0
  0
LINE
  5
263
330
1D
100
AcDbEntity
  8
CSLAYER10
  6
Continuous
100
AcDbLine
 10
140.077523
 20
125.0
 30
0.0
 11
170.626842
 21
125.0
 31
0.0
  0
LINE
  5
264
330
1D
100
AcDbEntity
  8
CSLAYER10
  6
Continuous
100
AcDbLine
 10
113.97619
 20
125.0
 30
0.0
 11
88.619048
 21
125.0
 31
0.0
  0
LINE
  5
265
330
1D
100
AcDbEntity
  8
CSLAYER10
  6
Continuous
100
AcDbLine
 10
87.58514
 20
108.0
 30
0.0
 11
98.361926
 21
108.0
 31
0.0
  0
LINE
  5
266
330
1D
100
AcDbEntity
  8
CSLAYER10
  6
Continuous
100
AcDbLine
 10
98.361926
 20
142.0
 30
0.0
 11
87.58514
 21
142.0
 31
0.0
  0
TEXT
  5
28E
330
1D
100
AcDbEntity
  8
CSLAYER10
100
AcDbText
 10
309.305481
 20
157.930573
 30
0.0
 40
4.0
  1
スライド
 41
0.671641791045
  7
FX_FONT
 72
     5
 11
321.305481
 21
157.930573
 31
0.0
100
AcDbText
  0
SPLINE
  5
366
330
1D
100
AcDbEntity
  8
CSLAYER1
100
AcDbSpline
210
0.0
220
0.0
230
1.0
 70
  1064
 71
     3
 72
     9
 73
     5
 74
     3
 42
0.000000001
 43
0.0000000001
 44
0.0
 12
1.0
 22
0.0
 32
0.0
 13
-0.9895890930501341
 23
-0.1439215998945711
 33
0.0
 40
0.0
 40
0.0
 40
0.0
 40
0.0
 40
4.613834185980306
 40
8.236794697375577
 40
8.236794697375577
 40
8.236794697375577
 40
8.236794697375577
 10
159.5
 20
242.8778171560455
 30
0.0
 10
161.0379447286601
 20
242.8778171560455
 30
0.0
 10
163.2086277044108
 20
239.0364952330787
 30
0.0
 10
160.6950807355427
 20
236.5516245804304
 30
0.0
 10
159.5
 20
236.3778171560455
 30
0.0
 11
159.5
 21
242.8778171560455
 31
0.0
 11
162.0
 21
239.0
 31
0.0
 11
159.5
 21
236.3778171560455
 31
0.0
  0
SPLINE
  5
36A
330
1D
100
AcDbEntity
  8
CSLAYER1
100
AcDbSpline
210
0.0
220
0.0
230
1.0
 70
  1064
 71
     3
 72
     9
 73
     5
 74
     3
 42
0.000000001
 43
0.0000000001
 44
0.0
 12
1.0
 22
0.0
 32
0.0
 13
-0.9895890930501341
 23
-0.1439215998945711
 33
0.0
 40
0.0
 40
0.0
 40
0.0
 40
0.0
 40
4.093518063421004
 40
8.200616387003334
 40
8.200616387003334
 40
8.200616387003334
 40
8.200616387003334
 10
159.5
 20
208.2414333458447
 30
0.0
 10
160.8645060211404
 20
208.2414333458447
 30
0.0
 10
163.1403471865726
 20
204.8996116955592
 30
0.0
 10
160.8547799017005
 20
201.9384667330628
 30
0.0
 10
159.5
 20
201.7414333458447
 30
0.0
 11
159.5
 21
208.2414333458447
 31
0.0
 11
162.0
 21
205.0
 31
0.0
 11
159.5
 21
201.7414333458447
 31
0.0
  0
SPLINE
  5
36E
330
1D
100
AcDbEntity
  8
CSLAYER1
100
AcDbSpline
210
0.0
220
0.0
230
1.0
 70
  1064
 71
     3
 72
     9
 73
     5
 74
     3
 42
0.000000001
 43
0.0000000001
 44
0.0
 12
6.123233995736766E-17
 22
1.0
 32
0.0
 13
0.143921599894571
 23
-0.9895890930501341
 33
0.0
 40
0.0
 40
0.0
 40
0.0
 40
0.0
 40
4.077003198404423
 40
8.200688357521997
 40
8.200688357521997
 40
8.200688357521997
 40
8.200688357521997
 10
290.2808048470067
 20
106.540248
 30
0.0
 10
290.2808048470067
 20
107.8992490661348
 30
0.0
 10
293.6067037959403
 20
110.1807028487558
 30
0.0
 10
296.5829757251528
 20
107.9004992855452
 30
0.0
 10
296.7808048470067
 20
106.540248
 30
0.0
 11
290.2808048470067
 21
106.540248
 31
0.0
 11
293.50135683072
 21
109.040248
 31
0.0
 11
296.7808048470067
 21
106.540248
 31
0.0
  0
SPLINE
  5
36F
330
1D
100
AcDbEntity
  8
CSLAYER1
100
AcDbSpline
210
0.0
220
0.0
230
1.0
 70
  1064
 71
     3
 72
     9
 73
     5
 74
     3
 42
0.000000001
 43
0.0000000001
 44
0.0
 12
-6.123233995736766E-17
 22
1.0
 32
0.0
 13
-0.143921599894571
 23
-0.9895890930501341
 33
0.0
 40
0.0
 40
0.0
 40
0.0
 40
0.0
 40
4.077003198404423
 40
8.200688357521997
 40
8.200688357521997
 40
8.200688357521997
 40
8.200688357521997
 10
346.7191951529933
 20
106.540248
 30
0.0
 10
346.7191951529933
 20
107.8992490661348
 30
0.0
 10
343.3932962040595
 20
110.1807028487558
 30
0.0
 10
340.4170242748472
 20
107.9004992855452
 30
0.0
 10
340.2191951529933
 20
106.540248
 30
0.0
 11
346.7191951529933
 21
106.540248
 31
0.0
 11
343.49864316928
 21
109.040248
 31
0.0
 11
340.2191951529933
 21
106.540248
 31
0.0
  0
SPLINE
  5
39A
330
1D
100
AcDbEntity
  8
CSLAYER1
100
AcDbSpline
210
0.0
220
0.0
230
1.0
 70
  1064
 71
     3
 72
     9
 73
     5
 74
     3
 42
0.000000001
 43
0.0000000001
 44
0.0
 12
1.0
 22
0.0
 32
0.0
 13
-0.9895890930501341
 23
-0.1439215998945711
 33
0.0
 40
0.0
 40
0.0
 40
0.0
 40
0.0
 40
4.076653466493509
 40
8.200615074499723
 40
8.200615074499723
 40
8.200615074499723
 40
8.200615074499723
 10
93.5
 20
145.2201572416588
 30
0.0
 10
94.85888448883117
 20
145.2201572416588
 30
0.0
 10
97.14034715905511
 20
141.8945595385011
 30
0.0
 10
94.86034247581348
 20
138.9179996258348
 30
0.0
 10
93.5
 20
138.7201572416588
 30
0.0
 11
93.5
 21
145.2201572416588
 31
0.0
 11
95.99993816420846
 21
142.0
 31
0.0
 11
93.5
 21
138.7201572416588
 31
0.0
  0
SPLINE
  5
39B
330
1D
100
AcDbEntity
  8
CSLAYER1
100
AcDbSpline
210
0.0
220
0.0
230
1.0
 70
  1064
 71
     3
 72
     9
 73
     5
 74
     3
 42
0.000000001
 43
0.0000000001
 44
0.0
 12
1.0
 22
0.0
 32
0.0
 13
-0.9895890930501341
 23
0.1439215998945711
 33
0.0
 40
0.0
 40
0.0
 40
0.0
 40
0.0
 40
4.076653466493509
 40
8.200615074499723
 40
8.200615074499723
 40
8.200615074499723
 40
8.200615074499723
 10
93.5
 20
104.7798427583412
 30
0.0
 10
94.85888448883117
 20
104.7798427583412
 30
0.0
 10
97.14034715905511
 20
108.1054404614989
 30
0.0
 10
94.86034247581348
 20
111.0820003741652
 30
0.0
 10
93.5
 20
111.2798427583412
 30
0.0
 11
93.5
 21
104.7798427583412
 31
0.0
 11
95.99993816420846
 21
108.0
 31
0.0
 11
93.5
 21
111.2798427583412
 31
0.0
  0
CIRCLE
  5
3CA
330
1D
100
AcDbEntity
  8
CSLAYER1
100
AcDbCircle
 10
155.0
 20
142.0
 30
0.0
 40
3.25
  0
LINE
  5
3CB
330
1D
100
AcDbEntity
  8
CSLAYER1
100
AcDbLine
 10
153.41993489012
 20
140.41993489012
 30
0.0
 11
156.58006510988
 21
143.58006510988
 31
0.0
  0
LINE
  5
3CC
330
1D
100
AcDbEntity
  8
CSLAYER1
100
AcDbLine
 10
153.41993489012
 20
143.58006510988
 30
0.0
 11
156.58006510988
 21
140.41993489012
 31
0.0
  0
CIRCLE
  5
3CD
330
1D
100
AcDbEntity
  8
CSLAYER1
100
AcDbCircle
 10
155.0
 20
108.0
 30
0.0
 40
3.25
  0
LINE
  5
3CE
330
1D
100
AcDbEntity
  8
CSLAYER1
100
AcDbLine
 10
153.41993489012
 20
106.41993489012
 30
0.0
 11
156.58006510988
 21
109.58006510988
 31
0.0
  0
LINE
  5
3CF
330
1D
100
AcDbEntity
  8
CSLAYER1
100
AcDbLine
 10
153.41993489012
 20
109.58006510988
 30
0.0
 11
156.58006510988
 21
106.41993489012
 31
0.0
  0
CIRCLE
  5
3D4
330
1D
100
AcDbEntity
  8
CSLAYER1
100
AcDbCircle
 10
293.5
 20
239.0
 30
0.0
 40
3.25
  0
LINE
  5
3D5
330
1D
100
AcDbEntity
  8
CSLAYER1
100
AcDbLine
 10
291.91993489012
 20
237.41993489012
 30
0.0
 11
295.08006510988
 21
240.58006510988
 31
0.0
  0
LINE
  5
3D6
330
1D
100
AcDbEntity
  8
CSLAYER1
100
AcDbLine
 10
291.91993489012
 20
240.58006510988
 30
0.0
 11
295.08006510988
 21
237.41993489012
 31
0.0
  0
CIRCLE
  5
3D7
330
1D
100
AcDbEntity
  8
CSLAYER1
100
AcDbCircle
 10
343.5
 20
239.0
 30
0.0
 40
3.25
  0
LINE
  5
3D8
330
1D
100
AcDbEntity
  8
CSLAYER1
100
AcDbLine
 10
341.91993489012
 20
237.41993489012
 30
0.0
 11
345.08006510988
 21
240.58006510988
 31
0.0
  0
LINE
  5
3D9
330
1D
100
AcDbEntity
  8
CSLAYER1
100
AcDbLine
 10
341.91993489012
 20
240.58006510988
 30
0.0
 11
345.08006510988
 21
237.41993489012
 31
0.0
  0
CIRCLE
  5
3DA
330
1D
100
AcDbEntity
  8
CSLAYER1
100
AcDbCircle
 10
343.5
 20
205.0
 30
0.0
 40
3.25
  0
LINE
  5
3DB
330
1D
100
AcDbEntity
  8
CSLAYER1
100
AcDbLine
 10
341.91993489012
 20
203.41993489012
 30
0.0
 11
345.08006510988
 21
206.58006510988
 31
0.0
  0
LINE
  5
3DC
330
1D
100
AcDbEntity
  8
CSLAYER1
100
AcDbLine
 10
341.91993489012
 20
206.58006510988
 30
0.0
 11
345.08006510988
 21
203.41993489012
 31
0.0
  0
CIRCLE
  5
3DD
330
1D
100
AcDbEntity
  8
CSLAYER1
100
AcDbCircle
 10
293.5
 20
205.0
 30
0.0
 40
3.25
  0
LINE
  5
3DE
330
1D
100
AcDbEntity
  8
CSLAYER1
100
AcDbLine
 10
291.91993489012
 20
203.41993489012
 30
0.0
 11
295.08006510988
 21
206.58006510988
 31
0.0
  0
LINE
  5
3DF
330
1D
100
AcDbEntity
  8
CSLAYER1
100
AcDbLine
 10
291.91993489012
 20
206.58006510988
 30
0.0
 11
295.08006510988
 21
203.41993489012
 31
0.0
  0
TEXT
  5
3E0
330
1D
100
AcDbEntity
  8
CSLAYER10
100
AcDbText
 10
204.5
 20
219.5
 30
0.0
 40
4.0
  1
36
 50
90.0
 41
0.681818181818
  7
FX_FONT
 72
     5
 11
204.5
 21
224.5
 31
0.0
100
AcDbText
  0
LINE
  5
3E1
330
1D
100
AcDbEntity
  8
CSLAYER10
  6
Continuous
100
AcDbLine
 10
183.5
 20
204.0
 30
0.0
 11
206.5
 21
204.0
 31
0.0
  0
LINE
  5
3E2
330
1D
100
AcDbEntity
  8
CSLAYER10
  6
Continuous
100
AcDbLine
 10
183.5
 20
240.0
 30
0.0
 11
206.5
 21
240.0
 31
0.0
  0
LINE
  5
3E3
330
1D
100
AcDbEntity
  8
CSLAYER10
  6
Continuous
100
AcDbLine
 10
205.5
 20
204.0
 30
0.0
 11
205.5
 21
240.0
 31
0.0
  0
LINE
  5
3E4
330
1D
100
AcDbEntity
  8
CSLAYER10
  6
Continuous
100
AcDbLine
 10
205.5
 20
204.0
 30
0.0
 11
204.982362
 21
205.931852
 31
0.0
  0
LINE
  5
3E5
330
1D
100
AcDbEntity
  8
CSLAYER10
  6
Continuous
100
AcDbLine
 10
205.5
 20
204.0
 30
0.0
 11
206.017638
 21
205.931852
 31
0.0
  0
LINE
  5
3E6
330
1D
100
AcDbEntity
  8
CSLAYER10
  6
Continuous
100
AcDbLine
 10
205.5
 20
240.0
 30
0.0
 11
204.982362
 21
238.068148
 31
0.0
  0
LINE
  5
3E7
330
1D
100
AcDbEntity
  8
CSLAYER10
  6
Continuous
100
AcDbLine
 10
205.5
 20
240.0
 30
0.0
 11
206.017638
 21
238.068148
 31
0.0
  0
TEXT
  5
3E8
330
1D
100
AcDbEntity
  8
CSLAYER10
100
AcDbText
 10
161.999985
 20
187.999985
 30
0.0
 40
4.0
  1
12
 41
0.681818181818
  7
FX_FONT
 72
     5
 11
166.999985
 21
187.999985
 31
0.0
100
AcDbText
  0
LINE
  5
3E9
330
1D
100
AcDbEntity
  8
CSLAYER10
  6
Continuous
100
AcDbLine
 10
158.5
 20
198.0
 30
0.0
 11
158.5
 21
176.0
 31
0.0
  0
LINE
  5
3EA
330
1D
100
AcDbEntity
  8
CSLAYER10
  6
Continuous
100
AcDbLine
 10
170.5
 20
205.0
 30
0.0
 11
170.5
 21
186.0
 31
0.0
  0
LINE
  5
3EB
330
1D
100
AcDbEntity
  8
CSLAYER10
  6
Continuous
100
AcDbLine
 10
158.5
 20
187.0
 30
0.0
 11
170.5
 21
187.0
 31
0.0
  0
LINE
  5
3EC
330
1D
100
AcDbEntity
  8
CSLAYER10
  6
Continuous
100
AcDbLine
 10
158.5
 20
187.0
 30
0.0
 11
160.431852
 21
187.517638
 31
0.0
  0
LINE
  5
3ED
330
1D
100
AcDbEntity
  8
CSLAYER10
  6
Continuous
100
AcDbLine
 10
158.5
 20
187.0
 30
0.0
 11
160.431852
 21
186.482362
 31
0.0
  0
LINE
  5
3EE
330
1D
100
AcDbEntity
  8
CSLAYER10
  6
Continuous
100
AcDbLine
 10
170.5
 20
187.0
 30
0.0
 11
168.568148
 21
187.517638
 31
0.0
  0
LINE
  5
3EF
330
1D
100
AcDbEntity
  8
CSLAYER10
  6
Continuous
100
AcDbLine
 10
170.5
 20
187.0
 30
0.0
 11
168.568148
 21
186.482362
 31
0.0
  0
TEXT
  5
3F0
330
1D
100
AcDbEntity
  8
CSLAYER10
100
AcDbText
 10
177.999985
 20
187.999985
 30
0.0
 40
4.0
  1
20
 41
0.705329153605
  7
FX_FONT
 72
     5
 11
182.999985
 21
187.999985
 31
0.0
100
AcDbText
  0
LINE
  5
3F1
330
1D
100
AcDbEntity
  8
CSLAYER10
  6
Continuous
100
AcDbLine
 10
190.5
 20
211.0
 30
0.0
 11
190.5
 21
176.0
 31
0.0
  0
LINE
  5
3F2
330
1D
100
AcDbEntity
  8
CSLAYER10
  6
Continuous
100
AcDbLine
 10
170.5
 20
187.0
 30
0.0
 11
190.5
 21
187.0
 31
0.0
  0
LINE
  5
3F3
330
1D
100
AcDbEntity
  8
CSLAYER10
  6
Continuous
100
AcDbLine
 10
170.5
 20
187.0
 30
0.0
 11
172.431852
 21
187.517638
 31
0.0
  0
LINE
  5
3F4
330
1D
100
AcDbEntity
  8
CSLAYER10
  6
Continuous
100
AcDbLine
 10
170.5
 20
187.0
 30
0.0
 11
172.431852
 21
186.482362
 31
0.0
  0
LINE
  5
3F5
330
1D
100
AcDbEntity
  8
CSLAYER10
  6
Continuous
100
AcDbLine
 10
190.5
 20
187.0
 30
0.0
 11
188.568148
 21
187.517638
 31
0.0
  0
LINE
  5
3F6
330
1D
100
AcDbEntity
  8
CSLAYER10
  6
Continuous
100
AcDbLine
 10
190.5
 20
187.0
 30
0.0
 11
188.568148
 21
186.482362
 31
0.0
  0
TEXT
  5
3F7
330
1D
100
AcDbEntity
  8
CSLAYER10
100
AcDbText
 10
171.999985
 20
178.0
 30
0.0
 40
4.0
  1
32
 41
0.681818181818
  7
FX_FONT
 72
     5
 11
176.999985
 21
178.0
 31
0.0
100
AcDbText
  0
LINE
  5
3F8
330
1D
100
AcDbEntity
  8
CSLAYER10
  6
Continuous
100
AcDbLine
 10
158.5
 20
177.0
 30
0.0
 11
190.5
 21
177.0
 31
0.0
  0
LINE
  5
3F9
330
1D
100
AcDbEntity
  8
CSLAYER10
  6
Continuous
100
AcDbLine
 10
158.5
 20
177.0
 30
0.0
 11
160.431852
 21
177.517638
 31
0.0
  0
LINE
  5
3FA
330
1D
100
AcDbEntity
  8
CSLAYER10
  6
Continuous
100
AcDbLine
 10
158.5
 20
177.0
 30
0.0
 11
160.431852
 21
176.482362
 31
0.0
  0
LINE
  5
3FB
330
1D
100
AcDbEntity
  8
CSLAYER10
  6
Continuous
100
AcDbLine
 10
190.5
 20
177.0
 30
0.0
 11
188.568148
 21
177.517638
 31
0.0
  0
LINE
  5
3FC
330
1D
100
AcDbEntity
  8
CSLAYER10
  6
Continuous
100
AcDbLine
 10
190.5
 20
177.0
 30
0.0
 11
188.568148
 21
176.482362
 31
0.0
  0
TEXT
  5
3FD
330
1D
100
AcDbEntity
  8
CSLAYER10
100
AcDbText
 10
376.0
 20
219.5
 30
0.0
 40
4.0
  1
46
 50
90.0
 41
0.681818181818
  7
FX_FONT
 72
     5
 11
376.0
 21
224.5
 31
0.0
100
AcDbText
  0
LINE
  5
3FE
330
1D
100
AcDbEntity
  8
CSLAYER10
  6
Continuous
100
AcDbLine
 10
350.5
 20
199.0
 30
0.0
 11
378.0
 21
199.0
 31
0.0
  0
LINE
  5
3FF
330
1D
100
AcDbEntity
  8
CSLAYER10
  6
Continuous
100
AcDbLine
 10
350.5
 20
245.0
 30
0.0
 11
378.0
 21
245.0
 31
0.0
  0
LINE
  5
400
330
1D
100
AcDbEntity
  8
CSLAYER10
  6
Continuous
100
AcDbLine
 10
377.0
 20
199.0
 30
0.0
 11
377.0
 21
245.0
 31
0.0
  0
LINE
  5
401
330
1D
100
AcDbEntity
  8
CSLAYER10
  6
Continuous
100
AcDbLine
 10
377.0
 20
199.0
 30
0.0
 11
376.482362
 21
200.931852
 31
0.0
  0
LINE
  5
402
330
1D
100
AcDbEntity
  8
CSLAYER10
  6
Continuous
100
AcDbLine
 10
377.0
 20
199.0
 30
0.0
 11
377.517638
 21
200.931852
 31
0.0
  0
LINE
  5
403
330
1D
100
AcDbEntity
  8
CSLAYER10
  6
Continuous
100
AcDbLine
 10
377.0
 20
245.0
 30
0.0
 11
376.482362
 21
243.068148
 31
0.0
  0
LINE
  5
404
330
1D
100
AcDbEntity
  8
CSLAYER10
  6
Continuous
100
AcDbLine
 10
377.0
 20
245.0
 30
0.0
 11
377.517638
 21
243.068148
 31
0.0
  0
TEXT
  5
405
330
1D
100
AcDbEntity
  8
CSLAYER10
100
AcDbText
 10
366.0
 20
219.5
 30
0.0
 40
4.0
  1
34
 50
90.0
 41
0.681818181818
  7
FX_FONT
 72
     5
 11
366.0
 21
224.5
 31
0.0
100
AcDbText
  0
LINE
  5
406
330
1D
100
AcDbEntity
  8
CSLAYER10
  6
Continuous
100
AcDbLine
 10
347.1
 20
205.0
 30
0.0
 11
368.0
 21
205.0
 31
0.0
  0
LINE
  5
407
330
1D
100
AcDbEntity
  8
CSLAYER10
  6
Continuous
100
AcDbLine
 10
347.1
 20
239.0
 30
0.0
 11
368.0
 21
239.0
 31
0.0
  0
LINE
  5
408
330
1D
100
AcDbEntity
  8
CSLAYER10
  6
Continuous
100
AcDbLine
 10
367.0
 20
205.0
 30
0.0
 11
367.0
 21
239.0
 31
0.0
  0
LINE
  5
409
330
1D
100
AcDbEntity
  8
CSLAYER10
  6
Continuous
100
AcDbLine
 10
367.0
 20
205.0
 30
0.0
 11
366.482362
 21
206.931852
 31
0.0
  0
LINE
  5
40A
330
1D
100
AcDbEntity
  8
CSLAYER10
  6
Continuous
100
AcDbLine
 10
367.0
 20
205.0
 30
0.0
 11
367.517638
 21
206.931852
 31
0.0
  0
LINE
  5
40B
330
1D
100
AcDbEntity
  8
CSLAYER10
  6
Continuous
100
AcDbLine
 10
367.0
 20
239.0
 30
0.0
 11
366.482362
 21
237.068148
 31
0.0
  0
LINE
  5
40C
330
1D
100
AcDbEntity
  8
CSLAYER10
  6
Continuous
100
AcDbLine
 10
367.0
 20
239.0
 30
0.0
 11
367.517638
 21
237.068148
 31
0.0
  0
TEXT
  5
40D
330
1D
100
AcDbEntity
  8
CSLAYER10
100
AcDbText
 10
316.0
 20
188.0
 30
0.0
 40
4.0
  1
50
 41
0.702576112412
  7
FX_FONT
 72
     5
 11
321.0
 21
188.0
 31
0.0
100
AcDbText
  0
LINE
  5
40E
330
1D
100
AcDbEntity
  8
CSLAYER10
  6
Continuous
100
AcDbLine
 10
293.5
 20
187.0
 30
0.0
 11
343.5
 21
187.0
 31
0.0
  0
LINE
  5
40F
330
1D
100
AcDbEntity
  8
CSLAYER10
  6
Continuous
100
AcDbLine
 10
293.5
 20
187.0
 30
0.0
 11
295.431852
 21
187.517638
 31
0.0
  0
LINE
  5
410
330
1D
100
AcDbEntity
  8
CSLAYER10
  6
Continuous
100
AcDbLine
 10
293.5
 20
187.0
 30
0.0
 11
295.431852
 21
186.482362
 31
0.0
  0
LINE
  5
411
330
1D
100
AcDbEntity
  8
CSLAYER10
  6
Continuous
100
AcDbLine
 10
343.5
 20
187.0
 30
0.0
 11
341.568148
 21
187.517638
 31
0.0
  0
LINE
  5
412
330
1D
100
AcDbEntity
  8
CSLAYER10
  6
Continuous
100
AcDbLine
 10
343.5
 20
187.0
 30
0.0
 11
341.568148
 21
186.482362
 31
0.0
  0
TEXT
  5
413
330
1D
100
AcDbEntity
  8
CSLAYER10
100
AcDbText
 10
276.218353
 20
188.205597
 30
0.0
 40
4.0
  1
3
 41
0.75
  7
FX_FONT
 72
     5
 11
278.718353
 21
188.205597
 31
0.0
100
AcDbText
  0
LINE
  5
414
330
1D
100
AcDbEntity
  8
CSLAYER10
  6
Continuous
100
AcDbLine
 10
280.5
 20
211.0
 30
0.0
 11
280.5
 21
186.0
 31
0.0
  0
LINE
  5
415
330
1D
100
AcDbEntity
  8
CSLAYER10
  6
Continuous
100
AcDbLine
 10
283.5
 20
202.0
 30
0.0
 11
283.5
 21
176.0
 31
0.0
  0
LINE
  5
416
330
1D
100
AcDbEntity
  8
CSLAYER10
  6
Continuous
100
AcDbLine
 10
280.5
 20
187.0
 30
0.0
 11
283.5
 21
187.0
 31
0.0
  0
LINE
  5
417
330
1D
100
AcDbEntity
  8
CSLAYER10
  6
Continuous
100
AcDbLine
 10
275.5
 20
187.0
 30
0.0
 11
280.5
 21
187.0
 31
0.0
  0
LINE
  5
418
330
1D
100
AcDbEntity
  8
CSLAYER10
  6
Continuous
100
AcDbLine
 10
280.5
 20
187.0
 30
0.0
 11
278.568148
 21
187.517638
 31
0.0
  0
LINE
  5
419
330
1D
100
AcDbEntity
  8
CSLAYER10
  6
Continuous
100
AcDbLine
 10
280.5
 20
187.0
 30
0.0
 11
278.568148
 21
186.482362
 31
0.0
  0
LINE
  5
41A
330
1D
100
AcDbEntity
  8
CSLAYER10
  6
Continuous
100
AcDbLine
 10
283.5
 20
187.0
 30
0.0
 11
288.5
 21
187.0
 31
0.0
  0
LINE
  5
41B
330
1D
100
AcDbEntity
  8
CSLAYER10
  6
Continuous
100
AcDbLine
 10
283.5
 20
187.0
 30
0.0
 11
285.431852
 21
187.517638
 31
0.0
  0
LINE
  5
41C
330
1D
100
AcDbEntity
  8
CSLAYER10
  6
Continuous
100
AcDbLine
 10
283.5
 20
187.0
 30
0.0
 11
285.431852
 21
186.482362
 31
0.0
  0
TEXT
  5
41D
330
1D
100
AcDbEntity
  8
CSLAYER10
100
AcDbText
 10
269.5
 20
178.0
 30
0.0
 40
4.0
  1
23
 41
0.681818181818
  7
FX_FONT
 72
     5
 11
274.5
 21
178.0
 31
0.0
100
AcDbText
  0
LINE
  5
41E
330
1D
100
AcDbEntity
  8
CSLAYER10
  6
Continuous
100
AcDbLine
 10
260.5
 20
211.0
 30
0.0
 11
260.5
 21
176.0
 31
0.0
  0
LINE
  5
41F
330
1D
100
AcDbEntity
  8
CSLAYER10
  6
Continuous
100
AcDbLine
 10
260.5
 20
177.0
 30
0.0
 11
283.5
 21
177.0
 31
0.0
  0
LINE
  5
420
330
1D
100
AcDbEntity
  8
CSLAYER10
  6
Continuous
100
AcDbLine
 10
260.5
 20
177.0
 30
0.0
 11
262.431852
 21
177.517638
 31
0.0
  0
LINE
  5
421
330
1D
100
AcDbEntity
  8
CSLAYER10
  6
Continuous
100
AcDbLine
 10
260.5
 20
177.0
 30
0.0
 11
262.431852
 21
176.482362
 31
0.0
  0
LINE
  5
422
330
1D
100
AcDbEntity
  8
CSLAYER10
  6
Continuous
100
AcDbLine
 10
283.5
 20
177.0
 30
0.0
 11
281.568148
 21
177.517638
 31
0.0
  0
LINE
  5
423
330
1D
100
AcDbEntity
  8
CSLAYER10
  6
Continuous
100
AcDbLine
 10
283.5
 20
177.0
 30
0.0
 11
281.568148
 21
176.482362
 31
0.0
  0
TEXT
  5
424
330
1D
100
AcDbEntity
  8
CSLAYER10
100
AcDbText
 10
313.25
 20
178.0
 30
0.0
 40
4.0
  1
69.5
 41
0.650916104147
  7
FX_FONT
 72
     5
 11
323.25
 21
178.0
 31
0.0
100
AcDbText
  0
LINE
  5
425
330
1D
100
AcDbEntity
  8
CSLAYER10
  6
Continuous
100
AcDbLine
 10
283.5
 20
177.0
 30
0.0
 11
353.0
 21
177.0
 31
0.0
  0
LINE
  5
426
330
1D
100
AcDbEntity
  8
CSLAYER10
  6
Continuous
100
AcDbLine
 10
283.5
 20
177.0
 30
0.0
 11
285.431852
 21
177.517638
 31
0.0
  0
LINE
  5
427
330
1D
100
AcDbEntity
  8
CSLAYER10
  6
Continuous
100
AcDbLine
 10
283.5
 20
177.0
 30
0.0
 11
285.431852
 21
176.482362
 31
0.0
  0
LINE
  5
428
330
1D
100
AcDbEntity
  8
CSLAYER10
  6
Continuous
100
AcDbLine
 10
353.0
 20
177.0
 30
0.0
 11
351.068148
 21
177.517638
 31
0.0
  0
LINE
  5
429
330
1D
100
AcDbEntity
  8
CSLAYER10
  6
Continuous
100
AcDbLine
 10
353.0
 20
177.0
 30
0.0
 11
351.068148
 21
176.482362
 31
0.0
  0
LINE
  5
42A
330
1D
100
AcDbEntity
  8
CSLAYER10
  6
Continuous
100
AcDbLine
 10
353.0
 20
202.0
 30
0.0
 11
353.0
 21
176.0
 31
0.0
  0
TEXT
  5
42B
330
1D
100
AcDbEntity
  8
CSLAYER10
100
AcDbText
 10
356.0
 20
178.0
 30
0.0
 40
4.0
  1
2
 41
0.75
  7
FX_FONT
 72
     5
 11
358.5
 21
178.0
 31
0.0
100
AcDbText
  0
LINE
  5
42C
330
1D
100
AcDbEntity
  8
CSLAYER10
  6
Continuous
100
AcDbLine
 10
353.0
 20
177.0
 30
0.0
 11
355.0
 21
177.0
 31
0.0
  0
LINE
  5
42D
330
1D
100
AcDbEntity
  8
CSLAYER10
  6
Continuous
100
AcDbLine
 10
355.0
 20
210.5
 30
0.0
 11
355.0
 21
176.0
 31
0.0
  0
LINE
  5
42E
330
1D
100
AcDbEntity
  8
CSLAYER10
  6
Continuous
100
AcDbLine
 10
348.0
 20
177.0
 30
0.0
 11
353.0
 21
177.0
 31
0.0
  0
LINE
  5
42F
330
1D
100
AcDbEntity
  8
CSLAYER10
  6
Continuous
100
AcDbLine
 10
353.0
 20
177.0
 30
0.0
 11
351.068148
 21
177.517638
 31
0.0
  0
LINE
  5
430
330
1D
100
AcDbEntity
  8
CSLAYER10
  6
Continuous
100
AcDbLine
 10
353.0
 20
177.0
 30
0.0
 11
351.068148
 21
176.482362
 31
0.0
  0
LINE
  5
431
330
1D
100
AcDbEntity
  8
CSLAYER10
  6
Continuous
100
AcDbLine
 10
355.0
 20
177.0
 30
0.0
 11
359.5
 21
177.0
 31
0.0
  0
LINE
  5
432
330
1D
100
AcDbEntity
  8
CSLAYER10
  6
Continuous
100
AcDbLine
 10
355.0
 20
177.0
 30
0.0
 11
356.931852
 21
177.517638
 31
0.0
  0
LINE
  5
433
330
1D
100
AcDbEntity
  8
CSLAYER10
  6
Continuous
100
AcDbLine
 10
355.0
 20
177.0
 30
0.0
 11
356.931852
 21
176.482362
 31
0.0
  0
TEXT
  5
434
330
1D
100
AcDbEntity
  8
CSLAYER10
100
AcDbText
 10
247.5
 20
219.5
 30
0.0
 40
4.0
  1
20
 50
90.0
 41
0.705329153605
  7
FX_FONT
 72
     5
 11
247.5
 21
224.5
 31
0.0
100
AcDbText
  0
LINE
  5
435
330
1D
100
AcDbEntity
  8
CSLAYER10
  6
Continuous
100
AcDbLine
 10
259.5
 20
212.0
 30
0.0
 11
247.5
 21
212.0
 31
0.0
  0
LINE
  5
436
330
1D
100
AcDbEntity
  8
CSLAYER10
  6
Continuous
100
AcDbLine
 10
259.5
 20
232.0
 30
0.0
 11
247.5
 21
232.0
 31
0.0
  0
LINE
  5
437
330
1D
100
AcDbEntity
  8
CSLAYER10
  6
Continuous
100
AcDbLine
 10
248.5
 20
212.0
 30
0.0
 11
248.5
 21
232.0
 31
0.0
  0
LINE
  5
438
330
1D
100
AcDbEntity
  8
CSLAYER10
  6
Continuous
100
AcDbLine
 10
248.5
 20
212.0
 30
0.0
 11
247.982362
 21
213.931852
 31
0.0
  0
LINE
  5
439
330
1D
100
AcDbEntity
  8
CSLAYER10
  6
Continuous
100
AcDbLine
 10
248.5
 20
212.0
 30
0.0
 11
249.017638
 21
213.931852
 31
0.0
  0
LINE
  5
43A
330
1D
100
AcDbEntity
  8
CSLAYER10
  6
Continuous
100
AcDbLine
 10
248.5
 20
232.0
 30
0.0
 11
247.982362
 21
230.068148
 31
0.0
  0
LINE
  5
43B
330
1D
100
AcDbEntity
  8
CSLAYER10
  6
Continuous
100
AcDbLine
 10
248.5
 20
232.0
 30
0.0
 11
249.017638
 21
230.068148
 31
0.0
  0
TEXT
  5
43C
330
1D
100
AcDbEntity
  8
CSLAYER10
100
AcDbText
 10
247.5
 20
95.82045
 30
0.0
 40
4.0
  1
6.5
 50
90.0
 41
0.660146699267
  7
FX_FONT
 72
     5
 11
247.5
 21
103.32045
 31
0.0
100
AcDbText
  0
LINE
  5
43D
330
1D
100
AcDbEntity
  8
CSLAYER10
  6
Continuous
100
AcDbLine
 10
248.5
 20
105.540248
 30
0.0
 11
248.5
 21
112.040248
 31
0.0
  0
LINE
  5
43E
330
1D
100
AcDbEntity
  8
CSLAYER10
  6
Continuous
100
AcDbLine
 10
248.5
 20
105.540248
 30
0.0
 11
247.982362
 21
107.472099
 31
0.0
  0
LINE
  5
43F
330
1D
100
AcDbEntity
  8
CSLAYER10
  6
Continuous
100
AcDbLine
 10
248.5
 20
105.540248
 30
0.0
 11
249.017638
 21
107.472099
 31
0.0
  0
LINE
  5
440
330
1D
100
AcDbEntity
  8
CSLAYER10
  6
Continuous
100
AcDbLine
 10
248.5
 20
112.040248
 30
0.0
 11
247.982362
 21
110.108396
 31
0.0
  0
LINE
  5
441
330
1D
100
AcDbEntity
  8
CSLAYER10
  6
Continuous
100
AcDbLine
 10
248.5
 20
112.040248
 30
0.0
 11
249.017638
 21
110.108396
 31
0.0
  0
LINE
  5
442
330
1D
100
AcDbEntity
  8
CSLAYER10
  6
Continuous
100
AcDbLine
 10
282.5
 20
105.540248
 30
0.0
 11
247.5
 21
105.540248
 31
0.0
  0
LINE
  5
443
330
1D
100
AcDbEntity
  8
CSLAYER10
  6
Continuous
100
AcDbLine
 10
259.5
 20
112.040248
 30
0.0
 11
247.5
 21
112.040248
 31
0.0
  0
TEXT
  5
444
330
1D
100
AcDbEntity
  8
CSLAYER10
100
AcDbText
 10
247.5
 20
114.790245
 30
0.0
 40
4.0
  1
8
 50
90.0
 41
0.75
  7
FX_FONT
 72
     5
 11
247.5
 21
117.290245
 31
0.0
100
AcDbText
  0
LINE
  5
445
330
1D
100
AcDbEntity
  8
CSLAYER10
  6
Continuous
100
AcDbLine
 10
261.0
 20
120.040248
 30
0.0
 11
247.5
 21
120.040248
 31
0.0
  0
LINE
  5
446
330
1D
100
AcDbEntity
  8
CSLAYER10
  6
Continuous
100
AcDbLine
 10
248.5
 20
112.040248
 30
0.0
 11
248.5
 21
120.040248
 31
0.0
  0
LINE
  5
447
330
1D
100
AcDbEntity
  8
CSLAYER10
  6
Continuous
100
AcDbLine
 10
248.5
 20
112.040248
 30
0.0
 11
247.982362
 21
113.972099
 31
0.0
  0
LINE
  5
448
330
1D
100
AcDbEntity
  8
CSLAYER10
  6
Continuous
100
AcDbLine
 10
248.5
 20
112.040248
 30
0.0
 11
249.017638
 21
113.972099
 31
0.0
  0
LINE
  5
449
330
1D
100
AcDbEntity
  8
CSLAYER10
  6
Continuous
100
AcDbLine
 10
248.5
 20
120.040248
 30
0.0
 11
247.982362
 21
118.108396
 31
0.0
  0
LINE
  5
44A
330
1D
100
AcDbEntity
  8
CSLAYER10
  6
Continuous
100
AcDbLine
 10
248.5
 20
120.040248
 30
0.0
 11
249.017638
 21
118.108396
 31
0.0
  0
LINE
  5
44B
330
1D
100
AcDbEntity
  8
CSLAYER10
  6
Continuous
100
AcDbLine
 10
280.971306
 20
119.630317
 30
0.0
 11
273.828173
 21
130.66953
 31
0.0
  0
LINE
  5
44C
330
1D
100
AcDbEntity
  8
CSLAYER10
  6
Continuous
100
AcDbLine
 10
280.971306
 20
119.630317
 30
0.0
 11
279.487222
 21
120.971023
 31
0.0
  0
LINE
  5
44D
330
1D
100
AcDbEntity
  8
CSLAYER10
  6
Continuous
100
AcDbLine
 10
280.971306
 20
119.630317
 30
0.0
 11
280.356405
 21
121.533445
 31
0.0
  0
LINE
  5
44E
330
1D
100
AcDbEntity
  8
CSLAYER10
  6
Continuous
100
AcDbLine
 10
273.828173
 20
130.66953
 30
0.0
 11
261.828173
 21
130.66953
 31
0.0
  0
TEXT
  5
44F
330
1D
100
AcDbEntity
  8
CSLAYER10
100
AcDbText
 10
262.828186
 20
131.669525
 30
0.0
 40
4.0
  1
R1.5
 41
0.652173913043
  7
FX_FONT
 72
     5
 11
272.828186
 21
131.669525
 31
0.0
100
AcDbText
  0
TEXT
  5
450
330
1D
100
AcDbEntity
  8
CSLAYER10
100
AcDbText
 10
292.0
 20
153.040237
 30
0.0
 40
4.0
  1
22
 41
0.681818181818
  7
FX_FONT
 72
     5
 11
297.0
 21
153.040237
 31
0.0
100
AcDbText
  0
LINE
  5
451
330
1D
100
AcDbEntity
  8
CSLAYER10
  6
Continuous
100
AcDbLine
 10
283.5
 20
122.540248
 30
0.0
 11
283.5
 21
153.040248
 31
0.0
  0
LINE
  5
452
330
1D
100
AcDbEntity
  8
CSLAYER10
  6
Continuous
100
AcDbLine
 10
305.5
 20
138.040248
 30
0.0
 11
305.5
 21
153.040248
 31
0.0
  0
LINE
  5
453
330
1D
100
AcDbEntity
  8
CSLAYER10
  6
Continuous
100
AcDbLine
 10
283.5
 20
152.040248
 30
0.0
 11
305.5
 21
152.040248
 31
0.0
  0
LINE
  5
454
330
1D
100
AcDbEntity
  8
CSLAYER10
  6
Continuous
100
AcDbLine
 10
283.5
 20
152.040248
 30
0.0
 11
285.431852
 21
152.557886
 31
0.0
  0
LINE
  5
455
330
1D
100
AcDbEntity
  8
CSLAYER10
  6
Continuous
100
AcDbLine
 10
283.5
 20
152.040248
 30
0.0
 11
285.431852
 21
151.52261
 31
0.0
  0
LINE
  5
456
330
1D
100
AcDbEntity
  8
CSLAYER10
  6
Continuous
100
AcDbLine
 10
305.5
 20
152.040248
 30
0.0
 11
303.568148
 21
152.557886
 31
0.0
  0
LINE
  5
457
330
1D
100
AcDbEntity
  8
CSLAYER10
  6
Continuous
100
AcDbLine
 10
305.5
 20
152.040248
 30
0.0
 11
303.568148
 21
151.52261
 31
0.0
  0
TEXT
  5
458
330
1D
100
AcDbEntity
  8
CSLAYER10
100
AcDbText
 10
313.0
 20
153.040237
 30
0.0
 40
4.0
  1
20
 41
0.705329153605
  7
FX_FONT
 72
     5
 11
318.0
 21
153.040237
 31
0.0
100
AcDbText
  0
LINE
  5
459
330
1D
100
AcDbEntity
  8
CSLAYER10
  6
Continuous
100
AcDbLine
 10
325.5
 20
138.040248
 30
0.0
 11
325.5
 21
153.040248
 31
0.0
  0
LINE
  5
45A
330
1D
100
AcDbEntity
  8
CSLAYER10
  6
Continuous
100
AcDbLine
 10
305.5
 20
152.040248
 30
0.0
 11
325.5
 21
152.040248
 31
0.0
  0
LINE
  5
45B
330
1D
100
AcDbEntity
  8
CSLAYER10
  6
Continuous
100
AcDbLine
 10
305.5
 20
152.040248
 30
0.0
 11
307.431852
 21
152.557886
 31
0.0
  0
LINE
  5
45C
330
1D
100
AcDbEntity
  8
CSLAYER10
  6
Continuous
100
AcDbLine
 10
305.5
 20
152.040248
 30
0.0
 11
307.431852
 21
151.52261
 31
0.0
  0
LINE
  5
45D
330
1D
100
AcDbEntity
  8
CSLAYER10
  6
Continuous
100
AcDbLine
 10
325.5
 20
152.040248
 30
0.0
 11
323.568148
 21
152.557886
 31
0.0
  0
LINE
  5
45E
330
1D
100
AcDbEntity
  8
CSLAYER10
  6
Continuous
100
AcDbLine
 10
325.5
 20
152.040248
 30
0.0
 11
323.568148
 21
151.52261
 31
0.0
  0
TEXT
  5
45F
330
1D
100
AcDbEntity
  8
CSLAYER10
100
AcDbText
 10
366.0
 20
111.040245
 30
0.0
 40
4.0
  1
16
 50
90.0
 41
0.681818181818
  7
FX_FONT
 72
     5
 11
366.0
 21
116.040245
 31
0.0
100
AcDbText
  0
LINE
  5
460
330
1D
100
AcDbEntity
  8
CSLAYER10
  6
Continuous
100
AcDbLine
 10
367.0
 20
105.540248
 30
0.0
 11
367.0
 21
121.540248
 31
0.0
  0
LINE
  5
461
330
1D
100
AcDbEntity
  8
CSLAYER10
  6
Continuous
100
AcDbLine
 10
367.0
 20
105.540248
 30
0.0
 11
366.482362
 21
107.472099
 31
0.0
  0
LINE
  5
462
330
1D
100
AcDbEntity
  8
CSLAYER10
  6
Continuous
100
AcDbLine
 10
367.0
 20
105.540248
 30
0.0
 11
367.517638
 21
107.472099
 31
0.0
  0
LINE
  5
463
330
1D
100
AcDbEntity
  8
CSLAYER10
  6
Continuous
100
AcDbLine
 10
367.0
 20
121.540248
 30
0.0
 11
366.482362
 21
119.608396
 31
0.0
  0
LINE
  5
464
330
1D
100
AcDbEntity
  8
CSLAYER10
  6
Continuous
100
AcDbLine
 10
367.0
 20
121.540248
 30
0.0
 11
367.517638
 21
119.608396
 31
0.0
  0
LINE
  5
465
330
1D
100
AcDbEntity
  8
CSLAYER10
  6
Continuous
100
AcDbLine
 10
356.0
 20
105.540248
 30
0.0
 11
368.0
 21
105.540248
 31
0.0
  0
LINE
  5
466
330
1D
100
AcDbEntity
  8
CSLAYER10
  6
Continuous
100
AcDbLine
 10
353.0
 20
121.540248
 30
0.0
 11
368.0
 21
121.540248
 31
0.0
  0
LINE
  5
467
330
1D
100
AcDbEntity
  8
CSLAYER10
  6
Continuous
100
AcDbLine
 10
158.5
 20
198.0
 30
0.0
 11
158.5
 21
183.0
 31
0.0
  0
TEXT
  5
468
330
1D
100
AcDbEntity
  8
CSLAYER10
100
AcDbText
 10
176.0
 20
122.5
 30
0.0
 40
4.0
  1
34
 50
90.0
 41
0.681818181818
  7
FX_FONT
 72
     5
 11
176.0
 21
127.5
 31
0.0
100
AcDbText
  0
LINE
  5
469
330
1D
100
AcDbEntity
  8
CSLAYER10
  6
Continuous
100
AcDbLine
 10
177.0
 20
108.0
 30
0.0
 11
177.0
 21
142.0
 31
0.0
  0
LINE
  5
46A
330
1D
100
AcDbEntity
  8
CSLAYER10
  6
Continuous
100
AcDbLine
 10
177.0
 20
108.0
 30
0.0
 11
176.482362
 21
109.931852
 31
0.0
  0
LINE
  5
46B
330
1D
100
AcDbEntity
  8
CSLAYER10
  6
Continuous
100
AcDbLine
 10
177.0
 20
108.0
 30
0.0
 11
177.517638
 21
109.931852
 31
0.0
  0
LINE
  5
46C
330
1D
100
AcDbEntity
  8
CSLAYER10
  6
Continuous
100
AcDbLine
 10
177.0
 20
142.0
 30
0.0
 11
176.482362
 21
140.068148
 31
0.0
  0
LINE
  5
46D
330
1D
100
AcDbEntity
  8
CSLAYER10
  6
Continuous
100
AcDbLine
 10
177.0
 20
142.0
 30
0.0
 11
177.517638
 21
140.068148
 31
0.0
  0
TEXT
  5
46E
330
1D
100
AcDbEntity
  8
CSLAYER10
100
AcDbText
 10
186.0
 20
122.5
 30
0.0
 40
4.0
  1
46
 50
90.0
 41
0.681818181818
  7
FX_FONT
 72
     5
 11
186.0
 21
127.5
 31
0.0
100
AcDbText
  0
LINE
  5
46F
330
1D
100
AcDbEntity
  8
CSLAYER10
  6
Continuous
100
AcDbLine
 10
187.0
 20
102.0
 30
0.0
 11
187.0
 21
148.0
 31
0.0
  0
LINE
  5
470
330
1D
100
AcDbEntity
  8
CSLAYER10
  6
Continuous
100
AcDbLine
 10
187.0
 20
102.0
 30
0.0
 11
186.482362
 21
103.931852
 31
0.0
  0
LINE
  5
471
330
1D
100
AcDbEntity
  8
CSLAYER10
  6
Continuous
100
AcDbLine
 10
187.0
 20
102.0
 30
0.0
 11
187.517638
 21
103.931852
 31
0.0
  0
LINE
  5
472
330
1D
100
AcDbEntity
  8
CSLAYER10
  6
Continuous
100
AcDbLine
 10
187.0
 20
148.0
 30
0.0
 11
186.482362
 21
146.068148
 31
0.0
  0
LINE
  5
473
330
1D
100
AcDbEntity
  8
CSLAYER10
  6
Continuous
100
AcDbLine
 10
187.0
 20
148.0
 30
0.0
 11
187.517638
 21
146.068148
 31
0.0
  0
LINE
  5
474
330
1D
100
AcDbEntity
  8
CSLAYER10
  6
Continuous
100
AcDbLine
 10
162.0
 20
102.0
 30
0.0
 11
188.0
 21
102.0
 31
0.0
  0
LINE
  5
475
330
1D
100
AcDbEntity
  8
CSLAYER10
  6
Continuous
100
AcDbLine
 10
162.0
 20
148.0
 30
0.0
 11
188.0
 21
148.0
 31
0.0
  0
TEXT
  5
476
330
1D
100
AcDbEntity
  8
CSLAYER10
100
AcDbText
 10
152.5
 20
90.999992
 30
0.0
 40
4.0
  1
20
 41
0.705329153605
  7
FX_FONT
 72
     5
 11
157.5
 21
90.999992
 31
0.0
100
AcDbText
  0
LINE
  5
477
330
1D
100
AcDbEntity
  8
CSLAYER10
  6
Continuous
100
AcDbLine
 10
145.0
 20
90.0
 30
0.0
 11
165.0
 21
90.0
 31
0.0
  0
LINE
  5
478
330
1D
100
AcDbEntity
  8
CSLAYER10
  6
Continuous
100
AcDbLine
 10
145.0
 20
90.0
 30
0.0
 11
146.931852
 21
90.517638
 31
0.0
  0
LINE
  5
479
330
1D
100
AcDbEntity
  8
CSLAYER10
  6
Continuous
100
AcDbLine
 10
145.0
 20
90.0
 30
0.0
 11
146.931852
 21
89.482362
 31
0.0
  0
LINE
  5
47A
330
1D
100
AcDbEntity
  8
CSLAYER10
  6
Continuous
100
AcDbLine
 10
165.0
 20
90.0
 30
0.0
 11
163.068148
 21
90.517638
 31
0.0
  0
LINE
  5
47B
330
1D
100
AcDbEntity
  8
CSLAYER10
  6
Continuous
100
AcDbLine
 10
165.0
 20
90.0
 30
0.0
 11
163.068148
 21
89.482362
 31
0.0
  0
LINE
  5
47C
330
1D
100
AcDbEntity
  8
CSLAYER10
  6
Continuous
100
AcDbLine
 10
145.0
 20
105.0
 30
0.0
 11
145.0
 21
89.0
 31
0.0
  0
LINE
  5
47D
330
1D
100
AcDbEntity
  8
CSLAYER10
  6
Continuous
100
AcDbLine
 10
165.0
 20
105.0
 30
0.0
 11
165.0
 21
89.0
 31
0.0
  0
LINE
  5
47E
330
1D
100
AcDbEntity
  8
CSLAYER10
  6
Continuous
100
AcDbLine
 10
156.624999864597
 20
144.814582640475
 30
0.0
 11
164.862603864597
 21
159.082531640475
 31
0.0
  0
LINE
  5
47F
330
1D
100
AcDbEntity
  8
CSLAYER10
  6
Continuous
100
AcDbLine
 10
156.624999864597
 20
144.814582640475
 30
0.0
 11
158.039213864597
 21
146.228795640475
 31
0.0
  0
LINE
  5
480
330
1D
100
AcDbEntity
  8
CSLAYER10
  6
Continuous
100
AcDbLine
 10
156.624999864597
 20
144.814582640475
 30
0.0
 11
157.142637864597
 21
146.746433640475
 31
0.0
  0
LINE
  5
481
330
1D
100
AcDbEntity
  8
CSLAYER10
  6
Continuous
100
AcDbLine
 10
164.862603864597
 20
159.082531640475
 30
0.0
 11
193.862603864597
 21
159.082531640475
 31
0.0
  0
LINE
  5
482
330
1D
100
AcDbEntity
  8
CSLAYER10
  6
Continuous
100
AcDbLine
 10
193.862603864597
 20
159.082531640475
 30
0.0
 11
167.410222864597
 21
159.082531640475
 31
0.0
  0
TEXT
  5
483
330
1D
100
AcDbEntity
  8
CSLAYER10
100
AcDbText
 10
164.949145864597
 20
160.537807640475
 30
0.0
 40
4.0
  1
2-3.5mmネジ用穴
 41
0.595739559514
  7
FX_FONT
 72
     5
 11
192.449145864597
 21
160.537807640475
 31
0.0
100
AcDbText
  0
TEXT
  5
484
330
1D
100
AcDbEntity
  8
CSLAYER10
100
AcDbText
 10
83.499992
 20
90.999992
 30
0.0
 40
4.0
  1
1.5
 41
0.661764705882
  7
FX_FONT
 72
     5
 11
90.999992
 21
90.999992
 31
0.0
100
AcDbText
  0
LINE
  5
485
330
1D
100
AcDbEntity
  8
CSLAYER10
  6
Continuous
100
AcDbLine
 10
92.0
 20
90.0
 30
0.0
 11
93.5
 21
90.0
 31
0.0
  0
LINE
  5
486
330
1D
100
AcDbEntity
  8
CSLAYER10
  6
Continuous
100
AcDbLine
 10
92.0
 20
101.0
 30
0.0
 11
92.0
 21
89.0
 31
0.0
  0
LINE
  5
487
330
1D
100
AcDbEntity
  8
CSLAYER10
  6
Continuous
100
AcDbLine
 10
93.5
 20
101.0
 30
0.0
 11
93.5
 21
89.0
 31
0.0
  0
LINE
  5
488
330
1D
100
AcDbEntity
  8
CSLAYER10
  6
Continuous
100
AcDbLine
 10
93.5
 20
90.0
 30
0.0
 11
98.5
 21
90.0
 31
0.0
  0
LINE
  5
489
330
1D
100
AcDbEntity
  8
CSLAYER10
  6
Continuous
100
AcDbLine
 10
93.5
 20
90.0
 30
0.0
 11
95.431852
 21
90.517638
 31
0.0
  0
LINE
  5
48A
330
1D
100
AcDbEntity
  8
CSLAYER10
  6
Continuous
100
AcDbLine
 10
93.5
 20
90.0
 30
0.0
 11
95.431852
 21
89.482362
 31
0.0
  0
LINE
  5
48B
330
1D
100
AcDbEntity
  8
CSLAYER10
  6
Continuous
100
AcDbLine
 10
82.5
 20
90.0
 30
0.0
 11
92.0
 21
90.0
 31
0.0
  0
LINE
  5
48C
330
1D
100
AcDbEntity
  8
CSLAYER10
  6
Continuous
100
AcDbLine
 10
92.0
 20
90.0
 30
0.0
 11
90.068148
 21
90.517638
 31
0.0
  0
LINE
  5
48D
330
1D
100
AcDbEntity
  8
CSLAYER10
  6
Continuous
100
AcDbLine
 10
92.0
 20
90.0
 30
0.0
 11
90.068148
 21
89.482362
 31
0.0
  0
TEXT
  5
48E
330
1D
100
AcDbEntity
  8
CSLAYER10
100
AcDbText
 10
98.499992
 20
80.999992
 30
0.0
 40
4.0
  1
18
 41
0.681818181818
  7
FX_FONT
 72
     5
 11
103.499992
 21
80.999992
 31
0.0
100
AcDbText
  0
LINE
  5
48F
330
1D
100
AcDbEntity
  8
CSLAYER10
  6
Continuous
100
AcDbLine
 10
92.0
 20
80.0
 30
0.0
 11
110.0
 21
80.0
 31
0.0
  0
LINE
  5
490
330
1D
100
AcDbEntity
  8
CSLAYER10
  6
Continuous
100
AcDbLine
 10
92.0
 20
80.0
 30
0.0
 11
93.931852
 21
80.517638
 31
0.0
  0
LINE
  5
491
330
1D
100
AcDbEntity
  8
CSLAYER10
  6
Continuous
100
AcDbLine
 10
92.0
 20
80.0
 30
0.0
 11
93.931852
 21
79.482362
 31
0.0
  0
LINE
  5
492
330
1D
100
AcDbEntity
  8
CSLAYER10
  6
Continuous
100
AcDbLine
 10
110.0
 20
80.0
 30
0.0
 11
108.068148
 21
80.517638
 31
0.0
  0
LINE
  5
493
330
1D
100
AcDbEntity
  8
CSLAYER10
  6
Continuous
100
AcDbLine
 10
110.0
 20
80.0
 30
0.0
 11
108.068148
 21
79.482362
 31
0.0
  0
LINE
  5
494
330
1D
100
AcDbEntity
  8
CSLAYER10
  6
Continuous
100
AcDbLine
 10
92.0
 20
101.0
 30
0.0
 11
92.0
 21
79.0
 31
0.0
  0
LINE
  5
495
330
1D
100
AcDbEntity
  8
CSLAYER10
  6
Continuous
100
AcDbLine
 10
110.0
 20
113.0
 30
0.0
 11
110.0
 21
79.0
 31
0.0
  0
TEXT
  5
496
330
1D
100
AcDbEntity
  8
CSLAYER10
100
AcDbText
 10
120.999992
 20
122.5
 30
0.0
 40
4.0
  1
25
 50
90.0
 41
0.681818181818
  7
FX_FONT
 72
     5
 11
120.999992
 21
127.5
 31
0.0
100
AcDbText
  0
LINE
  5
497
330
1D
100
AcDbEntity
  8
CSLAYER10
  6
Continuous
100
AcDbLine
 10
122.0
 20
112.5
 30
0.0
 11
122.0
 21
137.5
 31
0.0
  0
LINE
  5
498
330
1D
100
AcDbEntity
  8
CSLAYER10
  6
Continuous
100
AcDbLine
 10
122.0
 20
112.5
 30
0.0
 11
121.482362
 21
114.431852
 31
0.0
  0
LINE
  5
499
330
1D
100
AcDbEntity
  8
CSLAYER10
  6
Continuous
100
AcDbLine
 10
122.0
 20
112.5
 30
0.0
 11
122.517638
 21
114.431852
 31
0.0
  0
LINE
  5
49A
330
1D
100
AcDbEntity
  8
CSLAYER10
  6
Continuous
100
AcDbLine
 10
122.0
 20
137.5
 30
0.0
 11
121.482362
 21
135.568148
 31
0.0
  0
LINE
  5
49B
330
1D
100
AcDbEntity
  8
CSLAYER10
  6
Continuous
100
AcDbLine
 10
122.0
 20
137.5
 30
0.0
 11
122.517638
 21
135.568148
 31
0.0
  0
LINE
  5
49C
330
1D
100
AcDbEntity
  8
CSLAYER10
  6
Continuous
100
AcDbLine
 10
109.5
 20
112.5
 30
0.0
 11
123.0
 21
112.5
 31
0.0
  0
LINE
  5
49D
330
1D
100
AcDbEntity
  8
CSLAYER10
  6
Continuous
100
AcDbLine
 10
109.5
 20
137.5
 30
0.0
 11
123.0
 21
137.5
 31
0.0
  0
LINE
  5
49E
330
1D
100
AcDbEntity
  8
CSLAYER10
  6
Continuous
100
AcDbLine
 10
295.619621773418
 20
241.450615192897
 30
0.0
 11
304.961926773418
 21
257.631962192897
 31
0.0
  0
LINE
  5
49F
330
1D
100
AcDbEntity
  8
CSLAYER10
  6
Continuous
100
AcDbLine
 10
295.619621773418
 20
241.450615192897
 30
0.0
 11
296.137259773418
 21
243.382467192897
 31
0.0
  0
LINE
  5
4A0
330
1D
100
AcDbEntity
  8
CSLAYER10
  6
Continuous
100
AcDbLine
 10
295.619621773418
 20
241.450615192897
 30
0.0
 11
297.033835773418
 21
242.864829192897
 31
0.0
  0
LINE
  5
4A1
330
1D
100
AcDbEntity
  8
CSLAYER10
  6
Continuous
100
AcDbLine
 10
333.961926773418
 20
257.631962192897
 30
0.0
 11
304.961926773418
 21
257.631962192897
 31
0.0
  0
LINE
  5
4A2
330
1D
100
AcDbEntity
  8
CSLAYER10
  6
Continuous
100
AcDbLine
 10
304.961926773418
 20
257.631962192897
 30
0.0
 11
329.873041773418
 21
257.631962192897
 31
0.0
  0
TEXT
  5
4A3
330
1D
100
AcDbEntity
  8
CSLAYER10
100
AcDbText
 10
306.012370773418
 20
258.717320192897
 30
0.0
 40
4.0
  1
4-3.5mmネジ用穴
 41
0.595739559514
  7
FX_FONT
 72
     5
 11
333.512370773418
 21
258.717320192897
 31
0.0
100
AcDbText
  0
TEXT
  5
4FB
330
1D
100
AcDbEntity
  8
CSLAYER10
  6
Continuous
100
AcDbText
 10
91.42940459679
 20
279.071143291314
 30
0.0
 40
8.0
  1
1100-L
100
AcDbText
  0
LINE
  5
4FF
330
1D
100
AcDbEntity
  8
CSLAYER10
  6
Continuous
100
AcDbLine
 10
89.403497203213
 20
275.919731790194
 30
0.0
 11
130.596947539285
 21
275.919731790194
 31
0.0
  0
ENDSEC
  0
SECTION
  2
OBJECTS
  0
DICTIONARY
  5
C
330
0
100
AcDbDictionary
281
     1
  3
ACAD_DETAILVIEWSTYLE
350
5B4
  3
ACAD_GROUP
350
D
  3
ACAD_LAYOUT
350
1A
  3
ACAD_MATERIAL
350
32A
  3
ACAD_MLEADERSTYLE
350
330
  3
ACAD_MLINESTYLE
350
17
  3
ACAD_PLOTSETTINGS
350
19
  3
ACAD_PLOTSTYLENAME
350
E
  3
ACAD_SCALELIST
350
2EB
  3
ACAD_SECTIONVIEWSTYLE
350
5B5
  3
ACAD_TABLESTYLE
350
32E
  3
ACAD_VISUALSTYLE
350
311
  3
ACDB_RECOMPOSE_DATA
350
5B3
  3
AcDbVariableDictionary
350
334
  0
SUN
  5
333
330
3B
100
AcDbSun
 90
        1
290
     0
 63
     7
 40
1.0
291
     1
 91
  2455826
 92
 54000000
292
     0
 70
     2
 71
   256
280
     1
  0
DICTIONARY
  5
367
330
1D
100
AcDbDictionary
280
     1
281
     1
  3
ACAD_SORTENTS
360
368
  0
DICTIONARY
  5
360
330
33B
100
AcDbDictionary
280
     1
281
     1
  3
ACAD_SORTENTS
360
361
  0
DICTIONARY
  5
394
330
370
100
AcDbDictionary
280
     1
281
     1
  3
ACAD_SORTENTS
360
395
  0
DICTIONARY
  5
3C1
330
39C
100
AcDbDictionary
280
     1
281
     1
  3
ACAD_SORTENTS
360
3C2
  0
DICTIONARY
  5
5B4
102
{ACAD_REACTORS
330
C
102
}
330
C
100
AcDbDictionary
281
     1
  0
DICTIONARY
  5
D
102
{ACAD_REACTORS
330
C
102
}
330
C
100
AcDbDictionary
281
     1
  0
DICTIONARY
  5
1A
102
{ACAD_REACTORS
330
C
102
}
330
C
100
AcDbDictionary
281
     1
  3
Layout1
350
1C
  3
Model
350
1E
  0
DICTIONARY
  5
32A
102
{ACAD_REACTORS
330
C
102
}
330
C
100
AcDbDictionary
281
     1
  3
ByBlock
350
32C
  3
ByLayer
350
32B
  3
Global
350
32D
  0
DICTIONARY
  5
330
102
{ACAD_REACTORS
330
C
102
}
330
C
100
AcDbDictionary
281
     1
  3
Standard
350
331
  0
DICTIONARY
  5
17
102
{ACAD_REACTORS
330
C
102
}
330
C
100
AcDbDictionary
281
     1
  3
Standard
350
18
  0
DICTIONARY
  5
19
102
{ACAD_REACTORS
330
C
102
}
330
C
100
AcDbDictionary
281
     1
  0
ACDBDICTIONARYWDFLT
  5
E
102
{ACAD_REACTORS
330
C
102
}
330
C
100
AcDbDictionary
281
     1
  3
Normal
350
F
100
AcDbDictionaryWithDefault
340
F
  0
DICTIONARY
  5
2EB
102
{ACAD_REACTORS
330
C
102
}
330
C
100
AcDbDictionary
281
     1
  3
A0
350
2EC
  3
A1
350
2ED
  3
A2
350
2EE
  3
A3
350
2EF
  3
A4
350
2F0
  3
A5
350
2F1
  3
A6
350
2F2
  3
A7
350
2F3
  3
A8
350
2F4
  3
A9
350
2F5
  3
B0
350
2F6
  3
B1
350
2F7
  3
B2
350
2F8
  3
B3
350
2F9
  3
B4
350
2FA
  3
B5
350
2FB
  3
B6
350
2FC
  3
B7
350
2FD
  3
B8
350
2FE
  3
B9
350
2FF
  3
C0
350
300
  3
C1
350
301
  3
C2
350
302
  3
C3
350
303
  3
C4
350
304
  3
C5
350
305
  3
C6
350
306
  3
C7
350
307
  3
C8
350
308
  3
C9
350
309
  3
D0
350
30A
  3
D1
350
30B
  3
D2
350
30C
  0
DICTIONARY
  5
5B5
102
{ACAD_REACTORS
330
C
102
}
330
C
100
AcDbDictionary
281
     1
  0
DICTIONARY
  5
32E
102
{ACAD_REACTORS
330
C
102
}
330
C
100
AcDbDictionary
281
     1
  3
Standard
350
32F
  0
DICTIONARY
  5
311
102
{ACAD_REACTORS
330
C
102
}
330
C
100
AcDbDictionary
281
     1
  3
2dWireframe
350
316
  3
Basic
350
319
  3
Brighten
350
31D
  3
ColorChange
350
321
  3
Conceptual
350
31B
  3
Dim
350
31C
  3
EdgeColorOff
350
324
  3
Facepattern
350
320
  3
Flat
350
312
  3
FlatWithEdges
350
313
  3
Gouraud
350
314
  3
GouraudWithEdges
350
315
  3
Hidden
350
318
  3
JitterOff
350
322
  3
Linepattern
350
31F
  3
Modeling
350
332
  3
OverhangOff
350
323
  3
Realistic
350
31A
  3
Shaded
350
329
  3
Shaded with edges
350
328
  3
Shades of Gray
350
325
  3
Sketchy
350
326
  3
Thicken
350
31E
  3
Wireframe
350
317
  3
X-Ray
350
327
  0
XRECORD
  5
5B3
102
{ACAD_REACTORS
330
C
102
}
330
C
100
AcDbXrecord
280
     1
 90
        1
330
32F
  0
DICTIONARY
  5
334
102
{ACAD_REACTORS
330
C
102
}
330
C
100
AcDbDictionary
281
     1
  3
CANNOSCALE
350
5B0
  3
CMLEADERSTYLE
350
337
  3
CTABLESTYLE
350
336
  3
DIMASSOC
350
4C6
  3
HIDETEXT
350
4C7
  3
MSLTSCALE
350
338
  0
SORTENTSTABLE
  5
368
102
{ACAD_REACTORS
330
367
102
}
330
367
100
AcDbSortentsTable
330
1D
  0
SORTENTSTABLE
  5
361
102
{ACAD_REACTORS
330
360
330
360
102
}
330
360
100
AcDbSortentsTable
330
33B
  0
SORTENTSTABLE
  5
395
102
{ACAD_REACTORS
330
394
330
394
102
}
330
394
100
AcDbSortentsTable
330
370
  0
SORTENTSTABLE
  5
3C2
102
{ACAD_REACTORS
330
3C1
330
3C1
102
}
330
3C1
100
AcDbSortentsTable
330
39C
  0
LAYOUT
  5
1C
102
{ACAD_REACTORS
330
1A
102
}
330
1A
100
AcDbPlotSettings
  1

  2
none_device
  4

  6

 40
0.0
 41
0.0
 42
0.0
 43
0.0
 44
0.0
 45
0.0
 46
0.0
 47
0.0
 48
0.0
 49
0.0
140
0.0
141
0.0
142
1.0
143
1.0
 70
   688
 72
     0
 73
     0
 74
     5
  7
monochrome.ctb
 75
    16
 76
     0
 77
     2
 78
   300
147
1.0
148
0.0
149
0.0
100
AcDbLayout
  1
Layout1
 70
     1
 71
     1
 10
0.0
 20
0.0
 11
12.0
 21
9.0
 12
0.0
 22
0.0
 32
0.0
 14
1.000000000000E+20
 24
1.000000000000E+20
 34
1.000000000000E+20
 15
-1.000000000000E+20
 25
-1.000000000000E+20
 35
-1.000000000000E+20
146
0.0
 13
0.0
 23
0.0
 33
0.0
 16
1.0
 26
0.0
 36
0.0
 17
0.0
 27
1.0
 37
0.0
 76
     0
330
1B
  0
LAYOUT
  5
1E
102
{ACAD_REACTORS
330
1A
102
}
330
1A
100
AcDbPlotSettings
  1

  2
RICOH imagio MP C3500 RPCS
  4
A3
  6

 40
5.08
 41
5.08
 42
5.08
 43
5.08
 44
297.0
 45
420.0
 46
0.0
 47
2.100679852819
 48
73.9988
 49
67.8087
140
391.4973
141
292.322
142
1.0
143
0.782712662111
 70
  1716
 72
     1
 73
     1
 74
     4
  7
monochrome.ctb
 75
     0
 76
     0
 77
     2
 78
   300
147
1.277608052619
148
-290.366069996554
149
-277.504027492983
100
AcDbLayout
  1
Model
 70
     1
 71
     0
 10
0.0
 20
0.0
 11
12.0
 21
9.0
 12
0.0
 22
0.0
 32
0.0
 14
82.5
 24
79.0
 34
0.0
 15
378.0
 25
287.071143291314
 35
0.0
146
0.0
 13
0.0
 23
0.0
 33
0.0
 16
1.0
 26
0.0
 36
0.0
 17
0.0
 27
1.0
 37
0.0
 76
     0
330
1D
331
3B
  0
MATERIAL
  5
32C
102
{ACAD_REACTORS
330
32A
102
}
330
32A
100
AcDbMaterial
  1
ByBlock
 72
     1
 94
      127
  0
MATERIAL
  5
32B
102
{ACAD_REACTORS
330
32A
102
}
330
32A
100
AcDbMaterial
  1
ByLayer
 72
     1
 94
      127
  0
MATERIAL
  5
32D
102
{ACAD_REACTORS
330
32A
102
}
330
32A
100
AcDbMaterial
  1
Global
 72
     1
 94
      127
  0
MLEADERSTYLE
  5
331
102
{ACAD_REACTORS
330
330
102
}
330
330
100
AcDbMLeaderStyle
179
     2
170
     2
171
     1
172
     0
 90
        2
 40
0.0
 41
0.0
173
     1
 91
-1056964608
340
14
 92
       -2
290
     1
 42
0.09
291
     1
 43
0.36
  3
Standard
341
0
 44
0.18
300

342
11
174
     1
178
     6
175
     1
176
     0
 93
-1056964608
 45
0.18
292
     0
297
     0
 46
0.18
343
0
 94
-1056964608
 47
1.0
 49
1.0
140
1.0
293
     1
141
0.0
294
     1
177
     0
142
1.0
295
     0
296
     0
143
0.125
271
     0
272
     9
273
     9
298
     0
  0
MLINESTYLE
  5
18
102
{ACAD_REACTORS
330
17
102
}
330
17
100
AcDbMlineStyle
  2
Standard
 70
     0
  3

 62
   256
 51
90.0
 52
90.0
 71
     2
 49
0.5
 62
   256
  6
BYLAYER
 49
-0.5
 62
   256
  6
BYLAYER
  0
ACDBPLACEHOLDER
  5
F
102
{ACAD_REACTORS
330
E
102
}
330
E
  0
SCALE
  5
2EC
102
{ACAD_REACTORS
330
2EB
102
}
330
2EB
100
AcDbScale
 70
     0
300
1:1
140
1.0
141
1.0
290
     1
  0
SCALE
  5
2ED
102
{ACAD_REACTORS
330
2EB
102
}
330
2EB
100
AcDbScale
 70
     0
300
1:2
140
1.0
141
2.0
290
     0
  0
SCALE
  5
2EE
102
{ACAD_REACTORS
330
2EB
102
}
330
2EB
100
AcDbScale
 70
     0
300
1:4
140
1.0
141
4.0
290
     0
  0
SCALE
  5
2EF
102
{ACAD_REACTORS
330
2EB
102
}
330
2EB
100
AcDbScale
 70
     0
300
1:5
140
1.0
141
5.0
290
     0
  0
SCALE
  5
2F0
102
{ACAD_REACTORS
330
2EB
102
}
330
2EB
100
AcDbScale
 70
     0
300
1:8
140
1.0
141
8.0
290
     0
  0
SCALE
  5
2F1
102
{ACAD_REACTORS
330
2EB
102
}
330
2EB
100
AcDbScale
 70
     0
300
1:10
140
1.0
141
10.0
290
     0
  0
SCALE
  5
2F2
102
{ACAD_REACTORS
330
2EB
102
}
330
2EB
100
AcDbScale
 70
     0
300
1:16
140
1.0
141
16.0
290
     0
  0
SCALE
  5
2F3
102
{ACAD_REACTORS
330
2EB
102
}
330
2EB
100
AcDbScale
 70
     0
300
1:20
140
1.0
141
20.0
290
     0
  0
SCALE
  5
2F4
102
{ACAD_REACTORS
330
2EB
102
}
330
2EB
100
AcDbScale
 70
     0
300
1:30
140
1.0
141
30.0
290
     0
  0
SCALE
  5
2F5
102
{ACAD_REACTORS
330
2EB
102
}
330
2EB
100
AcDbScale
 70
     0
300
1:40
140
1.0
141
40.0
290
     0
  0
SCALE
  5
2F6
102
{ACAD_REACTORS
330
2EB
102
}
330
2EB
100
AcDbScale
 70
     0
300
1:50
140
1.0
141
50.0
290
     0
  0
SCALE
  5
2F7
102
{ACAD_REACTORS
330
2EB
102
}
330
2EB
100
AcDbScale
 70
     0
300
1:100
140
1.0
141
100.0
290
     0
  0
SCALE
  5
2F8
102
{ACAD_REACTORS
330
2EB
102
}
330
2EB
100
AcDbScale
 70
     0
300
2:1
140
2.0
141
1.0
290
     0
  0
SCALE
  5
2F9
102
{ACAD_REACTORS
330
2EB
102
}
330
2EB
100
AcDbScale
 70
     0
300
4:1
140
4.0
141
1.0
290
     0
  0
SCALE
  5
2FA
102
{ACAD_REACTORS
330
2EB
102
}
330
2EB
100
AcDbScale
 70
     0
300
8:1
140
8.0
141
1.0
290
     0
  0
SCALE
  5
2FB
102
{ACAD_REACTORS
330
2EB
102
}
330
2EB
100
AcDbScale
 70
     0
300
10:1
140
10.0
141
1.0
290
     0
  0
SCALE
  5
2FC
102
{ACAD_REACTORS
330
2EB
102
}
330
2EB
100
AcDbScale
 70
     0
300
100:1
140
100.0
141
1.0
290
     0
  0
SCALE
  5
2FD
102
{ACAD_REACTORS
330
2EB
102
}
330
2EB
100
AcDbScale
 70
     0
300
1/128" = 1'-0"
140
0.0078125
141
12.0
290
     0
  0
SCALE
  5
2FE
102
{ACAD_REACTORS
330
2EB
102
}
330
2EB
100
AcDbScale
 70
     0
300
1/64" = 1'-0"
140
0.015625
141
12.0
290
     0
  0
SCALE
  5
2FF
102
{ACAD_REACTORS
330
2EB
102
}
330
2EB
100
AcDbScale
 70
     0
300
1/32" = 1'-0"
140
0.03125
141
12.0
290
     0
  0
SCALE
  5
300
102
{ACAD_REACTORS
330
2EB
102
}
330
2EB
100
AcDbScale
 70
     0
300
1/16" = 1'-0"
140
0.0625
141
12.0
290
     0
  0
SCALE
  5
301
102
{ACAD_REACTORS
330
2EB
102
}
330
2EB
100
AcDbScale
 70
     0
300
3/32" = 1'-0"
140
0.09375
141
12.0
290
     0
  0
SCALE
  5
302
102
{ACAD_REACTORS
330
2EB
102
}
330
2EB
100
AcDbScale
 70
     0
300
1/8" = 1'-0"
140
0.125
141
12.0
290
     0
  0
SCALE
  5
303
102
{ACAD_REACTORS
330
2EB
102
}
330
2EB
100
AcDbScale
 70
     0
300
3/16" = 1'-0"
140
0.1875
141
12.0
290
     0
  0
SCALE
  5
304
102
{ACAD_REACTORS
330
2EB
102
}
330
2EB
100
AcDbScale
 70
     0
300
1/4" = 1'-0"
140
0.25
141
12.0
290
     0
  0
SCALE
  5
305
102
{ACAD_REACTORS
330
2EB
102
}
330
2EB
100
AcDbScale
 70
     0
300
3/8" = 1'-0"
140
0.375
141
12.0
290
     0
  0
SCALE
  5
306
102
{ACAD_REACTORS
330
2EB
102
}
330
2EB
100
AcDbScale
 70
     0
300
1/2" = 1'-0"
140
0.5
141
12.0
290
     0
  0
SCALE
  5
307
102
{ACAD_REACTORS
330
2EB
102
}
330
2EB
100
AcDbScale
 70
     0
300
3/4" = 1'-0"
140
0.75
141
12.0
290
     0
  0
SCALE
  5
308
102
{ACAD_REACTORS
330
2EB
102
}
330
2EB
100
AcDbScale
 70
     0
300
1" = 1'-0"
140
1.0
141
12.0
290
     0
  0
SCALE
  5
309
102
{ACAD_REACTORS
330
2EB
102
}
330
2EB
100
AcDbScale
 70
     0
300
1-1/2" = 1'-0"
140
1.5
141
12.0
290
     0
  0
SCALE
  5
30A
102
{ACAD_REACTORS
330
2EB
102
}
330
2EB
100
AcDbScale
 70
     0
300
3" = 1'-0"
140
3.0
141
12.0
290
     0
  0
SCALE
  5
30B
102
{ACAD_REACTORS
330
2EB
102
}
330
2EB
100
AcDbScale
 70
     0
300
6" = 1'-0"
140
6.0
141
12.0
290
     0
  0
SCALE
  5
30C
102
{ACAD_REACTORS
330
2EB
102
}
330
2EB
100
AcDbScale
 70
     0
300
1'-0" = 1'-0"
140
12.0
141
12.0
290
     0
  0
TABLESTYLE
  5
32F
102
{ACAD_REACTORS
330
32E
102
}
102
{ACAD_XDICTIONARY
360
5B1
102
}
330
32E
100
AcDbTableStyle
  3
Standard
 70
     0
 71
     0
 40
0.06
 41
0.06
280
     0
281
     0
  7
Standard
140
0.18
170
     2
 62
     0
 63
   257
283
     0
 90
        4
 91
        0
  1

274
    -2
284
     1
 64
     0
275
    -2
285
     1
 65
     0
276
    -2
286
     1
 66
     0
277
    -2
287
     1
 67
     0
278
    -2
288
     1
 68
     0
279
    -2
289
     1
 69
     0
  7
Standard
140
0.25
170
     5
 62
     0
 63
   257
283
     0
 90
        4
 91
        0
  1

274
    -2
284
     1
 64
     0
275
    -2
285
     1
 65
     0
276
    -2
286
     1
 66
     0
277
    -2
287
     1
 67
     0
278
    -2
288
     1
 68
     0
279
    -2
289
     1
 69
     0
  7
Standard
140
0.18
170
     5
 62
     0
 63
   257
283
     0
 90
        4
 91
        0
  1

274
    -2
284
     1
 64
     0
275
    -2
285
     1
 65
     0
276
    -2
286
     1
 66
     0
277
    -2
287
     1
 67
     0
278
    -2
288
     1
 68
     0
279
    -2
289
     1
 69
     0
  0
VISUALSTYLE
  5
316
102
{ACAD_REACTORS
330
311
102
}
330
311
100
AcDbVisualStyle
  2
2dWireframe
 70
     4
177
     3
291
     0
 70
    58
 90
        0
176
     1
 90
        2
176
     1
 90
        0
176
     1
 90
        0
176
     1
 40
0.6
176
     1
 40
30.0
176
     1
 62
     7
176
     1
 90
        1
176
     1
 90
        4
176
     1
 62
     7
176
     1
 62
   257
176
     1
 90
        1
176
     1
 90
        1
176
     1
 40
1.0
176
     1
 90
        0
176
     1
 62
   257
176
     1
 40
1.0
176
     1
 90
        1
176
     1
 90
        6
176
     1
 90
        2
176
     1
 62
     7
176
     1
 90
        5
176
     1
 90
        0
176
     1
 90
        0
176
     1
290
     0
176
     1
 90
        1
176
     1
 40
0.0
176
     1
 90
        0
176
     1
290
     1
176
     1
290
     1
176
     1
290
     0
176
     1
290
     0
176
     1
290
     0
176
     1
290
     0
176
     1
290
     0
176
     1
290
     0
176
     1
290
     0
176
     1
 90
       50
176
     1
 40
0.0
176
     1
 40
1.0
176
     1
 90
        0
176
     1
 62
    18
420
        0
176
     1
 90
       50
176
     1
 90
        3
176
     1
 62
     5
420
      255
176
     1
290
     0
176
     1
 90
       50
176
     1
 90
       50
176
     1
 90
       50
176
     1
290
     0
176
     1
 90
       50
176
     1
 62
   256
176
     0
 40
1.0
176
     0
 90
        2
176
     1
  1
strokes_ogs.tif
176
     1
290
     0
176
     1
 40
1.0
176
     1
 40
1.0
176
     1
  0
VISUALSTYLE
  5
319
102
{ACAD_REACTORS
330
311
102
}
330
311
100
AcDbVisualStyle
  2
Basic
 70
     7
177
     3
291
     1
 70
    58
 90
        1
176
     1
 90
        0
176
     1
 90
        1
176
     1
 90
        0
176
     1
 40
0.6
176
     1
 40
30.0
176
     1
 62
     7
176
     1
 90
        0
176
     1
 90
        4
176
     1
 62
     7
176
     1
 62
   257
176
     1
 90
        1
176
     1
 90
        1
176
     1
 40
1.0
176
     1
 90
        8
176
     1
 62
     7
176
     1
 40
1.0
176
     1
 90
        1
176
     1
 90
        6
176
     1
 90
        2
176
     1
 62
     7
176
     1
 90
        5
176
     1
 90
        0
176
     1
 90
        0
176
     1
290
     0
176
     1
 90
        1
176
     1
 40
0.0
176
     1
 90
        0
176
     1
290
     0
176
     1
290
     1
176
     1
290
     1
176
     1
290
     0
176
     1
290
     0
176
     1
290
     0
176
     1
290
     0
176
     1
290
     0
176
     1
290
     0
176
     1
 90
       50
176
     1
 40
0.0
176
     1
 40
1.0
176
     1
 90
        0
176
     1
 62
    18
420
        0
176
     1
 90
       50
176
     1
 90
        3
176
     1
 62
     5
420
      255
176
     1
290
     0
176
     1
 90
       50
176
     1
 90
       50
176
     1
 90
       50
176
     1
290
     0
176
     1
 90
       50
176
     1
 62
   256
176
     0
 40
1.0
176
     0
 90
        2
176
     1
  1
strokes_ogs.tif
176
     1
290
     0
176
     1
 40
1.0
176
     1
 40
1.0
176
     1
  0
VISUALSTYLE
  5
31D
102
{ACAD_REACTORS
330
311
102
}
330
311
100
AcDbVisualStyle
  2
Brighten
 70
    12
177
     3
291
     1
 70
    58
 90
        2
176
     1
 90
        2
176
     1
 90
        0
176
     1
 90
        0
176
     1
 40
0.6
176
     1
 40
30.0
176
     1
 62
     7
176
     1
 90
        1
176
     1
 90
        4
176
     1
 62
     7
176
     1
 62
   257
176
     1
 90
        1
176
     1
 90
        1
176
     1
 40
1.0
176
     1
 90
        8
176
     1
 62
     7
176
     1
 40
1.0
176
     1
 90
        1
176
     1
 90
        6
176
     1
 90
        2
176
     1
 62
     7
176
     1
 90
        5
176
     1
 90
        0
176
     1
 90
        0
176
     1
290
     0
176
     1
 90
        1
176
     1
 40
50.0
176
     1
 90
        0
176
     1
290
     0
176
     1
290
     1
176
     1
290
     1
176
     1
290
     0
176
     1
290
     0
176
     1
290
     0
176
     1
290
     0
176
     1
290
     0
176
     1
290
     0
176
     1
 90
       50
176
     1
 40
0.0
176
     1
 40
1.0
176
     1
 90
        0
176
     1
 62
    18
420
        0
176
     1
 90
       50
176
     1
 90
        3
176
     1
 62
     5
420
      255
176
     1
290
     0
176
     1
 90
       50
176
     1
 90
       50
176
     1
 90
       50
176
     1
290
     0
176
     1
 90
       50
176
     1
 62
   256
176
     0
 40
1.0
176
     0
 90
        2
176
     1
  1
strokes_ogs.tif
176
     1
290
     0
176
     1
 40
1.0
176
     1
 40
1.0
176
     1
  0
VISUALSTYLE
  5
321
102
{ACAD_REACTORS
330
311
102
}
330
311
100
AcDbVisualStyle
  2
ColorChange
 70
    16
177
     3
291
     1
 70
    58
 90
        2
176
     1
 90
        2
176
     1
 90
        3
176
     1
 90
        0
176
     1
 40
0.6
176
     1
 40
30.0
176
     1
 62
     8
176
     1
 90
        1
176
     1
 90
        4
176
     1
 62
     7
176
     1
 62
   257
176
     1
 90
        1
176
     1
 90
        1
176
     1
 40
1.0
176
     1
 90
        8
176
     1
 62
     8
176
     1
 40
1.0
176
     1
 90
        1
176
     1
 90
        6
176
     1
 90
        2
176
     1
 62
     7
176
     1
 90
        5
176
     1
 90
        0
176
     1
 90
        0
176
     1
290
     0
176
     1
 90
        1
176
     1
 40
0.0
176
     1
 90
        0
176
     1
290
     0
176
     1
290
     1
176
     1
290
     1
176
     1
290
     0
176
     1
290
     0
176
     1
290
     0
176
     1
290
     0
176
     1
290
     0
176
     1
290
     0
176
     1
 90
       50
176
     1
 40
0.0
176
     1
 40
1.0
176
     1
 90
        0
176
     1
 62
    18
420
        0
176
     1
 90
       50
176
     1
 90
        3
176
     1
 62
     5
420
      255
176
     1
290
     0
176
     1
 90
       50
176
     1
 90
       50
176
     1
 90
       50
176
     1
290
     0
176
     1
 90
       50
176
     1
 62
   256
176
     0
 40
1.0
176
     0
 90
        2
176
     1
  1
strokes_ogs.tif
176
     1
290
     0
176
     1
 40
1.0
176
     1
 40
1.0
176
     1
  0
VISUALSTYLE
  5
31B
102
{ACAD_REACTORS
330
311
102
}
330
311
100
AcDbVisualStyle
  2
Conceptual
 70
     9
177
     3
291
     0
 70
    58
 90
        3
176
     1
 90
        2
176
     1
 90
        0
176
     1
 90
        0
176
     1
 40
0.6
176
     1
 40
30.0
176
     1
 62
     7
176
     1
 90
        2
176
     1
 90
        2
176
     1
 62
     7
176
     1
 62
   257
176
     1
 90
        1
176
     1
 90
        1
176
     1
 40
179.0
176
     1
 90
        8
176
     1
 62
     7
176
     1
 40
1.0
176
     1
 90
        1
176
     1
 90
        6
176
     1
 90
        2
176
     1
 62
     7
176
     1
 90
        3
176
     1
 90
        0
176
     1
 90
        0
176
     1
290
     0
176
     1
 90
        1
176
     1
 40
0.0
176
     1
 90
        0
176
     1
290
     0
176
     1
290
     1
176
     1
290
     1
176
     1
290
     0
176
     1
290
     0
176
     1
290
     0
176
     1
290
     0
176
     1
290
     0
176
     1
290
     0
176
     1
 90
       50
176
     1
 40
0.0
176
     1
 40
1.0
176
     1
 90
        0
176
     1
 62
    18
420
        0
176
     1
 90
       50
176
     1
 90
        3
176
     1
 62
     5
420
      255
176
     1
290
     0
176
     1
 90
       50
176
     1
 90
       50
176
     1
 90
       50
176
     1
290
     0
176
     1
 90
       50
176
     1
 62
   256
176
     0
 40
1.0
176
     0
 90
        2
176
     1
  1
strokes_ogs.tif
176
     1
290
     0
176
     1
 40
1.0
176
     1
 40
1.0
176
     1
  0
VISUALSTYLE
  5
31C
102
{ACAD_REACTORS
330
311
102
}
330
311
100
AcDbVisualStyle
  2
Dim
 70
    11
177
     3
291
     1
 70
    58
 90
        2
176
     1
 90
        2
176
     1
 90
        0
176
     1
 90
        0
176
     1
 40
0.6
176
     1
 40
30.0
176
     1
 62
     7
176
     1
 90
        1
176
     1
 90
        4
176
     1
 62
     7
176
     1
 62
   257
176
     1
 90
        1
176
     1
 90
        1
176
     1
 40
1.0
176
     1
 90
        8
176
     1
 62
     7
176
     1
 40
1.0
176
     1
 90
        1
176
     1
 90
        6
176
     1
 90
        2
176
     1
 62
     7
176
     1
 90
        5
176
     1
 90
        0
176
     1
 90
        0
176
     1
290
     0
176
     1
 90
        1
176
     1
 40
-50.0
176
     1
 90
        0
176
     1
290
     0
176
     1
290
     1
176
     1
290
     1
176
     1
290
     0
176
     1
290
     0
176
     1
290
     0
176
     1
290
     0
176
     1
290
     0
176
     1
290
     0
176
     1
 90
       50
176
     1
 40
0.0
176
     1
 40
1.0
176
     1
 90
        0
176
     1
 62
    18
420
        0
176
     1
 90
       50
176
     1
 90
        3
176
     1
 62
     5
420
      255
176
     1
290
     0
176
     1
 90
       50
176
     1
 90
       50
176
     1
 90
       50
176
     1
290
     0
176
     1
 90
       50
176
     1
 62
   256
176
     0
 40
1.0
176
     0
 90
        2
176
     1
  1
strokes_ogs.tif
176
     1
290
     0
176
     1
 40
1.0
176
     1
 40
1.0
176
     1
  0
VISUALSTYLE
  5
324
102
{ACAD_REACTORS
330
311
102
}
330
311
100
AcDbVisualStyle
  2
EdgeColorOff
 70
    22
177
     3
291
     1
 70
    58
 90
        2
176
     1
 90
        2
176
     1
 90
        0
176
     1
 90
        0
176
     1
 40
0.6
176
     1
 40
30.0
176
     1
 62
     7
176
     1
 90
        1
176
     1
 90
        4
176
     1
 62
     7
176
     1
 62
   257
176
     1
 90
        1
176
     1
 90
        1
176
     1
 40
1.0
176
     1
 90
        8
176
     1
 62
     7
176
     1
 40
1.0
176
     1
 90
        1
176
     1
 90
        6
176
     1
 90
        2
176
     1
 62
     7
176
     1
 90
        5
176
     1
 90
        0
176
     1
 90
        0
176
     1
290
     0
176
     1
 90
        1
176
     1
 40
0.0
176
     1
 90
        0
176
     1
290
     0
176
     1
290
     1
176
     1
290
     1
176
     1
290
     0
176
     1
290
     0
176
     1
290
     0
176
     1
290
     0
176
     1
290
     0
176
     1
290
     0
176
     1
 90
       50
176
     1
 40
0.0
176
     1
 40
1.0
176
     1
 90
        0
176
     1
 62
    18
420
        0
176
     1
 90
       50
176
     1
 90
        3
176
     1
 62
     5
420
      255
176
     1
290
     0
176
     1
 90
       50
176
     1
 90
       50
176
     1
 90
       50
176
     1
290
     0
176
     1
 90
       50
176
     1
 62
   256
176
     0
 40
1.0
176
     0
 90
        2
176
     1
  1
strokes_ogs.tif
176
     1
290
     0
176
     1
 40
1.0
176
     1
 40
1.0
176
     1
  0
VISUALSTYLE
  5
320
102
{ACAD_REACTORS
330
311
102
}
330
311
100
AcDbVisualStyle
  2
Facepattern
 70
    15
177
     3
291
     1
 70
    58
 90
        2
176
     1
 90
        2
176
     1
 90
        0
176
     1
 90
        0
176
     1
 40
0.6
176
     1
 40
30.0
176
     1
 62
     7
176
     1
 90
        1
176
     1
 90
        4
176
     1
 62
     7
176
     1
 62
   257
176
     1
 90
        1
176
     1
 90
        1
176
     1
 40
1.0
176
     1
 90
        8
176
     1
 62
     7
176
     1
 40
1.0
176
     1
 90
        1
176
     1
 90
        6
176
     1
 90
        2
176
     1
 62
     7
176
     1
 90
        5
176
     1
 90
        0
176
     1
 90
        0
176
     1
290
     0
176
     1
 90
        1
176
     1
 40
0.0
176
     1
 90
        0
176
     1
290
     0
176
     1
290
     1
176
     1
290
     1
176
     1
290
     0
176
     1
290
     0
176
     1
290
     0
176
     1
290
     0
176
     1
290
     0
176
     1
290
     0
176
     1
 90
       50
176
     1
 40
0.0
176
     1
 40
1.0
176
     1
 90
        0
176
     1
 62
    18
420
        0
176
     1
 90
       50
176
     1
 90
        3
176
     1
 62
     5
420
      255
176
     1
290
     0
176
     1
 90
       50
176
     1
 90
       50
176
     1
 90
       50
176
     1
290
     0
176
     1
 90
       50
176
     1
 62
   256
176
     0
 40
1.0
176
     0
 90
        2
176
     1
  1
strokes_ogs.tif
176
     1
290
     0
176
     1
 40
1.0
176
     1
 40
1.0
176
     1
  0
VISUALSTYLE
  5
312
102
{ACAD_REACTORS
330
311
102
}
330
311
100
AcDbVisualStyle
  2
Flat
 70
     0
177
     3
291
     1
 70
    58
 90
        2
176
     1
 90
        1
176
     1
 90
        1
176
     1
 90
        2
176
     1
 40
0.6
176
     1
 40
30.0
176
     1
 62
     7
176
     1
 90
        0
176
     1
 90
        0
176
     1
 62
     7
176
     1
 62
   257
176
     1
 90
        1
176
     1
 90
        1
176
     1
 40
1.0
176
     1
 90
        8
176
     1
 62
     7
176
     1
 40
1.0
176
     1
 90
        1
176
     1
 90
        6
176
     1
 90
        2
176
     1
 62
     7
176
     1
 90
        5
176
     1
 90
        0
176
     1
 90
        0
176
     1
290
     0
176
     1
 90
       13
176
     1
 40
0.0
176
     1
 90
        0
176
     1
290
     0
176
     1
290
     1
176
     1
290
     1
176
     1
290
     0
176
     1
290
     0
176
     1
290
     0
176
     1
290
     0
176
     1
290
     0
176
     1
290
     0
176
     1
 90
       50
176
     1
 40
0.0
176
     1
 40
1.0
176
     1
 90
        0
176
     1
 62
    18
420
        0
176
     1
 90
       50
176
     1
 90
        3
176
     1
 62
     5
420
      255
176
     1
290
     0
176
     1
 90
       50
176
     1
 90
       50
176
     1
 90
       50
176
     1
290
     0
176
     1
 90
       50
176
     1
 62
   256
176
     0
 40
1.0
176
     0
 90
        2
176
     1
  1
strokes_ogs.tif
176
     1
290
     0
176
     1
 40
1.0
176
     1
 40
1.0
176
     1
  0
VISUALSTYLE
  5
313
102
{ACAD_REACTORS
330
311
102
}
330
311
100
AcDbVisualStyle
  2
FlatWithEdges
 70
     1
177
     3
291
     1
 70
    58
 90
        2
176
     1
 90
        1
176
     1
 90
        1
176
     1
 90
        2
176
     1
 40
0.6
176
     1
 40
30.0
176
     1
 62
     7
176
     1
 90
        1
176
     1
 90
        0
176
     1
 62
     7
176
     1
 62
   257
176
     1
 90
        1
176
     1
 90
        1
176
     1
 40
1.0
176
     1
 90
        0
176
     1
 62
   257
176
     1
 40
1.0
176
     1
 90
        1
176
     1
 90
        6
176
     1
 90
        2
176
     1
 62
     7
176
     1
 90
        5
176
     1
 90
        0
176
     1
 90
        0
176
     1
290
     0
176
     1
 90
       13
176
     1
 40
0.0
176
     1
 90
        0
176
     1
290
     0
176
     1
290
     1
176
     1
290
     1
176
     1
290
     0
176
     1
290
     0
176
     1
290
     0
176
     1
290
     0
176
     1
290
     0
176
     1
290
     0
176
     1
 90
       50
176
     1
 40
0.0
176
     1
 40
1.0
176
     1
 90
        0
176
     1
 62
    18
420
        0
176
     1
 90
       50
176
     1
 90
        3
176
     1
 62
     5
420
      255
176
     1
290
     0
176
     1
 90
       50
176
     1
 90
       50
176
     1
 90
       50
176
     1
290
     0
176
     1
 90
       50
176
     1
 62
   256
176
     0
 40
1.0
176
     0
 90
        2
176
     1
  1
strokes_ogs.tif
176
     1
290
     0
176
     1
 40
1.0
176
     1
 40
1.0
176
     1
  0
VISUALSTYLE
  5
314
102
{ACAD_REACTORS
330
311
102
}
330
311
100
AcDbVisualStyle
  2
Gouraud
 70
     2
177
     3
291
     1
 70
    58
 90
        2
176
     1
 90
        2
176
     1
 90
        1
176
     1
 90
        2
176
     1
 40
0.6
176
     1
 40
30.0
176
     1
 62
     7
176
     1
 90
        0
176
     1
 90
        0
176
     1
 62
     7
176
     1
 62
   257
176
     1
 90
        1
176
     1
 90
        1
176
     1
 40
1.0
176
     1
 90
        0
176
     1
 62
     7
176
     1
 40
1.0
176
     1
 90
        1
176
     1
 90
        6
176
     1
 90
        2
176
     1
 62
     7
176
     1
 90
        5
176
     1
 90
        0
176
     1
 90
        0
176
     1
290
     0
176
     1
 90
       13
176
     1
 40
0.0
176
     1
 90
        0
176
     1
290
     0
176
     1
290
     1
176
     1
290
     1
176
     1
290
     0
176
     1
290
     0
176
     1
290
     0
176
     1
290
     0
176
     1
290
     0
176
     1
290
     0
176
     1
 90
       50
176
     1
 40
0.0
176
     1
 40
1.0
176
     1
 90
        0
176
     1
 62
    18
420
        0
176
     1
 90
       50
176
     1
 90
        3
176
     1
 62
     5
420
      255
176
     1
290
     0
176
     1
 90
       50
176
     1
 90
       50
176
     1
 90
       50
176
     1
290
     0
176
     1
 90
       50
176
     1
 62
   256
176
     0
 40
1.0
176
     0
 90
        2
176
     1
  1
strokes_ogs.tif
176
     1
290
     0
176
     1
 40
1.0
176
     1
 40
1.0
176
     1
  0
VISUALSTYLE
  5
315
102
{ACAD_REACTORS
330
311
102
}
330
311
100
AcDbVisualStyle
  2
GouraudWithEdges
 70
     3
177
     3
291
     1
 70
    58
 90
        2
176
     1
 90
        2
176
     1
 90
        1
176
     1
 90
        2
176
     1
 40
0.6
176
     1
 40
30.0
176
     1
 62
     7
176
     1
 90
        1
176
     1
 90
        0
176
     1
 62
     7
176
     1
 62
   257
176
     1
 90
        1
176
     1
 90
        1
176
     1
 40
1.0
176
     1
 90
        0
176
     1
 62
   257
176
     1
 40
1.0
176
     1
 90
        1
176
     1
 90
        6
176
     1
 90
        2
176
     1
 62
     7
176
     1
 90
        5
176
     1
 90
        0
176
     1
 90
        0
176
     1
290
     0
176
     1
 90
       13
176
     1
 40
0.0
176
     1
 90
        0
176
     1
290
     0
176
     1
290
     1
176
     1
290
     1
176
     1
290
     0
176
     1
290
     0
176
     1
290
     0
176
     1
290
     0
176
     1
290
     0
176
     1
290
     0
176
     1
 90
       50
176
     1
 40
0.0
176
     1
 40
1.0
176
     1
 90
        0
176
     1
 62
    18
420
        0
176
     1
 90
       50
176
     1
 90
        3
176
     1
 62
     5
420
      255
176
     1
290
     0
176
     1
 90
       50
176
     1
 90
       50
176
     1
 90
       50
176
     1
290
     0
176
     1
 90
       50
176
     1
 62
   256
176
     0
 40
1.0
176
     0
 90
        2
176
     1
  1
strokes_ogs.tif
176
     1
290
     0
176
     1
 40
1.0
176
     1
 40
1.0
176
     1
  0
VISUALSTYLE
  5
318
102
{ACAD_REACTORS
330
311
102
}
330
311
100
AcDbVisualStyle
  2
Hidden
 70
     6
177
     3
291
     0
 70
    58
 90
        1
176
     1
 90
        2
176
     1
 90
        2
176
     1
 90
        0
176
     1
 40
0.6
176
     1
 40
30.0
176
     1
 62
     7
176
     1
 90
        2
176
     1
 90
        2
176
     1
 62
     7
176
     1
 62
   257
176
     1
 90
        2
176
     1
 90
        1
176
     1
 40
40.0
176
     1
 90
        0
176
     1
 62
   257
176
     1
 40
1.0
176
     1
 90
        1
176
     1
 90
        6
176
     1
 90
        2
176
     1
 62
     7
176
     1
 90
        3
176
     1
 90
        0
176
     1
 90
        0
176
     1
290
     0
176
     1
 90
        1
176
     1
 40
0.0
176
     1
 90
        0
176
     1
290
     0
176
     1
290
     1
176
     1
290
     1
176
     1
290
     0
176
     1
290
     0
176
     1
290
     0
176
     1
290
     0
176
     1
290
     0
176
     1
290
     0
176
     1
 90
       50
176
     1
 40
0.0
176
     1
 40
1.0
176
     1
 90
        0
176
     1
 62
    18
420
        0
176
     1
 90
       50
176
     1
 90
        3
176
     1
 62
     5
420
      255
176
     1
290
     0
176
     1
 90
       50
176
     1
 90
       50
176
     1
 90
       50
176
     1
290
     0
176
     1
 90
       50
176
     1
 62
   256
176
     0
 40
1.0
176
     0
 90
        2
176
     1
  1
strokes_ogs.tif
176
     1
290
     0
176
     1
 40
1.0
176
     1
 40
1.0
176
     1
  0
VISUALSTYLE
  5
322
102
{ACAD_REACTORS
330
311
102
}
330
311
100
AcDbVisualStyle
  2
JitterOff
 70
    20
177
     3
291
     1
 70
    58
 90
        2
176
     1
 90
        2
176
     1
 90
        0
176
     1
 90
        0
176
     1
 40
0.6
176
     1
 40
30.0
176
     1
 62
     7
176
     1
 90
        1
176
     1
 90
        4
176
     1
 62
     7
176
     1
 62
   257
176
     1
 90
        1
176
     1
 90
        1
176
     1
 40
1.0
176
     1
 90
       10
176
     1
 62
     7
176
     1
 40
1.0
176
     1
 90
        1
176
     1
 90
        6
176
     1
 90
        2
176
     1
 62
     7
176
     1
 90
        5
176
     1
 90
        0
176
     1
 90
        0
176
     1
290
     0
176
     1
 90
        1
176
     1
 40
0.0
176
     1
 90
        0
176
     1
290
     0
176
     1
290
     1
176
     1
290
     1
176
     1
290
     0
176
     1
290
     0
176
     1
290
     0
176
     1
290
     0
176
     1
290
     0
176
     1
290
     0
176
     1
 90
       50
176
     1
 40
0.0
176
     1
 40
1.0
176
     1
 90
        0
176
     1
 62
    18
420
        0
176
     1
 90
       50
176
     1
 90
        3
176
     1
 62
     5
420
      255
176
     1
290
     0
176
     1
 90
       50
176
     1
 90
       50
176
     1
 90
       50
176
     1
290
     0
176
     1
 90
       50
176
     1
 62
   256
176
     0
 40
1.0
176
     0
 90
        2
176
     1
  1
strokes_ogs.tif
176
     1
290
     0
176
     1
 40
1.0
176
     1
 40
1.0
176
     1
  0
VISUALSTYLE
  5
31F
102
{ACAD_REACTORS
330
311
102
}
330
311
100
AcDbVisualStyle
  2
Linepattern
 70
    14
177
     3
291
     1
 70
    58
 90
        2
176
     1
 90
        2
176
     1
 90
        0
176
     1
 90
        0
176
     1
 40
0.6
176
     1
 40
30.0
176
     1
 62
     7
176
     1
 90
        1
176
     1
 90
        4
176
     1
 62
     7
176
     1
 62
   257
176
     1
 90
        7
176
     1
 90
        7
176
     1
 40
1.0
176
     1
 90
        8
176
     1
 62
     7
176
     1
 40
1.0
176
     1
 90
        1
176
     1
 90
        6
176
     1
 90
        2
176
     1
 62
     7
176
     1
 90
        5
176
     1
 90
        0
176
     1
 90
        0
176
     1
290
     0
176
     1
 90
        1
176
     1
 40
0.0
176
     1
 90
        0
176
     1
290
     0
176
     1
290
     1
176
     1
290
     1
176
     1
290
     0
176
     1
290
     0
176
     1
290
     0
176
     1
290
     0
176
     1
290
     0
176
     1
290
     0
176
     1
 90
       50
176
     1
 40
0.0
176
     1
 40
1.0
176
     1
 90
        0
176
     1
 62
    18
420
        0
176
     1
 90
       50
176
     1
 90
        3
176
     1
 62
     5
420
      255
176
     1
290
     0
176
     1
 90
       50
176
     1
 90
       50
176
     1
 90
       50
176
     1
290
     0
176
     1
 90
       50
176
     1
 62
   256
176
     0
 40
1.0
176
     0
 90
        2
176
     1
  1
strokes_ogs.tif
176
     1
290
     0
176
     1
 40
1.0
176
     1
 40
1.0
176
     1
  0
VISUALSTYLE
  5
332
102
{ACAD_REACTORS
330
311
102
}
330
311
100
AcDbVisualStyle
  2

 70
    10
177
     3
291
     0
 70
    58
 90
        2
176
     1
 90
        3
176
     1
 90
        0
176
     1
 90
        2
176
     1
 40
0.6
176
     1
 40
30.0
176
     1
 62
     7
176
     1
 90
        2
176
     1
 90
        0
176
     1
 62
     7
176
     1
 62
   257
176
     1
 90
        1
176
     1
 90
        1
176
     1
 40
180.0
176
     1
 90
        8
176
     1
 62
     8
176
     1
 40
1.0
176
     1
 90
        1
176
     1
 90
        6
176
     1
 90
        2
176
     1
 62
     7
176
     1
 90
        5
176
     1
 90
        0
176
     1
 90
        0
176
     1
290
     0
176
     1
 90
       13
176
     1
 40
0.0
176
     1
 90
        0
176
     1
290
     0
176
     1
290
     1
176
     1
290
     1
176
     1
290
     0
176
     1
290
     0
176
     1
290
     0
176
     1
290
     0
176
     1
290
     0
176
     1
290
     0
176
     1
 90
       50
176
     1
 40
0.0
176
     1
 40
1.0
176
     1
 90
        0
176
     1
 62
    18
420
        0
176
     1
 90
       50
176
     1
 90
        3
176
     1
 62
     5
420
      255
176
     1
290
     0
176
     1
 90
       50
176
     1
 90
       50
176
     1
 90
       50
176
     1
290
     0
176
     1
 90
       50
176
     1
 62
   256
176
     0
 40
1.0
176
     0
 90
        2
176
     1
  1
strokes_ogs.tif
176
     1
290
     0
176
     1
 40
1.0
176
     1
 40
1.0
176
     1
  0
VISUALSTYLE
  5
323
102
{ACAD_REACTORS
330
311
102
}
330
311
100
AcDbVisualStyle
  2
OverhangOff
 70
    21
177
     3
291
     1
 70
    58
 90
        2
176
     1
 90
        2
176
     1
 90
        0
176
     1
 90
        0
176
     1
 40
0.6
176
     1
 40
30.0
176
     1
 62
     7
176
     1
 90
        1
176
     1
 90
        4
176
     1
 62
     7
176
     1
 62
   257
176
     1
 90
        1
176
     1
 90
        1
176
     1
 40
1.0
176
     1
 90
        9
176
     1
 62
     7
176
     1
 40
1.0
176
     1
 90
        1
176
     1
 90
        6
176
     1
 90
        2
176
     1
 62
     7
176
     1
 90
        5
176
     1
 90
        0
176
     1
 90
        0
176
     1
290
     0
176
     1
 90
        1
176
     1
 40
0.0
176
     1
 90
        0
176
     1
290
     0
176
     1
290
     1
176
     1
290
     1
176
     1
290
     0
176
     1
290
     0
176
     1
290
     0
176
     1
290
     0
176
     1
290
     0
176
     1
290
     0
176
     1
 90
       50
176
     1
 40
0.0
176
     1
 40
1.0
176
     1
 90
        0
176
     1
 62
    18
420
        0
176
     1
 90
       50
176
     1
 90
        3
176
     1
 62
     5
420
      255
176
     1
290
     0
176
     1
 90
       50
176
     1
 90
       50
176
     1
 90
       50
176
     1
290
     0
176
     1
 90
       50
176
     1
 62
   256
176
     0
 40
1.0
176
     0
 90
        2
176
     1
  1
strokes_ogs.tif
176
     1
290
     0
176
     1
 40
1.0
176
     1
 40
1.0
176
     1
  0
VISUALSTYLE
  5
31A
102
{ACAD_REACTORS
330
311
102
}
330
311
100
AcDbVisualStyle
  2
Realistic
 70
     8
177
     3
291
     0
 70
    58
 90
        2
176
     1
 90
        3
176
     1
 90
        0
176
     1
 90
        2
176
     1
 40
0.6
176
     1
 40
30.0
176
     1
 62
     7
176
     1
 90
        0
176
     1
 90
        0
176
     1
 62
     7
176
     1
 62
   257
176
     1
 90
        1
176
     1
 90
        1
176
     1
 40
1.0
176
     1
 90
        8
176
     1
 62
   257
176
     1
 40
1.0
176
     1
 90
        1
176
     1
 90
        6
176
     1
 90
        2
176
     1
 62
     7
176
     1
 90
        3
176
     1
 90
        0
176
     1
 90
        0
176
     1
290
     0
176
     1
 90
       13
176
     1
 40
0.0
176
     1
 90
        0
176
     1
290
     0
176
     1
290
     1
176
     1
290
     1
176
     1
290
     0
176
     1
290
     0
176
     1
290
     0
176
     1
290
     0
176
     1
290
     0
176
     1
290
     0
176
     1
 90
       50
176
     1
 40
0.0
176
     1
 40
1.0
176
     1
 90
        0
176
     1
 62
    18
420
        0
176
     1
 90
       50
176
     1
 90
        3
176
     1
 62
     5
420
      255
176
     1
290
     0
176
     1
 90
       50
176
     1
 90
       50
176
     1
 90
       50
176
     1
290
     0
176
     1
 90
       50
176
     1
 62
   256
176
     0
 40
1.0
176
     0
 90
        2
176
     1
  1
strokes_ogs.tif
176
     1
290
     0
176
     1
 40
1.0
176
     1
 40
1.0
176
     1
  0
VISUALSTYLE
  5
329
102
{ACAD_REACTORS
330
311
102
}
330
311
100
AcDbVisualStyle
  2
Shaded
 70
    27
177
     3
291
     0
 70
    58
 90
        2
176
     1
 90
        2
176
     1
 90
        1
176
     1
 90
        2
176
     1
 40
0.6
176
     1
 40
30.0
176
     1
 62
     7
176
     1
 90
        0
176
     1
 90
        4
176
     1
 62
     7
176
     1
 62
   257
176
     1
 90
        1
176
     1
 90
        1
176
     1
 40
1.0
176
     1
 90
        8
176
     1
 62
   257
176
     1
 40
1.0
176
     1
 90
        1
176
     1
 90
        6
176
     1
 90
        2
176
     1
 62
     8
176
     1
 90
        3
176
     1
 90
        0
176
     1
 90
        0
176
     1
290
     0
176
     1
 90
        5
176
     1
 40
0.0
176
     1
 90
        0
176
     1
290
     0
176
     1
290
     1
176
     1
290
     1
176
     1
290
     0
176
     1
290
     0
176
     1
290
     0
176
     1
290
     0
176
     1
290
     0
176
     1
290
     0
176
     1
 90
       50
176
     1
 40
0.0
176
     1
 40
1.0
176
     1
 90
        0
176
     1
 62
    18
420
        0
176
     1
 90
       50
176
     1
 90
        3
176
     1
 62
     5
420
      255
176
     1
290
     0
176
     1
 90
       50
176
     1
 90
       50
176
     1
 90
       50
176
     1
290
     0
176
     1
 90
       50
176
     1
 62
   256
176
     0
 40
1.0
176
     0
 90
        2
176
     1
  1
strokes_ogs.tif
176
     1
290
     0
176
     1
 40
1.0
176
     1
 40
1.0
176
     1
  0
VISUALSTYLE
  5
328
102
{ACAD_REACTORS
330
311
102
}
330
311
100
AcDbVisualStyle
  2
Shaded with edges
 70
    26
177
     3
291
     0
 70
    58
 90
        2
176
     1
 90
        2
176
     1
 90
        1
176
     1
 90
        2
176
     1
 40
0.6
176
     1
 40
30.0
176
     1
 62
     7
176
     1
 90
        1
176
     1
 90
       10
176
     1
 62
     7
176
     1
 62
   257
176
     1
 90
        2
176
     1
 90
        1
176
     1
 40
1.0
176
     1
 90
        8
176
     1
 62
   257
176
     1
 40
1.0
176
     1
 90
        1
176
     1
 90
        6
176
     1
 90
        2
176
     1
 62
     7
176
     1
 90
        3
176
     1
 90
        0
176
     1
 90
        0
176
     1
290
     0
176
     1
 90
        5
176
     1
 40
0.0
176
     1
 90
        0
176
     1
290
     0
176
     1
290
     1
176
     1
290
     1
176
     1
290
     0
176
     1
290
     0
176
     1
290
     0
176
     1
290
     0
176
     1
290
     0
176
     1
290
     0
176
     1
 90
       50
176
     1
 40
0.0
176
     1
 40
1.0
176
     1
 90
        0
176
     1
 62
    18
420
        0
176
     1
 90
       50
176
     1
 90
        3
176
     1
 62
     5
420
      255
176
     1
290
     0
176
     1
 90
       50
176
     1
 90
       50
176
     1
 90
       50
176
     1
290
     0
176
     1
 90
       50
176
     1
 62
   256
176
     0
 40
1.0
176
     0
 90
        2
176
     1
  1
strokes_ogs.tif
176
     1
290
     0
176
     1
 40
1.0
176
     1
 40
1.0
176
     1
  0
VISUALSTYLE
  5
325
102
{ACAD_REACTORS
330
311
102
}
330
311
100
AcDbVisualStyle
  2
Shades of Gray
 70
    23
177
     3
291
     0
 70
    58
 90
        2
176
     1
 90
        2
176
     1
 90
        3
176
     1
 90
        0
176
     1
 40
0.6
176
     1
 40
30.0
176
     1
 62
     7
176
     1
 90
        2
176
     1
 90
        2
176
     1
 62
     7
176
     1
 62
     7
176
     1
 90
        1
176
     1
 90
        1
176
     1
 40
40.0
176
     1
 90
        8
176
     1
 62
     7
176
     1
 40
1.0
176
     1
 90
        1
176
     1
 90
        6
176
     1
 90
        2
176
     1
 62
     7
176
     1
 90
        3
176
     1
 90
        0
176
     1
 90
        0
176
     1
290
     0
176
     1
 90
        1
176
     1
 40
0.0
176
     1
 90
        0
176
     1
290
     0
176
     1
290
     1
176
     1
290
     1
176
     1
290
     0
176
     1
290
     0
176
     1
290
     0
176
     1
290
     0
176
     1
290
     0
176
     1
290
     0
176
     1
 90
       50
176
     1
 40
0.0
176
     1
 40
1.0
176
     1
 90
        0
176
     1
 62
    18
420
        0
176
     1
 90
       50
176
     1
 90
        3
176
     1
 62
     5
420
      255
176
     1
290
     0
176
     1
 90
       50
176
     1
 90
       50
176
     1
 90
       50
176
     1
290
     0
176
     1
 90
       50
176
     1
 62
   256
176
     0
 40
1.0
176
     0
 90
        2
176
     1
  1
strokes_ogs.tif
176
     1
290
     0
176
     1
 40
1.0
176
     1
 40
1.0
176
     1
  0
VISUALSTYLE
  5
326
102
{ACAD_REACTORS
330
311
102
}
330
311
100
AcDbVisualStyle
  2
Sketchy
 70
    24
177
     3
291
     0
 70
    58
 90
        1
176
     1
 90
        2
176
     1
 90
        2
176
     1
 90
        0
176
     1
 40
0.6
176
     1
 40
30.0
176
     1
 62
     7
176
     1
 90
        2
176
     1
 90
        2
176
     1
 62
     7
176
     1
 62
     7
176
     1
 90
        1
176
     1
 90
        1
176
     1
 40
40.0
176
     1
 90
       11
176
     1
 62
     7
176
     1
 40
1.0
176
     1
 90
        1
176
     1
 90
        6
176
     1
 90
        2
176
     1
 62
     7
176
     1
 90
        6
176
     1
 90
        0
176
     1
 90
        0
176
     1
290
     0
176
     1
 90
        1
176
     1
 40
0.0
176
     1
 90
        0
176
     1
290
     0
176
     1
290
     1
176
     1
290
     1
176
     1
290
     0
176
     1
290
     0
176
     1
290
     0
176
     1
290
     0
176
     1
290
     0
176
     1
290
     0
176
     1
 90
       50
176
     1
 40
0.0
176
     1
 40
1.0
176
     1
 90
        0
176
     1
 62
    18
420
        0
176
     1
 90
       50
176
     1
 90
        3
176
     1
 62
     5
420
      255
176
     1
290
     0
176
     1
 90
       50
176
     1
 90
       50
176
     1
 90
       50
176
     1
290
     0
176
     1
 90
       50
176
     1
 62
   256
176
     0
 40
1.0
176
     0
 90
        2
176
     1
  1
strokes_ogs.tif
176
     1
290
     0
176
     1
 40
1.0
176
     1
 40
1.0
176
     1
  0
VISUALSTYLE
  5
31E
102
{ACAD_REACTORS
330
311
102
}
330
311
100
AcDbVisualStyle
  2
Thicken
 70
    13
177
     3
291
     1
 70
    58
 90
        2
176
     1
 90
        2
176
     1
 90
        0
176
     1
 90
        0
176
     1
 40
0.6
176
     1
 40
30.0
176
     1
 62
     7
176
     1
 90
        1
176
     1
 90
        4
176
     1
 62
     7
176
     1
 62
   257
176
     1
 90
        1
176
     1
 90
        1
176
     1
 40
1.0
176
     1
 90
       12
176
     1
 62
     7
176
     1
 40
1.0
176
     1
 90
        1
176
     1
 90
        6
176
     1
 90
        2
176
     1
 62
     7
176
     1
 90
        5
176
     1
 90
        0
176
     1
 90
        0
176
     1
290
     0
176
     1
 90
        1
176
     1
 40
0.0
176
     1
 90
        0
176
     1
290
     0
176
     1
290
     1
176
     1
290
     1
176
     1
290
     0
176
     1
290
     0
176
     1
290
     0
176
     1
290
     0
176
     1
290
     0
176
     1
290
     0
176
     1
 90
       50
176
     1
 40
0.0
176
     1
 40
1.0
176
     1
 90
        0
176
     1
 62
    18
420
        0
176
     1
 90
       50
176
     1
 90
        3
176
     1
 62
     5
420
      255
176
     1
290
     0
176
     1
 90
       50
176
     1
 90
       50
176
     1
 90
       50
176
     1
290
     0
176
     1
 90
       50
176
     1
 62
   256
176
     0
 40
1.0
176
     0
 90
        2
176
     1
  1
strokes_ogs.tif
176
     1
290
     0
176
     1
 40
1.0
176
     1
 40
1.0
176
     1
  0
VISUALSTYLE
  5
317
102
{ACAD_REACTORS
330
311
102
}
330
311
100
AcDbVisualStyle
  2
Wireframe
 70
     5
177
     3
291
     0
 70
    58
 90
        0
176
     1
 90
        2
176
     1
 90
        0
176
     1
 90
        0
176
     1
 40
0.6
176
     1
 40
30.0
176
     1
 62
     7
176
     1
 90
        1
176
     1
 90
        4
176
     1
 62
     7
176
     1
 62
   257
176
     1
 90
        1
176
     1
 90
        1
176
     1
 40
1.0
176
     1
 90
        0
176
     1
 62
   257
176
     1
 40
1.0
176
     1
 90
        1
176
     1
 90
        6
176
     1
 90
        2
176
     1
 62
     7
176
     1
 90
        3
176
     1
 90
        0
176
     1
 90
        0
176
     1
290
     0
176
     1
 90
        1
176
     1
 40
0.0
176
     1
 90
        0
176
     1
290
     0
176
     1
290
     1
176
     1
290
     1
176
     1
290
     0
176
     1
290
     0
176
     1
290
     0
176
     1
290
     0
176
     1
290
     0
176
     1
290
     0
176
     1
 90
       50
176
     1
 40
0.0
176
     1
 40
1.0
176
     1
 90
        0
176
     1
 62
    18
420
        0
176
     1
 90
       50
176
     1
 90
        3
176
     1
 62
     5
420
      255
176
     1
290
     0
176
     1
 90
       50
176
     1
 90
       50
176
     1
 90
       50
176
     1
290
     0
176
     1
 90
       50
176
     1
 62
   256
176
     0
 40
1.0
176
     0
 90
        2
176
     1
  1
strokes_ogs.tif
176
     1
290
     0
176
     1
 40
1.0
176
     1
 40
1.0
176
     1
  0
VISUALSTYLE
  5
327
102
{ACAD_REACTORS
330
311
102
}
330
311
100
AcDbVisualStyle
  2
X-Ray
 70
    25
177
     3
291
     0
 70
    58
 90
        2
176
     1
 90
        2
176
     1
 90
        1
176
     1
 90
        1
176
     1
 40
0.5
176
     1
 40
30.0
176
     1
 62
     7
176
     1
 90
        1
176
     1
 90
        0
176
     1
 62
     7
176
     1
 62
   257
176
     1
 90
        1
176
     1
 90
        1
176
     1
 40
1.0
176
     1
 90
        8
176
     1
 62
     7
176
     1
 40
1.0
176
     1
 90
        1
176
     1
 90
        6
176
     1
 90
        2
176
     1
 62
     7
176
     1
 90
        3
176
     1
 90
        0
176
     1
 90
        0
176
     1
290
     0
176
     1
 90
       13
176
     1
 40
0.0
176
     1
 90
        0
176
     1
290
     0
176
     1
290
     1
176
     1
290
     1
176
     1
290
     0
176
     1
290
     0
176
     1
290
     0
176
     1
290
     0
176
     1
290
     0
176
     1
290
     0
176
     1
 90
       50
176
     1
 40
0.0
176
     1
 40
1.0
176
     1
 90
        0
176
     1
 62
    18
420
        0
176
     1
 90
       50
176
     1
 90
        3
176
     1
 62
     5
420
      255
176
     1
290
     0
176
     1
 90
       50
176
     1
 90
       50
176
     1
 90
       50
176
     1
290
     0
176
     1
 90
       50
176
     1
 62
   256
176
     0
 40
1.0
176
     0
 90
        2
176
     1
  1
strokes_ogs.tif
176
     1
290
     0
176
     1
 40
1.0
176
     1
 40
1.0
176
     1
  0
DICTIONARYVAR
  5
5B0
102
{ACAD_REACTORS
330
334
102
}
330
334
100
DictionaryVariables
280
     0
  1
1:1
  0
DICTIONARYVAR
  5
337
102
{ACAD_REACTORS
330
334
102
}
330
334
100
DictionaryVariables
280
     0
  1
Standard
  0
DICTIONARYVAR
  5
336
102
{ACAD_REACTORS
330
334
102
}
330
334
100
DictionaryVariables
280
     0
  1
Standard
  0
DICTIONARYVAR
  5
4C6
102
{ACAD_REACTORS
330
334
102
}
330
334
100
DictionaryVariables
280
     0
  1
2
  0
DICTIONARYVAR
  5
4C7
102
{ACAD_REACTORS
330
334
102
}
330
334
100
DictionaryVariables
280
     0
  1
1
  0
DICTIONARYVAR
  5
338
102
{ACAD_REACTORS
330
334
102
}
330
334
100
DictionaryVariables
280
     0
  1
0
  0
DICTIONARY
  5
5B1
330
32F
100
AcDbDictionary
280
     1
281
     1
  3
ACAD_ROUNDTRIP_2008_TABLESTYLE_CELLSTYLEMAP
360
5B2
  0
CELLSTYLEMAP
  5
5B2
102
{ACAD_REACTORS
330
5B1
102
}
330
5B1
100
AcDbCellStyleMap
 90
        3
300
CELLSTYLE
  1
TABLEFORMAT_BEGIN
 90
        5
170
     1
 91
        0
 92
    32768
 62
   257
 93
        1
300
CONTENTFORMAT
  1
CONTENTFORMAT_BEGIN
 90
        0
 91
        0
 92
        4
 93
        0
300

 40
0.0
140
1.0
 94
        5
 62
     0
340
11
144
0.25
309
CONTENTFORMAT_END
171
     1
301
MARGIN
  1
CELLMARGIN_BEGIN
 40
0.06
 40
0.06
 40
0.06
 40
0.06
 40
0.06
 40
0.06
309
CELLMARGIN_END
 94
        6
 95
        1
302
GRIDFORMAT
  1
GRIDFORMAT_BEGIN
 90
        0
 91
        1
 62
     0
 92
       -2
340
14
 93
        0
 40
0.045
309
GRIDFORMAT_END
 95
        2
302
GRIDFORMAT
  1
GRIDFORMAT_BEGIN
 90
        0
 91
        1
 62
     0
 92
       -2
340
14
 93
        0
 40
0.045
309
GRIDFORMAT_END
 95
        4
302
GRIDFORMAT
  1
GRIDFORMAT_BEGIN
 90
        0
 91
        1
 62
     0
 92
       -2
340
14
 93
        0
 40
0.045
309
GRIDFORMAT_END
 95
        8
302
GRIDFORMAT
  1
GRIDFORMAT_BEGIN
 90
        0
 91
        1
 62
     0
 92
       -2
340
14
 93
        0
 40
0.045
309
GRIDFORMAT_END
 95
       16
302
GRIDFORMAT
  1
GRIDFORMAT_BEGIN
 90
        0
 91
        1
 62
     0
 92
       -2
340
14
 93
        0
 40
0.045
309
GRIDFORMAT_END
 95
       32
302
GRIDFORMAT
  1
GRIDFORMAT_BEGIN
 90
        0
 91
        1
 62
     0
 92
       -2
340
14
 93
        0
 40
0.045
309
GRIDFORMAT_END
309
TABLEFORMAT_END
  1
CELLSTYLE_BEGIN
 90
        1
 91
        1
300
_TITLE
309
CELLSTYLE_END
300
CELLSTYLE
  1
TABLEFORMAT_BEGIN
 90
        5
170
     1
 91
        0
 92
        0
 62
   257
 93
        1
300
CONTENTFORMAT
  1
CONTENTFORMAT_BEGIN
 90
        0
 91
        0
 92
        4
 93
        0
300

 40
0.0
140
1.0
 94
        5
 62
     0
340
11
144
0.18
309
CONTENTFORMAT_END
171
     1
301
MARGIN
  1
CELLMARGIN_BEGIN
 40
0.06
 40
0.06
 40
0.06
 40
0.06
 40
0.06
 40
0.06
309
CELLMARGIN_END
 94
        6
 95
        1
302
GRIDFORMAT
  1
GRIDFORMAT_BEGIN
 90
        0
 91
        1
 62
     0
 92
       -2
340
14
 93
        0
 40
0.045
309
GRIDFORMAT_END
 95
        2
302
GRIDFORMAT
  1
GRIDFORMAT_BEGIN
 90
        0
 91
        1
 62
     0
 92
       -2
340
14
 93
        0
 40
0.045
309
GRIDFORMAT_END
 95
        4
302
GRIDFORMAT
  1
GRIDFORMAT_BEGIN
 90
        0
 91
        1
 62
     0
 92
       -2
340
14
 93
        0
 40
0.045
309
GRIDFORMAT_END
 95
        8
302
GRIDFORMAT
  1
GRIDFORMAT_BEGIN
 90
        0
 91
        1
 62
     0
 92
       -2
340
14
 93
        0
 40
0.045
309
GRIDFORMAT_END
 95
       16
302
GRIDFORMAT
  1
GRIDFORMAT_BEGIN
 90
        0
 91
        1
 62
     0
 92
       -2
340
14
 93
        0
 40
0.045
309
GRIDFORMAT_END
 95
       32
302
GRIDFORMAT
  1
GRIDFORMAT_BEGIN
 90
        0
 91
        1
 62
     0
 92
       -2
340
14
 93
        0
 40
0.045
309
GRIDFORMAT_END
309
TABLEFORMAT_END
  1
CELLSTYLE_BEGIN
 90
        2
 91
        1
300
_HEADER
309
CELLSTYLE_END
300
CELLSTYLE
  1
TABLEFORMAT_BEGIN
 90
        5
170
     1
 91
        0
 92
        0
 62
   257
 93
        1
300
CONTENTFORMAT
  1
CONTENTFORMAT_BEGIN
 90
        0
 91
        0
 92
        4
 93
        0
300

 40
0.0
140
1.0
 94
        2
 62
     0
340
11
144
0.18
309
CONTENTFORMAT_END
171
     1
301
MARGIN
  1
CELLMARGIN_BEGIN
 40
0.06
 40
0.06
 40
0.06
 40
0.06
 40
0.06
 40
0.06
309
CELLMARGIN_END
 94
        6
 95
        1
302
GRIDFORMAT
  1
GRIDFORMAT_BEGIN
 90
        0
 91
        1
 62
     0
 92
       -2
340
14
 93
        0
 40
0.045
309
GRIDFORMAT_END
 95
        2
302
GRIDFORMAT
  1
GRIDFORMAT_BEGIN
 90
        0
 91
        1
 62
     0
 92
       -2
340
14
 93
        0
 40
0.045
309
GRIDFORMAT_END
 95
        4
302
GRIDFORMAT
  1
GRIDFORMAT_BEGIN
 90
        0
 91
        1
 62
     0
 92
       -2
340
14
 93
        0
 40
0.045
309
GRIDFORMAT_END
 95
        8
302
GRIDFORMAT
  1
GRIDFORMAT_BEGIN
 90
        0
 91
        1
 62
     0
 92
       -2
340
14
 93
        0
 40
0.045
309
GRIDFORMAT_END
 95
       16
302
GRIDFORMAT
  1
GRIDFORMAT_BEGIN
 90
        0
 91
        1
 62
     0
 92
       -2
340
14
 93
        0
 40
0.045
309
GRIDFORMAT_END
 95
       32
302
GRIDFORMAT
  1
GRIDFORMAT_BEGIN
 90
        0
 91
        1
 62
     0
 92
       -2
340
14
 93
        0
 40
0.045
309
GRIDFORMAT_END
309
TABLEFORMAT_END
  1
CELLSTYLE_BEGIN
 90
        3
 91
        2
300
_DATA
309
CELLSTYLE_END
  0
ENDSEC
  0
EOF
