  0
SECTION
  2
HEADER
  9
$ACADVER
  1
AC1027
  9
$ACADMAINTVER
 70
     8
  9
$DWGCODEPAGE
  3
ANSI_932
  9
$REQUIREDVERSIONS
160
                 0
  9
$LASTSAVEDBY
  1
megumi.kubo
  9
$INSBASE
 10
0.0
 20
0.0
 30
0.0
  9
$EXTMIN
 10
43.932739
 20
75.0
 30
0.0
  9
$EXTMAX
 10
388.0
 20
304.857933419939
 30
0.0
  9
$LIMMIN
 10
0.0
 20
0.0
  9
$LIMMAX
 10
405.0
 20
284.0
  9
$ORTHOMODE
 70
     0
  9
$REGENMODE
 70
     1
  9
$FILLMODE
 70
     1
  9
$QTEXTMODE
 70
     0
  9
$MIRRTEXT
 70
     1
  9
$LTSCALE
 40
15.0
  9
$ATTMODE
 70
     1
  9
$TEXTSIZE
 40
8.0
  9
$TRACEWID
 40
0.05
  9
$TEXTSTYLE
  7
Standard
  9
$CLAYER
  8
CSLAYER10
  9
$CELTYPE
  6
ByLayer
  9
$CECOLOR
 62
   256
  9
$CELTSCALE
 40
1.0
  9
$DISPSILH
 70
     0
  9
$DIMSCALE
 40
1.0
  9
$DIMASZ
 40
0.18
  9
$DIMEXO
 40
0.0625
  9
$DIMDLI
 40
0.38
  9
$DIMRND
 40
0.0
  9
$DIMDLE
 40
0.0
  9
$DIMEXE
 40
0.18
  9
$DIMTP
 40
0.0
  9
$DIMTM
 40
0.0
  9
$DIMTXT
 40
0.18
  9
$DIMCEN
 40
0.09
  9
$DIMTSZ
 40
0.0
  9
$DIMTOL
 70
     0
  9
$DIMLIM
 70
     0
  9
$DIMTIH
 70
     1
  9
$DIMTOH
 70
     1
  9
$DIMSE1
 70
     0
  9
$DIMSE2
 70
     0
  9
$DIMTAD
 70
     0
  9
$DIMZIN
 70
     0
  9
$DIMBLK
  1

  9
$DIMASO
 70
     1
  9
$DIMSHO
 70
     1
  9
$DIMPOST
  1

  9
$DIMAPOST
  1

  9
$DIMALT
 70
     0
  9
$DIMALTD
 70
     2
  9
$DIMALTF
 40
25.4
  9
$DIMLFAC
 40
1.0
  9
$DIMTOFL
 70
     0
  9
$DIMTVP
 40
0.0
  9
$DIMTIX
 70
     0
  9
$DIMSOXD
 70
     0
  9
$DIMSAH
 70
     0
  9
$DIMBLK1
  1

  9
$DIMBLK2
  1

  9
$DIMSTYLE
  2
Standard
  9
$DIMCLRD
 70
     0
  9
$DIMCLRE
 70
     0
  9
$DIMCLRT
 70
     0
  9
$DIMTFAC
 40
1.0
  9
$DIMGAP
 40
0.09
  9
$DIMJUST
 70
     0
  9
$DIMSD1
 70
     0
  9
$DIMSD2
 70
     0
  9
$DIMTOLJ
 70
     1
  9
$DIMTZIN
 70
     0
  9
$DIMALTZ
 70
     0
  9
$DIMALTTZ
 70
     0
  9
$DIMUPT
 70
     0
  9
$DIMDEC
 70
     4
  9
$DIMTDEC
 70
     4
  9
$DIMALTU
 70
     2
  9
$DIMALTTD
 70
     2
  9
$DIMTXSTY
  7
Standard
  9
$DIMAUNIT
 70
     0
  9
$DIMADEC
 70
     0
  9
$DIMALTRND
 40
0.0
  9
$DIMAZIN
 70
     0
  9
$DIMDSEP
 70
    46
  9
$DIMATFIT
 70
     3
  9
$DIMFRAC
 70
     0
  9
$DIMLDRBLK
  1

  9
$DIMLUNIT
 70
     2
  9
$DIMLWD
 70
    -2
  9
$DIMLWE
 70
    -2
  9
$DIMTMOVE
 70
     2
  9
$DIMFXL
 40
1.0
  9
$DIMFXLON
 70
     0
  9
$DIMJOGANG
 40
0.785398163397
  9
$DIMTFILL
 70
     0
  9
$DIMTFILLCLR
 70
     0
  9
$DIMARCSYM
 70
     0
  9
$DIMLTYPE
  6

  9
$DIMLTEX1
  6

  9
$DIMLTEX2
  6

  9
$DIMTXTDIRECTION
 70
     0
  9
$LUNITS
 70
     2
  9
$LUPREC
 70
     4
  9
$SKETCHINC
 40
0.1
  9
$FILLETRAD
 40
0.0
  9
$AUNITS
 70
     0
  9
$AUPREC
 70
     0
  9
$MENU
  1
ACAD
  9
$ELEVATION
 40
0.0
  9
$PELEVATION
 40
0.0
  9
$THICKNESS
 40
0.0
  9
$LIMCHECK
 70
     0
  9
$CHAMFERA
 40
0.0
  9
$CHAMFERB
 40
0.0
  9
$CHAMFERC
 40
0.0
  9
$CHAMFERD
 40
0.0
  9
$SKPOLY
 70
     0
  9
$TDCREATE
 40
2457847.0
  9
$TDUCREATE
 40
2457846.625
  9
$TDUPDATE
 40
2457875.61131294
  9
$TDUUPDATE
 40
2457875.23631294
  9
$TDINDWG
 40
0.0168132292
  9
$TDUSRTIMER
 40
0.0168132292
  9
$USRTIMER
 70
     1
  9
$ANGBASE
 50
0.0
  9
$ANGDIR
 70
     0
  9
$PDMODE
 70
     0
  9
$PDSIZE
 40
0.0
  9
$PLINEWID
 40
0.0
  9
$SPLFRAME
 70
     0
  9
$SPLINETYPE
 70
     6
  9
$SPLINESEGS
 70
     8
  9
$HANDSEED
  5
78F
  9
$SURFTAB1
 70
     6
  9
$SURFTAB2
 70
     6
  9
$SURFTYPE
 70
     6
  9
$SURFU
 70
     6
  9
$SURFV
 70
     6
  9
$UCSBASE
  2

  9
$UCSNAME
  2

  9
$UCSORG
 10
0.0
 20
0.0
 30
0.0
  9
$UCSXDIR
 10
1.0
 20
0.0
 30
0.0
  9
$UCSYDIR
 10
0.0
 20
1.0
 30
0.0
  9
$UCSORTHOREF
  2

  9
$UCSORTHOVIEW
 70
     0
  9
$UCSORGTOP
 10
0.0
 20
0.0
 30
0.0
  9
$UCSORGBOTTOM
 10
0.0
 20
0.0
 30
0.0
  9
$UCSORGLEFT
 10
0.0
 20
0.0
 30
0.0
  9
$UCSORGRIGHT
 10
0.0
 20
0.0
 30
0.0
  9
$UCSORGFRONT
 10
0.0
 20
0.0
 30
0.0
  9
$UCSORGBACK
 10
0.0
 20
0.0
 30
0.0
  9
$PUCSBASE
  2

  9
$PUCSNAME
  2

  9
$PUCSORG
 10
0.0
 20
0.0
 30
0.0
  9
$PUCSXDIR
 10
1.0
 20
0.0
 30
0.0
  9
$PUCSYDIR
 10
0.0
 20
1.0
 30
0.0
  9
$PUCSORTHOREF
  2

  9
$PUCSORTHOVIEW
 70
     0
  9
$PUCSORGTOP
 10
0.0
 20
0.0
 30
0.0
  9
$PUCSORGBOTTOM
 10
0.0
 20
0.0
 30
0.0
  9
$PUCSORGLEFT
 10
0.0
 20
0.0
 30
0.0
  9
$PUCSORGRIGHT
 10
0.0
 20
0.0
 30
0.0
  9
$PUCSORGFRONT
 10
0.0
 20
0.0
 30
0.0
  9
$PUCSORGBACK
 10
0.0
 20
0.0
 30
0.0
  9
$USERI1
 70
     0
  9
$USERI2
 70
     0
  9
$USERI3
 70
     0
  9
$USERI4
 70
     0
  9
$USERI5
 70
     0
  9
$USERR1
 40
0.0
  9
$USERR2
 40
0.0
  9
$USERR3
 40
0.0
  9
$USERR4
 40
0.0
  9
$USERR5
 40
0.0
  9
$WORLDVIEW
 70
     1
  9
$SHADEDGE
 70
     3
  9
$SHADEDIF
 70
    70
  9
$TILEMODE
 70
     1
  9
$MAXACTVP
 70
    64
  9
$PINSBASE
 10
0.0
 20
0.0
 30
0.0
  9
$PLIMCHECK
 70
     0
  9
$PEXTMIN
 10
1.000000000000E+20
 20
1.000000000000E+20
 30
1.000000000000E+20
  9
$PEXTMAX
 10
-1.000000000000E+20
 20
-1.000000000000E+20
 30
-1.000000000000E+20
  9
$PLIMMIN
 10
0.0
 20
0.0
  9
$PLIMMAX
 10
12.0
 20
9.0
  9
$UNITMODE
 70
     0
  9
$VISRETAIN
 70
     1
  9
$PLINEGEN
 70
     0
  9
$PSLTSCALE
 70
     1
  9
$TREEDEPTH
 70
  3020
  9
$CMLSTYLE
  2
Standard
  9
$CMLJUST
 70
     0
  9
$CMLSCALE
 40
1.0
  9
$PROXYGRAPHICS
 70
     1
  9
$MEASUREMENT
 70
     0
  9
$CELWEIGHT
370
    -1
  9
$ENDCAPS
280
     0
  9
$JOINSTYLE
280
     0
  9
$LWDISPLAY
290
     0
  9
$INSUNITS
 70
     0
  9
$HYPERLINKBASE
  1

  9
$STYLESHEET
  1

  9
$XEDIT
290
     1
  9
$CEPSNTYPE
380
     0
  9
$PSTYLEMODE
290
     1
  9
$FINGERPRINTGUID
  2
{401D3CA2-405E-49E9-B25C-AA7828AC05CC}
  9
$VERSIONGUID
  2
{FAEB1C32-E019-11D5-929B-00C0DF256EC4}
  9
$EXTNAMES
290
     1
  9
$PSVPSCALE
 40
0.0
  9
$OLESTARTUP
290
     0
  9
$SORTENTS
280
   127
  9
$INDEXCTL
280
     0
  9
$HIDETEXT
280
     1
  9
$XCLIPFRAME
280
     2
  9
$HALOGAP
280
     0
  9
$OBSCOLOR
 70
   257
  9
$OBSLTYPE
280
     0
  9
$INTERSECTIONDISPLAY
280
     0
  9
$INTERSECTIONCOLOR
 70
   257
  9
$DIMASSOC
280
     2
  9
$PROJECTNAME
  1

  9
$CAMERADISPLAY
290
     0
  9
$LENSLENGTH
 40
50.0
  9
$CAMERAHEIGHT
 40
0.0
  9
$STEPSPERSEC
 40
2.0
  9
$STEPSIZE
 40
6.0
  9
$3DDWFPREC
 40
2.0
  9
$PSOLWIDTH
 40
0.25
  9
$PSOLHEIGHT
 40
4.0
  9
$LOFTANG1
 40
1.570796326795
  9
$LOFTANG2
 40
1.570796326795
  9
$LOFTMAG1
 40
0.0
  9
$LOFTMAG2
 40
0.0
  9
$LOFTPARAM
 70
     7
  9
$LOFTNORMALS
280
     1
  9
$LATITUDE
 40
37.795
  9
$LONGITUDE
 40
-122.394
  9
$NORTHDIRECTION
 40
0.0
  9
$TIMEZONE
 70
 -8000
  9
$LIGHTGLYPHDISPLAY
280
     1
  9
$TILEMODELIGHTSYNCH
280
     1
  9
$SOLIDHIST
280
     0
  9
$SHOWHIST
280
     1
  9
$DWFFRAME
280
     2
  9
$DGNFRAME
280
     2
  9
$REALWORLDSCALE
290
     1
  9
$INTERFERECOLOR
 62
   256
  9
$CSHADOW
280
     0
  9
$SHADOWPLANELOCATION
 40
0.0
  0
ENDSEC
  0
SECTION
  2
CLASSES
  0
CLASS
  1
ACDBDICTIONARYWDFLT
  2
AcDbDictionaryWithDefault
  3
ObjectDBX Classes
 90
        0
 91
        5
280
     0
281
     0
  0
CLASS
  1
SCALE
  2
AcDbScale
  3
ObjectDBX Classes
 90
     1153
 91
        5
280
     0
281
     0
  0
CLASS
  1
VISUALSTYLE
  2
AcDbVisualStyle
  3
ObjectDBX Classes
 90
     4095
 91
        5
280
     0
281
     0
  0
CLASS
  1
MATERIAL
  2
AcDbMaterial
  3
ObjectDBX Classes
 90
     1153
 91
        5
280
     0
281
     0
  0
CLASS
  1
TABLESTYLE
  2
AcDbTableStyle
  3
ObjectDBX Classes
 90
     4095
 91
        5
280
     0
281
     0
  0
CLASS
  1
MLEADERSTYLE
  2
AcDbMLeaderStyle
  3
ACDB_MLEADERSTYLE_CLASS
 90
     4095
 91
        5
280
     0
281
     0
  0
CLASS
  1
SUN
  2
AcDbSun
  3
SCENEOE
 90
     1153
 91
        5
280
     0
281
     0
  0
CLASS
  1
SORTENTSTABLE
  2
AcDbSortentsTable
  3
ObjectDBX Classes
 90
        0
 91
        4
280
     0
281
     0
  0
CLASS
  1
DIMASSOC
  2
AcDbDimAssoc
  3
"AcDbDimAssoc|Product Desc:     AcDim ARX App For Dimension|Company:          Autodesk, Inc.|WEB Address:      www.autodesk.com"
 90
        0
 91
        4
280
     0
281
     0
  0
CLASS
  1
DICTIONARYVAR
  2
AcDbDictionaryVar
  3
ObjectDBX Classes
 90
        0
 91
        4
280
     0
281
     0
  0
CLASS
  1
CELLSTYLEMAP
  2
AcDbCellStyleMap
  3
ObjectDBX Classes
 90
     1152
 91
        4
280
     0
281
     0
  0
CLASS
  1
XRECORD
  2
AcDbXrecord
  3
ObjectDBX Classes
 90
        0
 91
        1
280
     0
281
     0
  0
CLASS
  1
LWPOLYLINE
  2
AcDbPolyline
  3
ObjectDBX Classes
 90
        0
 91
        1
280
     0
281
     1
  0
CLASS
  1
HATCH
  2
AcDbHatch
  3
ObjectDBX Classes
 90
        0
 91
        1
280
     0
281
     1
  0
CLASS
  1
ACDBPLACEHOLDER
  2
AcDbPlaceHolder
  3
ObjectDBX Classes
 90
        0
 91
        1
280
     0
281
     0
  0
CLASS
  1
LAYOUT
  2
AcDbLayout
  3
ObjectDBX Classes
 90
        0
 91
        1
280
     0
281
     0
  0
ENDSEC
  0
SECTION
  2
TABLES
  0
TABLE
  2
VPORT
  5
8
330
0
100
AcDbSymbolTable
 70
     1
  0
VPORT
  5
3B
330
8
100
AcDbSymbolTableRecord
100
AcDbViewportTableRecord
  2
*Active
 70
     0
 10
0.0
 20
0.0
 11
1.0
 21
1.0
 12
215.9663695
 22
189.92896670997
 13
0.0
 23
0.0
 14
0.5
 24
0.5
 15
0.5
 25
0.5
 16
0.0
 26
0.0
 36
1.0
 17
0.0
 27
0.0
 37
0.0
 40
235.625688567423
 41
1.489432703003
 42
50.0
 43
0.0
 44
0.0
 50
0.0
 51
0.0
 71
    16
 72
   100
 73
     1
 74
     3
 75
     0
 76
     0
 77
     0
 78
     0
281
     0
 65
     1
110
0.0
120
0.0
130
0.0
111
1.0
121
0.0
131
0.0
112
0.0
122
1.0
132
0.0
 79
     0
146
0.0
348
424
 60
     3
 61
     5
292
     1
282
     1
141
0.0
142
0.0
 63
   256
361
441
  0
ENDTAB
  0
TABLE
  2
LTYPE
  5
5
330
0
100
AcDbSymbolTable
 70
    10
  0
LTYPE
  5
14
330
5
100
AcDbSymbolTableRecord
100
AcDbLinetypeTableRecord
  2
ByBlock
 70
     0
  3

 72
    65
 73
     0
 40
0.0
  0
LTYPE
  5
15
330
5
100
AcDbSymbolTableRecord
100
AcDbLinetypeTableRecord
  2
ByLayer
 70
     0
  3

 72
    65
 73
     0
 40
0.0
  0
LTYPE
  5
16
330
5
100
AcDbSymbolTableRecord
100
AcDbLinetypeTableRecord
  2
CONTINUOUS
 70
     0
  3
Solid line
 72
    65
 73
     0
 40
0.0
  0
LTYPE
  5
21
330
5
100
AcDbSymbolTableRecord
100
AcDbLinetypeTableRecord
  2
DASHED
 70
     0
  3
__ __ __ __ __ __ __ __ __ __ __ __ __ __ __
 72
    65
 73
     2
 40
0.75
 49
0.5
 74
     0
 49
-0.25
 74
     0
  0
LTYPE
  5
22
330
5
100
AcDbSymbolTableRecord
100
AcDbLinetypeTableRecord
  2
HIDDEN
 70
     0
  3
_ _ _ _ _ _ _ _ _ _ _ _ _ _ _ _ _ _ _ _ _ _ _
 72
    65
 73
     2
 40
0.375
 49
0.25
 74
     0
 49
-0.125
 74
     0
  0
LTYPE
  5
23
330
5
100
AcDbSymbolTableRecord
100
AcDbLinetypeTableRecord
  2
DOT
 70
     0
  3
...............................................
 72
    65
 73
     2
 40
0.25
 49
0.0
 74
     0
 49
-0.25
 74
     0
  0
LTYPE
  5
24
330
5
100
AcDbSymbolTableRecord
100
AcDbLinetypeTableRecord
  2
DASHDOT
 70
     0
  3
__ . __ . __ . __ . __ . __ . __ . __ . __ . __
 72
    65
 73
     4
 40
1.0
 49
0.5
 74
     0
 49
-0.25
 74
     0
 49
0.0
 74
     0
 49
-0.25
 74
     0
  0
LTYPE
  5
25
330
5
100
AcDbSymbolTableRecord
100
AcDbLinetypeTableRecord
  2
DIVIDE
 70
     0
  3
__ . . __ . . __ . . __ . . __ . . __ . . __
 72
    65
 73
     6
 40
1.25
 49
0.5
 74
     0
 49
-0.25
 74
     0
 49
0.0
 74
     0
 49
-0.25
 74
     0
 49
0.0
 74
     0
 49
-0.25
 74
     0
  0
LTYPE
  5
26
330
5
100
AcDbSymbolTableRecord
100
AcDbLinetypeTableRecord
  2
CENTER
 70
     0
  3
____ _ ____ _ ____ _ ____ _ ____ _ ____ _ ____ 
 72
    65
 73
     4
 40
2.0
 49
1.25
 74
     0
 49
-0.25
 74
     0
 49
0.25
 74
     0
 49
-0.25
 74
     0
  0
LTYPE
  5
27
330
5
100
AcDbSymbolTableRecord
100
AcDbLinetypeTableRecord
  2
PHANTOM
 70
     0
  3
______  __  __  ______  __  __  ______  __  __ 
 72
    65
 73
     6
 40
2.5
 49
1.25
 74
     0
 49
-0.25
 74
     0
 49
0.25
 74
     0
 49
-0.25
 74
     0
 49
0.25
 74
     0
 49
-0.25
 74
     0
  0
LTYPE
  5
28
330
5
100
AcDbSymbolTableRecord
100
AcDbLinetypeTableRecord
  2
BORDER
 70
     0
  3
__ __ . __ __ . __ __ . __ __ . __ __ . __ __ .
 72
    65
 73
     6
 40
1.75
 49
0.5
 74
     0
 49
-0.25
 74
     0
 49
0.5
 74
     0
 49
-0.25
 74
     0
 49
0.0
 74
     0
 49
-0.25
 74
     0
  0
LTYPE
  5
5CB
330
5
100
AcDbSymbolTableRecord
100
AcDbLinetypeTableRecord
  2
DYN_DIM
 70
     0
  3
Dashed dynamic dimension line
 72
    65
 73
     2
 40
0.768273414475
 49
0.21950668985
 74
     0
 49
-0.548766724625
 74
     0
  0
ENDTAB
  0
TABLE
  2
LAYER
  5
2
330
0
100
AcDbSymbolTable
 70
    18
  0
LAYER
  5
10
330
2
100
AcDbSymbolTableRecord
100
AcDbLayerTableRecord
  2
0
 70
     0
 62
     7
  6
CONTINUOUS
370
    -3
390
F
347
43B
348
0
  0
LAYER
  5
29
330
2
100
AcDbSymbolTableRecord
100
AcDbLayerTableRecord
  2
CSLAYER1
 70
     0
 62
     7
  6
CONTINUOUS
370
    -3
390
F
347
43B
348
0
  0
LAYER
  5
32
330
2
100
AcDbSymbolTableRecord
100
AcDbLayerTableRecord
  2
CSLAYER10
 70
     0
 62
     3
  6
CONTINUOUS
370
    -3
390
F
347
43B
348
0
  0
LAYER
  5
5CC
330
2
100
AcDbSymbolTableRecord
100
AcDbLayerTableRecord
  2
Defpoints
 70
     0
 62
     7
  6
CONTINUOUS
290
     0
370
    -3
390
F
347
43B
348
0
  0
ENDTAB
  0
TABLE
  2
STYLE
  5
3
330
0
100
AcDbSymbolTable
 70
     3
  0
STYLE
  5
11
330
3
100
AcDbSymbolTableRecord
100
AcDbTextStyleTableRecord
  2
Standard
 70
     0
 40
0.0
 41
1.0
 50
0.0
 71
     0
 42
8.0
  3
txt
  4

  0
STYLE
  5
39
330
3
100
AcDbSymbolTableRecord
100
AcDbTextStyleTableRecord
  2
FX_FONT
 70
     0
 40
1.0
 41
1.0
 50
0.0
 71
     0
 42
1.0
  3
monotxt
  4
bigfont
  0
STYLE
  5
5CA
330
3
100
AcDbSymbolTableRecord
100
AcDbTextStyleTableRecord
  2
DYN_DIM
 70
     0
 40
0.0
 41
1.0
 50
0.0
 71
     0
 42
0.2
  3
txt
  4

  0
ENDTAB
  0
TABLE
  2
VIEW
  5
6
330
0
100
AcDbSymbolTable
 70
     0
  0
ENDTAB
  0
TABLE
  2
UCS
  5
7
330
0
100
AcDbSymbolTable
 70
     0
  0
ENDTAB
  0
TABLE
  2
APPID
  5
9
330
0
100
AcDbSymbolTable
 70
     3
  0
APPID
  5
12
330
9
100
AcDbSymbolTableRecord
100
AcDbRegAppTableRecord
  2
ACAD
 70
     0
  0
APPID
  5
615
330
9
100
AcDbSymbolTableRecord
100
AcDbRegAppTableRecord
  2
AcadAnnotative
 70
     0
  0
APPID
  5
69A
330
9
100
AcDbSymbolTableRecord
100
AcDbRegAppTableRecord
  2
ACAD_MLEADERVER
 70
     0
  0
ENDTAB
  0
TABLE
  2
DIMSTYLE
  5
A
330
0
100
AcDbSymbolTable
 70
     1
100
AcDbDimStyleTable
  0
DIMSTYLE
105
3A
330
A
100
AcDbSymbolTableRecord
100
AcDbDimStyleTableRecord
  2
Standard
 70
     0
178
     0
340
11
  0
ENDTAB
  0
TABLE
  2
BLOCK_RECORD
  5
1
330
0
100
AcDbSymbolTable
 70
    54
  0
BLOCK_RECORD
  5
1D
102
{ACAD_XDICTIONARY
360
59D
102
}
330
1
100
AcDbSymbolTableRecord
100
AcDbBlockTableRecord
  2
*Model_Space
340
1E
 70
     0
280
     1
281
     0
  0
BLOCK_RECORD
  5
1B
330
1
100
AcDbSymbolTableRecord
100
AcDbBlockTableRecord
  2
*Paper_Space
340
1C
 70
     0
280
     1
281
     0
  0
BLOCK_RECORD
  5
85
330
1
100
AcDbSymbolTableRecord
100
AcDbBlockTableRecord
  2
FXDIM0000
340
0
 70
     0
280
     1
281
     0
  0
BLOCK_RECORD
  5
C9
330
1
100
AcDbSymbolTableRecord
100
AcDbBlockTableRecord
  2
FXDIM0001
340
0
 70
     0
280
     1
281
     0
  0
BLOCK_RECORD
  5
11D
330
1
100
AcDbSymbolTableRecord
100
AcDbBlockTableRecord
  2
FXDIM0002
340
0
 70
     0
280
     1
281
     0
  0
BLOCK_RECORD
  5
125
330
1
100
AcDbSymbolTableRecord
100
AcDbBlockTableRecord
  2
FXDIM0003
340
0
 70
     0
280
     1
281
     0
  0
BLOCK_RECORD
  5
12E
330
1
100
AcDbSymbolTableRecord
100
AcDbBlockTableRecord
  2
FXDIM0004
340
0
 70
     0
280
     1
281
     0
  0
BLOCK_RECORD
  5
1BE
330
1
100
AcDbSymbolTableRecord
100
AcDbBlockTableRecord
  2
FXDIM0005
340
0
 70
     0
280
     1
281
     0
  0
BLOCK_RECORD
  5
1C7
330
1
100
AcDbSymbolTableRecord
100
AcDbBlockTableRecord
  2
FXDIM0006
340
0
 70
     0
280
     1
281
     0
  0
BLOCK_RECORD
  5
1CF
330
1
100
AcDbSymbolTableRecord
100
AcDbBlockTableRecord
  2
FXDIM0007
340
0
 70
     0
280
     1
281
     0
  0
BLOCK_RECORD
  5
1D7
330
1
100
AcDbSymbolTableRecord
100
AcDbBlockTableRecord
  2
FXDIM0008
340
0
 70
     0
280
     1
281
     0
  0
BLOCK_RECORD
  5
1E0
330
1
100
AcDbSymbolTableRecord
100
AcDbBlockTableRecord
  2
FXDIM0009
340
0
 70
     0
280
     1
281
     0
  0
BLOCK_RECORD
  5
1E8
330
1
100
AcDbSymbolTableRecord
100
AcDbBlockTableRecord
  2
FXDIM0010
340
0
 70
     0
280
     1
281
     0
  0
BLOCK_RECORD
  5
1F0
330
1
100
AcDbSymbolTableRecord
100
AcDbBlockTableRecord
  2
FXDIM0011
340
0
 70
     0
280
     1
281
     0
  0
BLOCK_RECORD
  5
210
330
1
100
AcDbSymbolTableRecord
100
AcDbBlockTableRecord
  2
BLKF0000
340
0
 70
     0
280
     1
281
     0
  0
BLOCK_RECORD
  5
56F
102
{ACAD_XDICTIONARY
360
594
102
}
330
1
100
AcDbSymbolTableRecord
100
AcDbBlockTableRecord
  2
ACE0158
340
0
 70
     0
280
     1
281
     0
  0
BLOCK_RECORD
  5
59F
102
{ACAD_XDICTIONARY
360
5C3
102
}
330
1
100
AcDbSymbolTableRecord
100
AcDbBlockTableRecord
  2
ACE0148
340
0
 70
     0
280
     1
281
     0
  0
BLOCK_RECORD
  5
5CD
102
{ACAD_XDICTIONARY
360
5F1
102
}
330
1
100
AcDbSymbolTableRecord
100
AcDbBlockTableRecord
  2
ACE00B8
340
0
 70
     0
280
     1
281
     0
  0
BLOCK_RECORD
  5
6A0
102
{ACAD_XDICTIONARY
360
6C5
102
}
330
1
100
AcDbSymbolTableRecord
100
AcDbBlockTableRecord
  2
ACE00A8
340
0
 70
     0
280
     1
281
     0
  0
ENDTAB
  0
ENDSEC
  0
SECTION
  2
BLOCKS
  0
BLOCK
  5
41B
330
1D
100
AcDbEntity
  8
0
100
AcDbBlockBegin
  2
*Model_Space
 70
     0
 10
0.0
 20
0.0
 30
0.0
  3
*Model_Space
  1

  0
ENDBLK
  5
41C
330
1D
100
AcDbEntity
  8
0
100
AcDbBlockEnd
  0
BLOCK
  5
41D
330
1B
100
AcDbEntity
 67
     1
  8
0
100
AcDbBlockBegin
  2
*Paper_Space
 70
     0
 10
0.0
 20
0.0
 30
0.0
  3
*Paper_Space
  1

  0
ENDBLK
  5
41E
330
1B
100
AcDbEntity
 67
     1
  8
0
100
AcDbBlockEnd
  0
BLOCK
  5
84
330
85
100
AcDbEntity
  8
CSLAYER1
100
AcDbBlockBegin
  2
FXDIM0000
 70
     0
 10
0.0
 20
0.0
 30
0.0
  3
FXDIM0000
  1

  0
LINE
  5
86
330
85
100
AcDbEntity
  8
CSLAYER1
  6
Continuous
 62
     7
100
AcDbLine
 10
293.5
 20
212.0
 30
0.0
 11
293.5
 21
186.0
 31
0.0
  0
ENDBLK
  5
87
330
85
100
AcDbEntity
  8
0
100
AcDbBlockEnd
  0
BLOCK
  5
C8
330
C9
100
AcDbEntity
  8
CSLAYER1
100
AcDbBlockBegin
  2
FXDIM0001
 70
     0
 10
0.0
 20
0.0
 30
0.0
  3
FXDIM0001
  1

  0
LINE
  5
CA
330
C9
100
AcDbEntity
  8
CSLAYER1
  6
Continuous
 62
     7
100
AcDbLine
 10
290.971306
 20
130.090069
 30
0.0
 11
283.828173
 21
141.129282
 31
0.0
  0
LINE
  5
CB
330
C9
100
AcDbEntity
  8
CSLAYER1
  6
Continuous
 62
     7
100
AcDbLine
 10
290.971306
 20
130.090069
 30
0.0
 11
289.487222
 21
131.430776
 31
0.0
  0
LINE
  5
CC
330
C9
100
AcDbEntity
  8
CSLAYER1
  6
Continuous
 62
     7
100
AcDbLine
 10
290.971306
 20
130.090069
 30
0.0
 11
290.356405
 21
131.993197
 31
0.0
  0
LINE
  5
CD
330
C9
100
AcDbEntity
  8
CSLAYER1
  6
Continuous
 62
     7
100
AcDbLine
 10
283.828173
 20
141.129282
 30
0.0
 11
271.828173
 21
141.129282
 31
0.0
  0
TEXT
  5
CE
330
C9
100
AcDbEntity
  8
CSLAYER1
 62
     7
100
AcDbText
 10
272.828186
 20
142.129272
 30
0.0
 40
4.0
  1
R1.5
 41
0.652173913043
  7
FX_FONT
 72
     5
 11
282.828186
 21
142.129272
 31
0.0
100
AcDbText
  0
ENDBLK
  5
CF
330
C9
100
AcDbEntity
  8
0
100
AcDbBlockEnd
  0
BLOCK
  5
11C
330
11D
100
AcDbEntity
  8
CSLAYER1
100
AcDbBlockBegin
  2
FXDIM0002
 70
     0
 10
0.0
 20
0.0
 30
0.0
  3
FXDIM0002
  1

  0
LINE
  5
11E
330
11D
100
AcDbEntity
  8
CSLAYER1
  6
Continuous
 62
     7
100
AcDbLine
 10
76.932741
 20
254.5
 30
0.0
 11
64.787776
 21
274.292378
 31
0.0
  0
LINE
  5
11F
330
11D
100
AcDbEntity
  8
CSLAYER1
  6
Continuous
 62
     7
100
AcDbLine
 10
76.932741
 20
254.5
 30
0.0
 11
75.481174
 21
255.875847
 31
0.0
  0
LINE
  5
120
330
11D
100
AcDbEntity
  8
CSLAYER1
  6
Continuous
 62
     7
100
AcDbLine
 10
76.932741
 20
254.5
 30
0.0
 11
76.363571
 21
256.417302
 31
0.0
  0
LINE
  5
121
330
11D
100
AcDbEntity
  8
CSLAYER1
  6
Continuous
 62
     7
100
AcDbLine
 10
64.787776
 20
274.292378
 30
0.0
 11
50.913962
 21
274.292378
 31
0.0
  0
TEXT
  5
122
330
11D
100
AcDbEntity
  8
CSLAYER1
 62
     7
100
AcDbText
 10
51.787773
 20
275.292389
 30
0.0
 40
4.0
  1
ネジ位置
 41
0.661764705882
  7
FX_FONT
 72
     5
 11
63.787773
 21
275.292389
 31
0.0
100
AcDbText
  0
ENDBLK
  5
123
330
11D
100
AcDbEntity
  8
0
100
AcDbBlockEnd
  0
BLOCK
  5
124
330
125
100
AcDbEntity
  8
CSLAYER1
100
AcDbBlockBegin
  2
FXDIM0003
 70
     0
 10
0.0
 20
0.0
 30
0.0
  3
FXDIM0003
  1

  0
LINE
  5
126
330
125
100
AcDbEntity
  8
CSLAYER1
  6
Continuous
 62
     7
100
AcDbLine
 10
124.795214
 20
271.662539
 30
0.0
 11
95.801686
 21
237.702912
 31
0.0
  0
LINE
  5
127
330
125
100
AcDbEntity
  8
CSLAYER1
  6
Continuous
 62
     7
100
AcDbLine
 10
95.801686
 20
237.702912
 30
0.0
 11
86.062923
 21
226.296065
 31
0.0
  0
LINE
  5
128
330
125
100
AcDbEntity
  8
CSLAYER1
  6
Continuous
 62
     7
100
AcDbLine
 10
95.801686
 20
237.702912
 30
0.0
 11
94.940993
 21
235.897584
 31
0.0
  0
LINE
  5
129
330
125
100
AcDbEntity
  8
CSLAYER1
  6
Continuous
 62
     7
100
AcDbLine
 10
95.801686
 20
237.702912
 30
0.0
 11
94.15364
 21
236.569799
 31
0.0
  0
LINE
  5
12A
330
125
100
AcDbEntity
  8
CSLAYER1
  6
Continuous
 62
     7
100
AcDbLine
 10
86.062923
 20
226.296065
 30
0.0
 11
86.923615
 21
228.101393
 31
0.0
  0
LINE
  5
12B
330
125
100
AcDbEntity
  8
CSLAYER1
  6
Continuous
 62
     7
100
AcDbLine
 10
86.062923
 20
226.296065
 30
0.0
 11
87.710968
 21
227.429179
 31
0.0
  0
ENDBLK
  5
12C
330
125
100
AcDbEntity
  8
0
100
AcDbBlockEnd
  0
BLOCK
  5
12D
330
12E
100
AcDbEntity
  8
CSLAYER1
100
AcDbBlockBegin
  2
FXDIM0004
 70
     0
 10
0.0
 20
0.0
 30
0.0
  3
FXDIM0004
  1

  0
LINE
  5
12F
330
12E
100
AcDbEntity
  8
CSLAYER1
  6
Continuous
 62
     7
100
AcDbLine
 10
124.795214
 20
271.662539
 30
0.0
 11
105.400958
 21
271.662539
 31
0.0
  0
TEXT
  5
130
330
12E
100
AcDbEntity
  8
CSLAYER1
 62
     7
100
AcDbText
 10
105.795219
 20
272.662537
 30
0.0
 40
4.0
  1
%%c15貫通穴
 41
0.709748083242
  7
FX_FONT
 72
     5
 11
123.795219
 21
272.662537
 31
0.0
100
AcDbText
  0
ENDBLK
  5
131
330
12E
100
AcDbEntity
  8
0
100
AcDbBlockEnd
  0
BLOCK
  5
1BD
330
1BE
100
AcDbEntity
  8
CSLAYER1
100
AcDbBlockBegin
  2
FXDIM0005
 70
     0
 10
0.0
 20
0.0
 30
0.0
  3
FXDIM0005
  1

  0
LINE
  5
1BF
330
1BE
100
AcDbEntity
  8
CSLAYER1
  6
Continuous
 62
     7
100
AcDbLine
 10
174.537225
 20
141.679833
 30
0.0
 11
185.746483
 21
168.202381
 31
0.0
  0
LINE
  5
1C0
330
1BE
100
AcDbEntity
  8
CSLAYER1
  6
Continuous
 62
     7
100
AcDbLine
 10
174.537225
 20
141.679833
 30
0.0
 11
174.812475
 21
143.660801
 31
0.0
  0
LINE
  5
1C1
330
1BE
100
AcDbEntity
  8
CSLAYER1
  6
Continuous
 62
     7
100
AcDbLine
 10
174.537225
 20
141.679833
 30
0.0
 11
175.766083
 21
143.257777
 31
0.0
  0
LINE
  5
1C2
330
1BE
100
AcDbEntity
  8
CSLAYER1
  6
Continuous
 62
     7
100
AcDbLine
 10
185.746483
 20
168.202381
 30
0.0
 11
213.910714
 21
168.202381
 31
0.0
  0
LINE
  5
1C3
330
1BE
100
AcDbEntity
  8
CSLAYER1
  6
Continuous
 62
     7
100
AcDbLine
 10
213.910714
 20
168.202381
 30
0.0
 11
189.410714
 21
168.202381
 31
0.0
  0
TEXT
  5
1C4
330
1BE
100
AcDbEntity
  8
CSLAYER1
 62
     7
100
AcDbText
 10
186.062149
 20
169.067902
 30
0.0
 40
4.0
  1
3-3.5mmネジ用穴
 41
0.595739559514
  7
FX_FONT
 72
     5
 11
213.562149
 21
169.067902
 31
0.0
100
AcDbText
  0
ENDBLK
  5
1C5
330
1BE
100
AcDbEntity
  8
0
100
AcDbBlockEnd
  0
BLOCK
  5
1C6
330
1C7
100
AcDbEntity
  8
CSLAYER1
100
AcDbBlockBegin
  2
FXDIM0006
 70
     0
 10
0.0
 20
0.0
 30
0.0
  3
FXDIM0006
  1

  0
LINE
  5
1C8
330
1C7
100
AcDbEntity
  8
CSLAYER1
  6
Continuous
 62
     7
100
AcDbLine
 10
151.089817
 20
156.890155
 30
0.0
 11
136.650988
 21
174.216751
 31
0.0
  0
CIRCLE
  5
1C9
330
1C7
100
AcDbEntity
  8
CSLAYER1
  6
Continuous
 62
     7
100
AcDbCircle
 10
151.089817
 20
156.890155
 30
0.0
 40
0.5
  0
CIRCLE
  5
1CA
330
1C7
100
AcDbEntity
  8
CSLAYER1
  6
Continuous
 62
     7
100
AcDbCircle
 10
151.089817
 20
156.890155
 30
0.0
 40
0.25
  0
CIRCLE
  5
1CB
330
1C7
100
AcDbEntity
  8
CSLAYER1
  6
Continuous
 62
     7
100
AcDbCircle
 10
133.450066
 20
178.057857
 30
0.0
 40
5.0
  0
TEXT
  5
1CC
330
1C7
100
AcDbEntity
  8
CSLAYER1
 62
     7
100
AcDbText
 10
132.200073
 20
176.057861
 30
0.0
 40
4.0
  1
5
 41
0.75
  7
FX_FONT
 72
     5
 11
134.700073
 21
176.057861
 31
0.0
100
AcDbText
  0
ENDBLK
  5
1CD
330
1C7
100
AcDbEntity
  8
0
100
AcDbBlockEnd
  0
BLOCK
  5
1CE
330
1CF
100
AcDbEntity
  8
CSLAYER1
100
AcDbBlockBegin
  2
FXDIM0007
 70
     0
 10
0.0
 20
0.0
 30
0.0
  3
FXDIM0007
  1

  0
LINE
  5
1D0
330
1CF
100
AcDbEntity
  8
CSLAYER1
  6
Continuous
 62
     7
100
AcDbLine
 10
84.330375
 20
253.874015
 30
0.0
 11
80.632842
 21
267.924643
 31
0.0
  0
CIRCLE
  5
1D1
330
1CF
100
AcDbEntity
  8
CSLAYER1
  6
Continuous
 62
     7
100
AcDbCircle
 10
84.330375
 20
253.874015
 30
0.0
 40
0.5
  0
CIRCLE
  5
1D2
330
1CF
100
AcDbEntity
  8
CSLAYER1
  6
Continuous
 62
     7
100
AcDbCircle
 10
84.330375
 20
253.874015
 30
0.0
 40
0.25
  0
CIRCLE
  5
1D3
330
1CF
100
AcDbEntity
  8
CSLAYER1
  6
Continuous
 62
     7
100
AcDbCircle
 10
79.360375
 20
272.760015
 30
0.0
 40
5.0
  0
TEXT
  5
1D4
330
1CF
100
AcDbEntity
  8
CSLAYER1
 62
     7
100
AcDbText
 10
78.110374
 20
270.76001
 30
0.0
 40
4.0
  1
4
 41
0.75
  7
FX_FONT
 72
     5
 11
80.610374
 21
270.76001
 31
0.0
100
AcDbText
  0
ENDBLK
  5
1D5
330
1CF
100
AcDbEntity
  8
0
100
AcDbBlockEnd
  0
BLOCK
  5
1D6
330
1D7
100
AcDbEntity
  8
CSLAYER1
100
AcDbBlockBegin
  2
FXDIM0008
 70
     0
 10
0.0
 20
0.0
 30
0.0
  3
FXDIM0008
  1

  0
LINE
  5
1D8
330
1D7
100
AcDbEntity
  8
CSLAYER1
  6
Continuous
 62
     7
100
AcDbLine
 10
354.55
 20
250.818653
 30
0.0
 11
363.892305
 21
267.0
 31
0.0
  0
LINE
  5
1D9
330
1D7
100
AcDbEntity
  8
CSLAYER1
  6
Continuous
 62
     7
100
AcDbLine
 10
354.55
 20
250.818653
 30
0.0
 11
355.067638
 21
252.750505
 31
0.0
  0
LINE
  5
1DA
330
1D7
100
AcDbEntity
  8
CSLAYER1
  6
Continuous
 62
     7
100
AcDbLine
 10
354.55
 20
250.818653
 30
0.0
 11
355.964214
 21
252.232867
 31
0.0
  0
LINE
  5
1DB
330
1D7
100
AcDbEntity
  8
CSLAYER1
  6
Continuous
 62
     7
100
AcDbLine
 10
363.892305
 20
267.0
 30
0.0
 11
334.892305
 21
267.0
 31
0.0
  0
LINE
  5
1DC
330
1D7
100
AcDbEntity
  8
CSLAYER1
  6
Continuous
 62
     7
100
AcDbLine
 10
334.892305
 20
267.0
 30
0.0
 11
359.80342
 21
267.0
 31
0.0
  0
TEXT
  5
1DD
330
1D7
100
AcDbEntity
  8
CSLAYER1
 62
     7
100
AcDbText
 10
335.942749
 20
268.085358
 30
0.0
 40
4.0
  1
4-3.5mmネジ用穴
 41
0.595739559514
  7
FX_FONT
 72
     5
 11
363.442749
 21
268.085358
 31
0.0
100
AcDbText
  0
ENDBLK
  5
1DE
330
1D7
100
AcDbEntity
  8
0
100
AcDbBlockEnd
  0
BLOCK
  5
1DF
330
1E0
100
AcDbEntity
  8
CSLAYER1
100
AcDbBlockBegin
  2
FXDIM0009
 70
     0
 10
0.0
 20
0.0
 30
0.0
  3
FXDIM0009
  1

  0
LINE
  5
1E1
330
1E0
100
AcDbEntity
  8
CSLAYER1
  6
Continuous
 62
     7
100
AcDbLine
 10
325.282415
 20
249.321573
 30
0.0
 11
315.826229
 21
265.700167
 31
0.0
  0
CIRCLE
  5
1E2
330
1E0
100
AcDbEntity
  8
CSLAYER1
  6
Continuous
 62
     7
100
AcDbCircle
 10
325.282415
 20
249.321573
 30
0.0
 40
0.5
  0
CIRCLE
  5
1E3
330
1E0
100
AcDbEntity
  8
CSLAYER1
  6
Continuous
 62
     7
100
AcDbCircle
 10
325.282415
 20
249.321573
 30
0.0
 40
0.25
  0
CIRCLE
  5
1E4
330
1E0
100
AcDbEntity
  8
CSLAYER1
  6
Continuous
 62
     7
100
AcDbCircle
 10
313.274477
 20
270.0
 30
0.0
 40
5.0
  0
TEXT
  5
1E5
330
1E0
100
AcDbEntity
  8
CSLAYER1
 62
     7
100
AcDbText
 10
312.024445
 20
267.999969
 30
0.0
 40
4.0
  1
1
 41
0.9375
  7
FX_FONT
 72
     5
 11
314.524445
 21
267.999969
 31
0.0
100
AcDbText
  0
ENDBLK
  5
1E6
330
1E0
100
AcDbEntity
  8
0
100
AcDbBlockEnd
  0
BLOCK
  5
1E7
330
1E8
100
AcDbEntity
  8
CSLAYER1
100
AcDbBlockBegin
  2
FXDIM0010
 70
     0
 10
0.0
 20
0.0
 30
0.0
  3
FXDIM0010
  1

  0
LINE
  5
1E9
330
1E8
100
AcDbEntity
  8
CSLAYER1
  6
Continuous
 62
     7
100
AcDbLine
 10
292.438109
 20
235.404054
 30
0.0
 11
274.91813
 21
265.669873
 31
0.0
  0
CIRCLE
  5
1EA
330
1E8
100
AcDbEntity
  8
CSLAYER1
  6
Continuous
 62
     7
100
AcDbCircle
 10
292.438109
 20
235.404054
 30
0.0
 40
0.5
  0
CIRCLE
  5
1EB
330
1E8
100
AcDbEntity
  8
CSLAYER1
  6
Continuous
 62
     7
100
AcDbCircle
 10
292.438109
 20
235.404054
 30
0.0
 40
0.25
  0
CIRCLE
  5
1EC
330
1E8
100
AcDbEntity
  8
CSLAYER1
  6
Continuous
 62
     7
100
AcDbCircle
 10
272.41813
 20
270.0
 30
0.0
 40
5.0
  0
TEXT
  5
1ED
330
1E8
100
AcDbEntity
  8
CSLAYER1
 62
     7
100
AcDbText
 10
271.168121
 20
267.999969
 30
0.0
 40
4.0
  1
2
 41
0.75
  7
FX_FONT
 72
     5
 11
273.668121
 21
267.999969
 31
0.0
100
AcDbText
  0
ENDBLK
  5
1EE
330
1E8
100
AcDbEntity
  8
0
100
AcDbBlockEnd
  0
BLOCK
  5
1EF
330
1F0
100
AcDbEntity
  8
CSLAYER1
100
AcDbBlockBegin
  2
FXDIM0011
 70
     0
 10
0.0
 20
0.0
 30
0.0
  3
FXDIM0011
  1

  0
LINE
  5
1F1
330
1F0
100
AcDbEntity
  8
CSLAYER1
  6
Continuous
 62
     7
100
AcDbLine
 10
204.535766
 20
245.281878
 30
0.0
 11
192.764751
 21
265.669873
 31
0.0
  0
CIRCLE
  5
1F2
330
1F0
100
AcDbEntity
  8
CSLAYER1
  6
Continuous
 62
     7
100
AcDbCircle
 10
204.535766
 20
245.281878
 30
0.0
 40
0.5
  0
CIRCLE
  5
1F3
330
1F0
100
AcDbEntity
  8
CSLAYER1
  6
Continuous
 62
     7
100
AcDbCircle
 10
204.535766
 20
245.281878
 30
0.0
 40
0.25
  0
CIRCLE
  5
1F4
330
1F0
100
AcDbEntity
  8
CSLAYER1
  6
Continuous
 62
     7
100
AcDbCircle
 10
190.264751
 20
270.0
 30
0.0
 40
5.0
  0
TEXT
  5
1F5
330
1F0
100
AcDbEntity
  8
CSLAYER1
 62
     7
100
AcDbText
 10
189.014755
 20
268.0
 30
0.0
 40
4.0
  1
3
 41
0.75
  7
FX_FONT
 72
     5
 11
191.514755
 21
268.0
 31
0.0
100
AcDbText
  0
ENDBLK
  5
1F6
330
1F0
100
AcDbEntity
  8
0
100
AcDbBlockEnd
  0
BLOCK
  5
20F
330
210
100
AcDbEntity
  8
CSLAYER1
100
AcDbBlockBegin
  2
BLKF0000
 70
     0
 10
0.0
 20
0.0
 30
0.0
  3
BLKF0000
  1

  0
LINE
  5
211
330
210
100
AcDbEntity
  8
CSLAYER1
  6
Continuous
 62
     7
100
AcDbLine
 10
87.182741
 20
225.504809
 30
0.0
 11
83.432741
 21
232.0
 31
0.0
  0
LINE
  5
212
330
210
100
AcDbEntity
  8
CSLAYER1
  6
Continuous
 62
     7
100
AcDbLine
 10
84.57599
 20
228.019834
 30
0.0
 11
84.307441
 21
228.484976
 31
0.0
  0
LINE
  5
213
330
210
100
AcDbEntity
  8
CSLAYER1
  6
Continuous
 62
     7
100
AcDbLine
 10
88.725867
 20
224.832036
 30
0.0
 11
83.621665
 21
233.672774
 31
0.0
  0
LINE
  5
214
330
210
100
AcDbEntity
  8
CSLAYER1
  6
Continuous
 62
     7
100
AcDbLine
 10
90.041594
 20
224.553131
 30
0.0
 11
84.03799
 21
234.951678
 31
0.0
  0
LINE
  5
215
330
210
100
AcDbEntity
  8
CSLAYER1
  6
Continuous
 62
     7
100
AcDbLine
 10
91.22371
 20
224.505646
 30
0.0
 11
84.587924
 21
235.999163
 31
0.0
  0
LINE
  5
216
330
210
100
AcDbEntity
  8
CSLAYER1
  6
Continuous
 62
     7
100
AcDbLine
 10
92.308226
 20
224.627209
 30
0.0
 11
85.235459
 21
236.8776
 31
0.0
  0
LINE
  5
217
330
210
100
AcDbEntity
  8
CSLAYER1
  6
Continuous
 62
     7
100
AcDbLine
 10
93.312592
 20
224.887595
 30
0.0
 11
85.963143
 21
237.617215
 31
0.0
  0
LINE
  5
218
330
210
100
AcDbEntity
  8
CSLAYER1
  6
Continuous
 62
     7
100
AcDbLine
 10
94.24571
 20
225.271387
 30
0.0
 11
87.622942
 21
236.742358
 31
0.0
  0
LINE
  5
219
330
210
100
AcDbEntity
  8
CSLAYER1
  6
Continuous
 62
     7
100
AcDbLine
 10
87.622942
 20
236.742358
 30
0.0
 11
86.762076
 21
238.233422
 31
0.0
  0
LINE
  5
21A
330
210
100
AcDbEntity
  8
CSLAYER1
  6
Continuous
 62
     7
100
AcDbLine
 10
95.111415
 20
225.771944
 30
0.0
 11
88.882693
 21
236.560406
 31
0.0
  0
LINE
  5
21B
330
210
100
AcDbEntity
  8
CSLAYER1
  6
Continuous
 62
     7
100
AcDbLine
 10
88.882693
 20
236.560406
 30
0.0
 11
87.628423
 21
238.732866
 31
0.0
  0
LINE
  5
21C
330
210
100
AcDbEntity
  8
CSLAYER1
  6
Continuous
 62
     7
100
AcDbLine
 10
95.909687
 20
226.389295
 30
0.0
 11
89.851854
 21
236.88177
 31
0.0
  0
LINE
  5
21D
330
210
100
AcDbEntity
  8
CSLAYER1
  6
Continuous
 62
     7
100
AcDbLine
 10
89.851854
 20
236.88177
 30
0.0
 11
88.562201
 21
239.115514
 31
0.0
  0
LINE
  5
21E
330
210
100
AcDbEntity
  8
CSLAYER1
  6
Continuous
 62
     7
100
AcDbLine
 10
96.636652
 20
227.130155
 30
0.0
 11
90.938296
 21
236.999997
 31
0.0
  0
LINE
  5
21F
330
210
100
AcDbEntity
  8
CSLAYER1
  6
Continuous
 62
     7
100
AcDbLine
 10
90.938296
 20
236.999997
 30
0.0
 11
89.567287
 21
239.374655
 31
0.0
  0
LINE
  5
220
330
210
100
AcDbEntity
  8
CSLAYER1
  6
Continuous
 62
     7
100
AcDbLine
 10
97.28335
 20
228.010042
 30
0.0
 11
92.184998
 21
236.840646
 31
0.0
  0
LINE
  5
221
330
210
100
AcDbEntity
  8
CSLAYER1
  6
Continuous
 62
     7
100
AcDbLine
 10
92.184998
 20
236.840646
 30
0.0
 11
90.65264
 21
239.494768
 31
0.0
  0
LINE
  5
222
330
210
100
AcDbEntity
  8
CSLAYER1
  6
Continuous
 62
     7
100
AcDbLine
 10
97.832215
 20
229.059379
 30
0.0
 11
93.581114
 21
236.422502
 31
0.0
  0
LINE
  5
223
330
210
100
AcDbEntity
  8
CSLAYER1
  6
Continuous
 62
     7
100
AcDbLine
 10
93.581114
 20
236.422502
 30
0.0
 11
91.835825
 21
239.445431
 31
0.0
  0
LINE
  5
224
330
210
100
AcDbEntity
  8
CSLAYER1
  6
Continuous
 62
     7
100
AcDbLine
 10
98.246959
 20
230.341021
 30
0.0
 11
94.416578
 21
236.975435
 31
0.0
  0
LINE
  5
225
330
210
100
AcDbEntity
  8
CSLAYER1
  6
Continuous
 62
     7
100
AcDbLine
 10
94.416578
 20
236.975435
 30
0.0
 11
93.153132
 21
239.163788
 31
0.0
  0
LINE
  5
226
330
210
100
AcDbEntity
  8
CSLAYER1
  6
Continuous
 62
     7
100
AcDbLine
 10
98.432716
 20
232.019281
 30
0.0
 11
95.04945
 21
237.87927
 31
0.0
  0
LINE
  5
227
330
210
100
AcDbEntity
  8
CSLAYER1
  6
Continuous
 62
     7
100
AcDbLine
 10
95.04945
 20
237.87927
 30
0.0
 11
94.699426
 21
238.485529
 31
0.0
  0
ENDBLK
  5
228
330
210
100
AcDbEntity
  8
0
100
AcDbBlockEnd
  0
BLOCK
  5
598
330
56F
100
AcDbEntity
  8
0
100
AcDbBlockBegin
  2
ACE0158
 70
     0
 10
0.0
 20
0.0
 30
0.0
  3
ACE0158
  1

  0
LINE
  5
596
330
56F
100
AcDbEntity
  8
CSLAYER10
  6
Continuous
100
AcDbLine
 10
11.833333
 20
3.25
 30
0.0
 11
0.0
 21
3.25
 31
0.0
  0
SPLINE
  5
597
330
56F
100
AcDbEntity
  8
CSLAYER1
100
AcDbSpline
210
0.0
220
0.0
230
1.0
 70
  1064
 71
     3
 72
     9
 73
     5
 74
     3
 42
0.000000001
 43
0.0000000001
 44
0.0
 12
1.0
 22
0.0
 32
0.0
 13
-0.9895890930501341
 23
-0.1439215998945711
 33
0.0
 40
0.0
 40
0.0
 40
0.0
 40
0.0
 40
4.100304866714182
 40
8.20060973342834
 40
8.20060973342834
 40
8.20060973342834
 40
8.20060973342834
 10
6.76905099999999
 20
6.499999999999972
 30
0.0
 10
8.135819288904717
 20
6.499999999999972
 30
0.0
 10
10.40939735983418
 20
3.151646260587809
 30
0.0
 10
8.121589991426895
 20
0.1967074788243326
 30
0.0
 10
6.76905099999999
 20
0.0
 30
0.0
 11
6.76905099999999
 21
6.499999999999972
 31
0.0
 11
9.26905099999999
 21
3.249999999999972
 31
0.0
 11
6.76905099999999
 21
0.0
 31
0.0
  0
ENDBLK
  5
599
330
56F
100
AcDbEntity
  8
0
100
AcDbBlockEnd
  0
BLOCK
  5
5C6
330
59F
100
AcDbEntity
  8
0
100
AcDbBlockBegin
  2
ACE0148
 70
     0
 10
0.0
 20
0.0
 30
0.0
  3
ACE0148
  1

  0
SPLINE
  5
5C5
330
59F
100
AcDbEntity
  8
CSLAYER1
100
AcDbSpline
210
0.0
220
0.0
230
1.0
 70
  1064
 71
     3
 72
     9
 73
     5
 74
     3
 42
0.000000001
 43
0.0000000001
 44
0.0
 12
1.0
 22
0.0
 32
0.0
 13
-0.9895890930501341
 23
-0.1439215998945711
 33
0.0
 40
0.0
 40
0.0
 40
0.0
 40
0.0
 40
4.100304866714204
 40
8.200609733428362
 40
8.200609733428362
 40
8.200609733428362
 40
8.200609733428362
 10
0.0
 20
6.5
 30
0.0
 10
1.366768288904735
 20
6.5
 30
0.0
 10
3.64034635983418
 20
3.151646260587813
 30
0.0
 10
1.352538991426905
 20
0.1967074788243326
 30
0.0
 10
0.0
 20
0.0
 30
0.0
 11
0.0
 21
6.5
 31
0.0
 11
2.5
 21
3.249999999999972
 31
0.0
 11
0.0
 21
0.0
 31
0.0
  0
ENDBLK
  5
5C7
330
59F
100
AcDbEntity
  8
0
100
AcDbBlockEnd
  0
BLOCK
  5
5F6
330
5CD
100
AcDbEntity
  8
0
100
AcDbBlockBegin
  2
ACE00B8
 70
     0
 10
0.0
 20
0.0
 30
0.0
  3
ACE00B8
  1

  0
CIRCLE
  5
5F3
330
5CD
100
AcDbEntity
  8
CSLAYER1
100
AcDbCircle
 10
3.25
 20
3.25
 30
0.0
 40
3.25
  0
LINE
  5
5F4
330
5CD
100
AcDbEntity
  8
CSLAYER1
100
AcDbLine
 10
1.66993489012
 20
1.66993489012
 30
0.0
 11
4.83006510988
 21
4.83006510988
 31
0.0
  0
LINE
  5
5F5
330
5CD
100
AcDbEntity
  8
CSLAYER1
100
AcDbLine
 10
1.66993489012
 20
4.83006510988
 30
0.0
 11
4.83006510988
 21
1.66993489012
 31
0.0
  0
ENDBLK
  5
5F7
330
5CD
100
AcDbEntity
  8
0
100
AcDbBlockEnd
  0
BLOCK
  5
6C8
330
6A0
100
AcDbEntity
  8
0
100
AcDbBlockBegin
  2
ACE00A8
 70
     0
 10
0.0
 20
0.0
 30
0.0
  3
ACE00A8
  1

  0
SPLINE
  5
6C7
330
6A0
100
AcDbEntity
  8
CSLAYER1
100
AcDbSpline
210
0.0
220
0.0
230
1.0
 70
  1064
 71
     3
 72
     9
 73
     5
 74
     3
 42
0.000000001
 43
0.0000000001
 44
0.0
 12
1.0
 22
0.0
 32
0.0
 13
-0.9895890930501341
 23
-0.1439215998945711
 33
0.0
 40
0.0
 40
0.0
 40
0.0
 40
0.0
 40
4.077003198404423
 40
8.200688357521997
 40
8.200688357521997
 40
8.200688357521997
 40
8.200688357521997
 10
0.0000000000000284
 20
6.5
 30
0.0
 10
1.359001066134836
 20
6.5
 30
0.0
 10
3.6404548487558
 20
3.174101051066299
 30
0.0
 10
1.360251285545181
 20
0.1978291218539001
 30
0.0
 10
0.0000000000000284
 20
0.0
 30
0.0
 11
0.0000000000000284
 21
6.5
 31
0.0
 11
2.500000000000028
 21
3.279448016286665
 31
0.0
 11
0.0000000000000284
 21
0.0
 31
0.0
  0
ENDBLK
  5
6C9
330
6A0
100
AcDbEntity
  8
0
100
AcDbBlockEnd
  0
ENDSEC
  0
SECTION
  2
ENTITIES
  0
ARC
  5
22C
330
1D
100
AcDbEntity
  8
CSLAYER1
  6
Continuous
100
AcDbCircle
 10
97.547989
 20
243.191
 30
0.0
 40
1.0
100
AcDbArc
 50
325.0
 51
59.411726
  0
ARC
  5
22D
330
1D
100
AcDbEntity
  8
CSLAYER1
  6
Continuous
100
AcDbCircle
 10
90.932741
 20
232.0
 30
0.0
 40
14.0
100
AcDbArc
 50
59.411726
 51
120.588274
  0
ARC
  5
22E
330
1D
100
AcDbEntity
  8
CSLAYER1
  6
Continuous
100
AcDbCircle
 10
84.317493
 20
243.191
 30
0.0
 40
1.0
100
AcDbArc
 50
120.588274
 51
215.0
  0
LINE
  5
22F
102
{ACAD_REACTORS
330
614
102
}
330
1D
100
AcDbEntity
  8
CSLAYER1
  6
Continuous
100
AcDbLine
 10
83.49834
 20
242.617424
 30
0.0
 11
87.539417
 21
236.846169
 31
0.0
  0
ARC
  5
230
102
{ACAD_REACTORS
330
614
102
}
330
1D
100
AcDbEntity
  8
CSLAYER1
  6
Continuous
100
AcDbCircle
 10
88.358569
 20
237.419745
 30
0.0
 40
1.0
100
AcDbArc
 50
215.0
 51
295.405932
  0
ARC
  5
231
102
{ACAD_REACTORS
330
614
102
}
330
1D
100
AcDbEntity
  8
CSLAYER1
  6
Continuous
100
AcDbCircle
 10
90.932741
 20
232.0
 30
0.0
 40
5.0
100
AcDbArc
 50
64.594068
 51
115.405932
  0
ARC
  5
232
102
{ACAD_REACTORS
330
614
102
}
330
1D
100
AcDbEntity
  8
CSLAYER1
  6
Continuous
100
AcDbCircle
 10
93.506913
 20
237.419745
 30
0.0
 40
1.0
100
AcDbArc
 50
244.594068
 51
325.0
  0
LINE
  5
233
102
{ACAD_REACTORS
330
614
102
}
330
1D
100
AcDbEntity
  8
CSLAYER1
  6
Continuous
100
AcDbLine
 10
94.326065
 20
236.846169
 30
0.0
 11
98.367141
 21
242.617424
 31
0.0
  0
LINE
  5
234
330
1D
100
AcDbEntity
  8
CSLAYER1
  6
Continuous
100
AcDbLine
 10
78.932741
 20
254.5
 30
0.0
 11
74.932741
 21
254.5
 31
0.0
  0
LINE
  5
235
330
1D
100
AcDbEntity
  8
CSLAYER1
  6
Continuous
100
AcDbLine
 10
76.932741
 20
256.5
 30
0.0
 11
76.932741
 21
252.5
 31
0.0
  0
LINE
  5
236
330
1D
100
AcDbEntity
  8
CSLAYER1
  6
Continuous
100
AcDbLine
 10
71.332741
 20
260.5
 30
0.0
 11
71.332741
 21
262.0
 31
0.0
  0
LINE
  5
237
330
1D
100
AcDbEntity
  8
CSLAYER1
  6
Continuous
100
AcDbLine
 10
71.332741
 20
262.0
 30
0.0
 11
110.532741
 21
262.0
 31
0.0
  0
LINE
  5
238
330
1D
100
AcDbEntity
  8
CSLAYER1
  6
Continuous
100
AcDbLine
 10
110.532741
 20
262.0
 30
0.0
 11
110.532741
 21
260.5
 31
0.0
  0
LINE
  5
239
330
1D
100
AcDbEntity
  8
CSLAYER1
  6
Continuous
100
AcDbLine
 10
110.932741
 20
260.5
 30
0.0
 11
110.932741
 21
203.5
 31
0.0
  0
LINE
  5
23A
330
1D
100
AcDbEntity
  8
CSLAYER1
  6
Continuous
100
AcDbLine
 10
110.932741
 20
203.5
 30
0.0
 11
70.932741
 21
203.5
 31
0.0
  0
LINE
  5
23B
330
1D
100
AcDbEntity
  8
CSLAYER1
  6
Continuous
100
AcDbLine
 10
70.932741
 20
203.5
 30
0.0
 11
70.932741
 21
260.5
 31
0.0
  0
LINE
  5
23C
330
1D
100
AcDbEntity
  8
CSLAYER1
  6
Continuous
100
AcDbLine
 10
70.932741
 20
260.5
 30
0.0
 11
110.932741
 21
260.5
 31
0.0
  0
LINE
  5
23D
330
1D
100
AcDbEntity
  8
CSLAYER1
  6
Continuous
100
AcDbLine
 10
106.932741
 20
254.5
 30
0.0
 11
102.932741
 21
254.5
 31
0.0
  0
LINE
  5
23E
330
1D
100
AcDbEntity
  8
CSLAYER1
  6
Continuous
100
AcDbLine
 10
104.932741
 20
256.5
 30
0.0
 11
104.932741
 21
252.5
 31
0.0
  0
LINE
  5
23F
330
1D
100
AcDbEntity
  8
CSLAYER1
  6
Continuous
100
AcDbLine
 10
147.580109
 20
260.5
 30
0.0
 11
147.580109
 21
203.5
 31
0.0
  0
LINE
  5
243
330
1D
100
AcDbEntity
  8
CSLAYER1
  6
Continuous
100
AcDbLine
 10
152.580109
 20
202.0
 30
0.0
 11
152.580109
 21
262.0
 31
0.0
  0
LINE
  5
244
330
1D
100
AcDbEntity
  8
CSLAYER1
  6
Continuous
100
AcDbLine
 10
152.580109
 20
262.0
 30
0.0
 11
147.880109
 21
262.0
 31
0.0
  0
LINE
  5
245
330
1D
100
AcDbEntity
  8
CSLAYER1
  6
Continuous
100
AcDbLine
 10
147.880109
 20
262.0
 30
0.0
 11
147.880109
 21
260.5
 31
0.0
  0
LINE
  5
246
330
1D
100
AcDbEntity
  8
CSLAYER1
  6
Continuous
100
AcDbLine
 10
147.580109
 20
260.5
 30
0.0
 11
152.580109
 21
260.5
 31
0.0
  0
LINE
  5
247
330
1D
100
AcDbEntity
  8
CSLAYER1
  6
Continuous
100
AcDbLine
 10
152.580109
 20
238.0
 30
0.0
 11
166.980109
 21
238.0
 31
0.0
  0
ARC
  5
248
330
1D
100
AcDbEntity
  8
CSLAYER1
  6
Continuous
100
AcDbCircle
 10
166.980109
 20
237.0
 30
0.0
 40
1.0
100
AcDbArc
 50
0.0
 51
90.0
  0
LINE
  5
249
330
1D
100
AcDbEntity
  8
CSLAYER1
  6
Continuous
100
AcDbLine
 10
167.980109
 20
237.0
 30
0.0
 11
167.980109
 21
227.0
 31
0.0
  0
ARC
  5
24A
330
1D
100
AcDbEntity
  8
CSLAYER1
  6
Continuous
100
AcDbCircle
 10
166.980109
 20
227.0
 30
0.0
 40
1.0
100
AcDbArc
 50
270.0
 51
0.0
  0
LINE
  5
24B
330
1D
100
AcDbEntity
  8
CSLAYER1
  6
Continuous
100
AcDbLine
 10
166.980109
 20
226.0
 30
0.0
 11
152.580109
 21
226.0
 31
0.0
  0
LINE
  5
24C
330
1D
100
AcDbEntity
  8
CSLAYER1
  6
Continuous
100
AcDbLine
 10
167.980109
 20
229.05
 30
0.0
 11
182.580109
 21
229.05
 31
0.0
  0
LINE
  5
24D
330
1D
100
AcDbEntity
  8
CSLAYER1
  6
Continuous
100
AcDbLine
 10
182.580109
 20
234.95
 30
0.0
 11
167.980109
 21
234.95
 31
0.0
  0
LINE
  5
24E
330
1D
100
AcDbEntity
  8
CSLAYER1
  6
Continuous
100
AcDbLine
 10
182.580109
 20
241.4
 30
0.0
 11
182.580109
 21
222.6
 31
0.0
  0
LINE
  5
24F
330
1D
100
AcDbEntity
  8
CSLAYER1
  6
Continuous
100
AcDbLine
 10
182.580109
 20
222.6
 30
0.0
 11
183.580109
 21
222.6
 31
0.0
  0
LINE
  5
250
330
1D
100
AcDbEntity
  8
CSLAYER1
  6
Continuous
100
AcDbLine
 10
183.580109
 20
222.6
 30
0.0
 11
183.580109
 21
209.0
 31
0.0
  0
LINE
  5
251
330
1D
100
AcDbEntity
  8
CSLAYER1
  6
Continuous
100
AcDbLine
 10
183.580109
 20
209.0
 30
0.0
 11
182.580109
 21
209.0
 31
0.0
  0
LINE
  5
252
330
1D
100
AcDbEntity
  8
CSLAYER1
  6
Continuous
100
AcDbLine
 10
182.580109
 20
209.0
 30
0.0
 11
182.580109
 21
221.2
 31
0.0
  0
LINE
  5
253
330
1D
100
AcDbEntity
  8
CSLAYER1
  6
Continuous
100
AcDbLine
 10
182.580109
 20
221.2
 30
0.0
 11
183.580109
 21
221.2
 31
0.0
  0
ARC
  5
254
330
1D
100
AcDbEntity
  8
CSLAYER1
  6
Continuous
100
AcDbCircle
 10
183.580109
 20
220.5
 30
0.0
 40
1.0
100
AcDbArc
 50
90.0
 51
135.572996
  0
ARC
  5
255
330
1D
100
AcDbEntity
  8
CSLAYER1
  6
Continuous
100
AcDbCircle
 10
183.580109
 20
222.6
 30
0.0
 40
1.0
100
AcDbArc
 50
180.0
 51
270.0
  0
LINE
  5
256
330
1D
100
AcDbEntity
  8
CSLAYER1
  6
Continuous
100
AcDbLine
 10
183.580109
 20
220.0
 30
0.0
 11
187.780109
 21
220.0
 31
0.0
  0
LINE
  5
257
330
1D
100
AcDbEntity
  8
CSLAYER1
  6
Continuous
100
AcDbLine
 10
187.780109
 20
220.0
 30
0.0
 11
187.780109
 21
221.6
 31
0.0
  0
LINE
  5
258
330
1D
100
AcDbEntity
  8
CSLAYER1
  6
Continuous
100
AcDbLine
 10
187.780109
 20
221.6
 30
0.0
 11
188.780109
 21
221.6
 31
0.0
  0
LINE
  5
259
330
1D
100
AcDbEntity
  8
CSLAYER1
  6
Continuous
100
AcDbLine
 10
188.780109
 20
221.6
 30
0.0
 11
188.780109
 21
242.4
 31
0.0
  0
LINE
  5
25A
330
1D
100
AcDbEntity
  8
CSLAYER1
  6
Continuous
100
AcDbLine
 10
188.780109
 20
242.4
 30
0.0
 11
187.780109
 21
242.4
 31
0.0
  0
LINE
  5
25B
330
1D
100
AcDbEntity
  8
CSLAYER1
  6
Continuous
100
AcDbLine
 10
187.780109
 20
242.4
 30
0.0
 11
187.780109
 21
244.0
 31
0.0
  0
LINE
  5
25C
330
1D
100
AcDbEntity
  8
CSLAYER1
  6
Continuous
100
AcDbLine
 10
187.780109
 20
244.0
 30
0.0
 11
183.580109
 21
244.0
 31
0.0
  0
LINE
  5
25D
330
1D
100
AcDbEntity
  8
CSLAYER1
  6
Continuous
100
AcDbLine
 10
183.580109
 20
242.8
 30
0.0
 11
182.580109
 21
242.8
 31
0.0
  0
LINE
  5
25E
330
1D
100
AcDbEntity
  8
CSLAYER1
  6
Continuous
100
AcDbLine
 10
182.580109
 20
242.8
 30
0.0
 11
182.580109
 21
255.0
 31
0.0
  0
LINE
  5
25F
330
1D
100
AcDbEntity
  8
CSLAYER1
  6
Continuous
100
AcDbLine
 10
182.580109
 20
255.0
 30
0.0
 11
183.580109
 21
255.0
 31
0.0
  0
LINE
  5
260
330
1D
100
AcDbEntity
  8
CSLAYER1
  6
Continuous
100
AcDbLine
 10
183.580109
 20
255.0
 30
0.0
 11
183.580109
 21
241.4
 31
0.0
  0
LINE
  5
261
330
1D
100
AcDbEntity
  8
CSLAYER1
  6
Continuous
100
AcDbLine
 10
183.580109
 20
241.4
 30
0.0
 11
182.580109
 21
241.4
 31
0.0
  0
ARC
  5
262
330
1D
100
AcDbEntity
  8
CSLAYER1
  6
Continuous
100
AcDbCircle
 10
183.580109
 20
241.4
 30
0.0
 40
1.0
100
AcDbArc
 50
90.0
 51
180.0
  0
ARC
  5
263
330
1D
100
AcDbEntity
  8
CSLAYER1
  6
Continuous
100
AcDbCircle
 10
183.580109
 20
243.5
 30
0.0
 40
1.0
100
AcDbArc
 50
224.427004
 51
270.0
  0
LINE
  5
264
330
1D
100
AcDbEntity
  8
CSLAYER1
  6
Continuous
100
AcDbLine
 10
187.780109
 20
242.5
 30
0.0
 11
197.580109
 21
242.5
 31
0.0
  0
LINE
  5
265
330
1D
100
AcDbEntity
  8
CSLAYER1
  6
Continuous
100
AcDbLine
 10
197.580109
 20
242.5
 30
0.0
 11
197.580109
 21
221.5
 31
0.0
  0
LINE
  5
266
330
1D
100
AcDbEntity
  8
CSLAYER1
  6
Continuous
100
AcDbLine
 10
197.580109
 20
221.5
 30
0.0
 11
187.780109
 21
221.5
 31
0.0
  0
LINE
  5
267
330
1D
100
AcDbEntity
  8
CSLAYER1
  6
Continuous
100
AcDbLine
 10
188.080109
 20
221.5
 30
0.0
 11
188.080109
 21
220.5
 31
0.0
  0
LINE
  5
268
330
1D
100
AcDbEntity
  8
CSLAYER1
  6
Continuous
100
AcDbLine
 10
187.780109
 20
220.5
 30
0.0
 11
197.580109
 21
220.5
 31
0.0
  0
ARC
  5
269
330
1D
100
AcDbEntity
  8
CSLAYER1
  6
Continuous
100
AcDbCircle
 10
197.580109
 20
221.5
 30
0.0
 40
1.0
100
AcDbArc
 50
270.0
 51
0.0
  0
LINE
  5
26A
330
1D
100
AcDbEntity
  8
CSLAYER1
  6
Continuous
100
AcDbLine
 10
198.580109
 20
221.5
 30
0.0
 11
198.580109
 21
242.5
 31
0.0
  0
ARC
  5
26B
330
1D
100
AcDbEntity
  8
CSLAYER1
  6
Continuous
100
AcDbCircle
 10
197.580109
 20
242.5
 30
0.0
 40
1.0
100
AcDbArc
 50
0.0
 51
90.0
  0
LINE
  5
26C
330
1D
100
AcDbEntity
  8
CSLAYER1
  6
Continuous
100
AcDbLine
 10
197.580109
 20
243.5
 30
0.0
 11
187.780109
 21
243.5
 31
0.0
  0
LINE
  5
26D
330
1D
100
AcDbEntity
  8
CSLAYER1
  6
Continuous
100
AcDbLine
 10
188.080109
 20
243.5
 30
0.0
 11
188.080109
 21
242.5
 31
0.0
  0
LINE
  5
26E
330
1D
100
AcDbEntity
  8
CSLAYER1
  6
Continuous
100
AcDbLine
 10
188.780109
 20
241.953723
 30
0.0
 11
195.580109
 21
241.953723
 31
0.0
  0
ARC
  5
26F
330
1D
100
AcDbEntity
  8
CSLAYER1
  6
Continuous
100
AcDbCircle
 10
195.580109
 20
240.453723
 30
0.0
 40
1.5
100
AcDbArc
 50
0.0
 51
90.0
  0
LINE
  5
270
330
1D
100
AcDbEntity
  8
CSLAYER1
  6
Continuous
100
AcDbLine
 10
197.080109
 20
240.453723
 30
0.0
 11
197.080109
 21
223.453723
 31
0.0
  0
ARC
  5
271
330
1D
100
AcDbEntity
  8
CSLAYER1
  6
Continuous
100
AcDbCircle
 10
195.580109
 20
223.453723
 30
0.0
 40
1.5
100
AcDbArc
 50
270.0
 51
0.0
  0
LINE
  5
272
330
1D
100
AcDbEntity
  8
CSLAYER1
  6
Continuous
100
AcDbLine
 10
195.580109
 20
221.953723
 30
0.0
 11
188.780109
 21
221.953723
 31
0.0
  0
LINE
  5
273
330
1D
100
AcDbEntity
  8
CSLAYER1
  6
Continuous
100
AcDbLine
 10
188.780109
 20
223.546277
 30
0.0
 11
195.580109
 21
223.546277
 31
0.0
  0
LINE
  5
274
330
1D
100
AcDbEntity
  8
CSLAYER1
  6
Continuous
100
AcDbLine
 10
197.080109
 20
226.5
 30
0.0
 11
197.580109
 21
226.5
 31
0.0
  0
LINE
  5
275
330
1D
100
AcDbEntity
  8
CSLAYER1
  6
Continuous
100
AcDbLine
 10
198.580109
 20
226.5
 30
0.0
 11
199.080109
 21
226.5
 31
0.0
  0
ARC
  5
276
330
1D
100
AcDbEntity
  8
CSLAYER1
  6
Continuous
100
AcDbCircle
 10
199.080109
 20
226.0
 30
0.0
 40
0.5
100
AcDbArc
 50
0.0
 51
90.0
  0
LINE
  5
277
330
1D
100
AcDbEntity
  8
CSLAYER1
  6
Continuous
100
AcDbLine
 10
199.580109
 20
226.0
 30
0.0
 11
199.580109
 21
220.5
 31
0.0
  0
ARC
  5
278
330
1D
100
AcDbEntity
  8
CSLAYER1
  6
Continuous
100
AcDbCircle
 10
198.080109
 20
220.5
 30
0.0
 40
1.5
100
AcDbArc
 50
270.0
 51
0.0
  0
LINE
  5
279
330
1D
100
AcDbEntity
  8
CSLAYER1
  6
Continuous
100
AcDbLine
 10
198.080109
 20
219.0
 30
0.0
 11
195.580109
 21
219.0
 31
0.0
  0
ARC
  5
27A
330
1D
100
AcDbEntity
  8
CSLAYER1
  6
Continuous
100
AcDbCircle
 10
195.580109
 20
218.0
 30
0.0
 40
1.0
100
AcDbArc
 50
90.0
 51
180.0
  0
LINE
  5
27B
330
1D
100
AcDbEntity
  8
CSLAYER1
  6
Continuous
100
AcDbLine
 10
194.580109
 20
218.0
 30
0.0
 11
194.580109
 21
216.0
 31
0.0
  0
ARC
  5
27C
330
1D
100
AcDbEntity
  8
CSLAYER1
  6
Continuous
100
AcDbCircle
 10
196.580109
 20
216.0
 30
0.0
 40
2.0
100
AcDbArc
 50
180.0
 51
270.0
  0
LINE
  5
27D
330
1D
100
AcDbEntity
  8
CSLAYER1
  6
Continuous
100
AcDbLine
 10
196.580109
 20
214.0
 30
0.0
 11
206.580109
 21
214.0
 31
0.0
  0
ARC
  5
27E
330
1D
100
AcDbEntity
  8
CSLAYER1
  6
Continuous
100
AcDbCircle
 10
206.580109
 20
222.0
 30
0.0
 40
8.0
100
AcDbArc
 50
270.0
 51
0.0
  0
LINE
  5
27F
330
1D
100
AcDbEntity
  8
CSLAYER1
  6
Continuous
100
AcDbLine
 10
214.580109
 20
222.0
 30
0.0
 11
214.580109
 21
242.0
 31
0.0
  0
ARC
  5
280
330
1D
100
AcDbEntity
  8
CSLAYER1
  6
Continuous
100
AcDbCircle
 10
206.580109
 20
242.0
 30
0.0
 40
8.0
100
AcDbArc
 50
0.0
 51
90.0
  0
LINE
  5
281
330
1D
100
AcDbEntity
  8
CSLAYER1
  6
Continuous
100
AcDbLine
 10
206.580109
 20
250.0
 30
0.0
 11
196.580109
 21
250.0
 31
0.0
  0
ARC
  5
282
330
1D
100
AcDbEntity
  8
CSLAYER1
  6
Continuous
100
AcDbCircle
 10
196.580109
 20
248.0
 30
0.0
 40
2.0
100
AcDbArc
 50
90.0
 51
180.0
  0
LINE
  5
283
330
1D
100
AcDbEntity
  8
CSLAYER1
  6
Continuous
100
AcDbLine
 10
194.580109
 20
248.0
 30
0.0
 11
194.580109
 21
246.0
 31
0.0
  0
ARC
  5
284
330
1D
100
AcDbEntity
  8
CSLAYER1
  6
Continuous
100
AcDbCircle
 10
195.580109
 20
246.0
 30
0.0
 40
1.0
100
AcDbArc
 50
180.0
 51
270.0
  0
LINE
  5
285
330
1D
100
AcDbEntity
  8
CSLAYER1
  6
Continuous
100
AcDbLine
 10
195.580109
 20
245.0
 30
0.0
 11
198.080109
 21
245.0
 31
0.0
  0
ARC
  5
286
330
1D
100
AcDbEntity
  8
CSLAYER1
  6
Continuous
100
AcDbCircle
 10
198.080109
 20
243.5
 30
0.0
 40
1.5
100
AcDbArc
 50
0.0
 51
90.0
  0
LINE
  5
287
330
1D
100
AcDbEntity
  8
CSLAYER1
  6
Continuous
100
AcDbLine
 10
199.580109
 20
243.5
 30
0.0
 11
199.580109
 21
238.0
 31
0.0
  0
ARC
  5
288
330
1D
100
AcDbEntity
  8
CSLAYER1
  6
Continuous
100
AcDbCircle
 10
199.080109
 20
238.0
 30
0.0
 40
0.5
100
AcDbArc
 50
270.0
 51
0.0
  0
LINE
  5
289
330
1D
100
AcDbEntity
  8
CSLAYER1
  6
Continuous
100
AcDbLine
 10
199.080109
 20
237.5
 30
0.0
 11
198.580109
 21
237.5
 31
0.0
  0
LINE
  5
28A
330
1D
100
AcDbEntity
  8
CSLAYER1
  6
Continuous
100
AcDbLine
 10
197.580109
 20
237.5
 30
0.0
 11
197.080109
 21
237.5
 31
0.0
  0
LINE
  5
28B
330
1D
100
AcDbEntity
  8
CSLAYER1
  6
Continuous
100
AcDbLine
 10
195.580109
 20
240.453723
 30
0.0
 11
188.780109
 21
240.453723
 31
0.0
  0
LINE
  5
28C
330
1D
100
AcDbEntity
  8
CSLAYER1
  6
Continuous
100
AcDbLine
 10
178.077381
 20
160.725653
 30
0.0
 11
136.077381
 21
160.725653
 31
0.0
  0
ARC
  5
28D
330
1D
100
AcDbEntity
  8
CSLAYER1
  6
Continuous
100
AcDbCircle
 10
136.077381
 20
155.725653
 30
0.0
 40
5.0
100
AcDbArc
 50
90.0
 51
180.0
  0
LINE
  5
28E
330
1D
100
AcDbEntity
  8
CSLAYER1
  6
Continuous
100
AcDbLine
 10
131.077381
 20
155.725653
 30
0.0
 11
131.077381
 21
120.725653
 31
0.0
  0
ARC
  5
28F
330
1D
100
AcDbEntity
  8
CSLAYER1
  6
Continuous
100
AcDbCircle
 10
136.077381
 20
120.725653
 30
0.0
 40
5.0
100
AcDbArc
 50
180.0
 51
270.0
  0
LINE
  5
290
330
1D
100
AcDbEntity
  8
CSLAYER1
  6
Continuous
100
AcDbLine
 10
136.077381
 20
115.725653
 30
0.0
 11
178.077381
 21
115.725653
 31
0.0
  0
ARC
  5
291
330
1D
100
AcDbEntity
  8
CSLAYER1
  6
Continuous
100
AcDbCircle
 10
178.077381
 20
120.725653
 30
0.0
 40
5.0
100
AcDbArc
 50
270.0
 51
0.0
  0
LINE
  5
292
330
1D
100
AcDbEntity
  8
CSLAYER1
  6
Continuous
100
AcDbLine
 10
183.077381
 20
120.725653
 30
0.0
 11
183.077381
 21
155.725653
 31
0.0
  0
ARC
  5
293
330
1D
100
AcDbEntity
  8
CSLAYER1
  6
Continuous
100
AcDbCircle
 10
178.077381
 20
155.725653
 30
0.0
 40
5.0
100
AcDbArc
 50
0.0
 51
90.0
  0
ARC
  5
296
330
1D
100
AcDbEntity
  8
CSLAYER1
  6
Continuous
100
AcDbCircle
 10
146.077381
 20
149.725653
 30
0.0
 40
1.0
100
AcDbArc
 50
0.0
 51
90.0
  0
LINE
  5
297
330
1D
100
AcDbEntity
  8
CSLAYER1
  6
Continuous
100
AcDbLine
 10
146.077381
 20
150.725653
 30
0.0
 11
138.077381
 21
150.725653
 31
0.0
  0
ARC
  5
298
330
1D
100
AcDbEntity
  8
CSLAYER1
  6
Continuous
100
AcDbCircle
 10
138.077381
 20
149.725653
 30
0.0
 40
1.0
100
AcDbArc
 50
90.0
 51
180.0
  0
LINE
  5
299
330
1D
100
AcDbEntity
  8
CSLAYER1
  6
Continuous
100
AcDbLine
 10
137.077381
 20
149.725653
 30
0.0
 11
137.077381
 21
126.725653
 31
0.0
  0
ARC
  5
29A
330
1D
100
AcDbEntity
  8
CSLAYER1
  6
Continuous
100
AcDbCircle
 10
138.077381
 20
126.725653
 30
0.0
 40
1.0
100
AcDbArc
 50
180.0
 51
270.0
  0
LINE
  5
29B
330
1D
100
AcDbEntity
  8
CSLAYER1
  6
Continuous
100
AcDbLine
 10
138.077381
 20
125.725653
 30
0.0
 11
146.077381
 21
125.725653
 31
0.0
  0
ARC
  5
29C
330
1D
100
AcDbEntity
  8
CSLAYER1
  6
Continuous
100
AcDbCircle
 10
146.077381
 20
126.725653
 30
0.0
 40
1.0
100
AcDbArc
 50
270.0
 51
0.0
  0
LINE
  5
29D
330
1D
100
AcDbEntity
  8
CSLAYER1
  6
Continuous
100
AcDbLine
 10
147.077381
 20
126.725653
 30
0.0
 11
147.077381
 21
149.725653
 31
0.0
  0
LINE
  5
29E
330
1D
100
AcDbEntity
  8
CSLAYER1
  6
Continuous
100
AcDbLine
 10
110.532741
 20
202.0
 30
0.0
 11
110.532741
 21
203.5
 31
0.0
  0
LINE
  5
29F
330
1D
100
AcDbEntity
  8
CSLAYER1
  6
Continuous
100
AcDbLine
 10
110.532741
 20
202.0
 30
0.0
 11
71.332741
 21
202.0
 31
0.0
  0
LINE
  5
2A0
330
1D
100
AcDbEntity
  8
CSLAYER1
  6
Continuous
100
AcDbLine
 10
71.332741
 20
202.0
 30
0.0
 11
71.332741
 21
203.5
 31
0.0
  0
LINE
  5
2A1
330
1D
100
AcDbEntity
  8
CSLAYER1
  6
Continuous
100
AcDbLine
 10
76.932741
 20
207.5
 30
0.0
 11
76.932741
 21
211.5
 31
0.0
  0
LINE
  5
2A2
330
1D
100
AcDbEntity
  8
CSLAYER1
  6
Continuous
100
AcDbLine
 10
74.932741
 20
209.5
 30
0.0
 11
78.932741
 21
209.5
 31
0.0
  0
LINE
  5
2A3
330
1D
100
AcDbEntity
  8
CSLAYER1
  6
Continuous
100
AcDbLine
 10
102.932741
 20
209.5
 30
0.0
 11
106.932741
 21
209.5
 31
0.0
  0
LINE
  5
2A4
330
1D
100
AcDbEntity
  8
CSLAYER1
  6
Continuous
100
AcDbLine
 10
104.932741
 20
207.5
 30
0.0
 11
104.932741
 21
211.5
 31
0.0
  0
LINE
  5
2AE
330
1D
100
AcDbEntity
  8
CSLAYER1
  6
Continuous
100
AcDbLine
 10
327.0
 20
86.0
 30
0.0
 11
326.0
 21
87.0
 31
0.0
  0
LINE
  5
2AF
330
1D
100
AcDbEntity
  8
CSLAYER1
  6
Continuous
100
AcDbLine
 10
326.0
 20
87.0
 30
0.0
 11
326.0
 21
116.0
 31
0.0
  0
LINE
  5
2B0
330
1D
100
AcDbEntity
  8
CSLAYER1
  6
Continuous
100
AcDbLine
 10
331.0
 20
116.0
 30
0.0
 11
331.0
 21
87.0
 31
0.0
  0
LINE
  5
2B1
330
1D
100
AcDbEntity
  8
CSLAYER1
  6
Continuous
100
AcDbLine
 10
331.0
 20
87.0
 30
0.0
 11
330.0
 21
86.0
 31
0.0
  0
LINE
  5
2B2
330
1D
100
AcDbEntity
  8
CSLAYER1
  6
Continuous
100
AcDbLine
 10
330.0
 20
86.0
 30
0.0
 11
327.0
 21
86.0
 31
0.0
  0
LINE
  5
2B3
330
1D
100
AcDbEntity
  8
CSLAYER1
  6
Continuous
100
AcDbLine
 10
326.0
 20
87.0
 30
0.0
 11
331.0
 21
87.0
 31
0.0
  0
LINE
  5
2B4
330
1D
100
AcDbEntity
  8
CSLAYER1
  6
Continuous
100
AcDbLine
 10
335.5
 20
127.5
 30
0.0
 11
338.5
 21
127.5
 31
0.0
  0
LINE
  5
2B5
330
1D
100
AcDbEntity
  8
CSLAYER1
  6
Continuous
100
AcDbLine
 10
338.5
 20
127.5
 30
0.0
 11
338.5
 21
147.5
 31
0.0
  0
LINE
  5
2B6
330
1D
100
AcDbEntity
  8
CSLAYER1
  6
Continuous
100
AcDbLine
 10
338.5
 20
147.5
 30
0.0
 11
335.5
 21
147.5
 31
0.0
  0
LINE
  5
2B7
330
1D
100
AcDbEntity
  8
CSLAYER1
  6
Continuous
100
AcDbLine
 10
335.5
 20
147.5
 30
0.0
 11
335.5
 21
127.5
 31
0.0
  0
LINE
  5
2B8
330
1D
100
AcDbEntity
  8
CSLAYER1
  6
Continuous
100
AcDbLine
 10
335.5
 20
132.0
 30
0.0
 11
293.5
 21
132.0
 31
0.0
  0
LINE
  5
2B9
330
1D
100
AcDbEntity
  8
CSLAYER1
  6
Continuous
100
AcDbLine
 10
293.5
 20
132.0
 30
0.0
 11
293.5
 21
121.0
 31
0.0
  0
LINE
  5
2BA
330
1D
100
AcDbEntity
  8
CSLAYER1
  6
Continuous
100
AcDbLine
 10
293.5
 20
121.0
 30
0.0
 11
295.0
 21
121.0
 31
0.0
  0
LINE
  5
2BB
330
1D
100
AcDbEntity
  8
CSLAYER1
  6
Continuous
100
AcDbLine
 10
295.0
 20
121.0
 30
0.0
 11
295.0
 21
117.0
 31
0.0
  0
LINE
  5
2BC
330
1D
100
AcDbEntity
  8
CSLAYER1
  6
Continuous
100
AcDbLine
 10
294.75
 20
117.0
 30
0.0
 11
294.75
 21
121.0
 31
0.0
  0
LINE
  5
2BD
330
1D
100
AcDbEntity
  8
CSLAYER1
  6
Continuous
100
AcDbLine
 10
293.75
 20
121.0
 30
0.0
 11
293.75
 21
117.0
 31
0.0
  0
LINE
  5
2BE
330
1D
100
AcDbEntity
  8
CSLAYER1
  6
Continuous
100
AcDbLine
 10
293.5
 20
117.0
 30
0.0
 11
293.5
 21
116.0
 31
0.0
  0
LINE
  5
2BF
330
1D
100
AcDbEntity
  8
CSLAYER1
  6
Continuous
100
AcDbLine
 10
293.5
 20
116.0
 30
0.0
 11
363.0
 21
116.0
 31
0.0
  0
LINE
  5
2C0
330
1D
100
AcDbEntity
  8
CSLAYER1
  6
Continuous
100
AcDbLine
 10
363.0
 20
116.0
 30
0.0
 11
363.0
 21
130.5
 31
0.0
  0
ARC
  5
2C1
330
1D
100
AcDbEntity
  8
CSLAYER1
  6
Continuous
100
AcDbCircle
 10
361.5
 20
130.5
 30
0.0
 40
1.5
100
AcDbArc
 50
0.0
 51
90.0
  0
LINE
  5
2C2
330
1D
100
AcDbEntity
  8
CSLAYER1
  6
Continuous
100
AcDbLine
 10
361.5
 20
132.0
 30
0.0
 11
338.5
 21
132.0
 31
0.0
  0
LINE
  5
2C3
330
1D
100
AcDbEntity
  8
CSLAYER1
  6
Continuous
100
AcDbLine
 10
363.0
 20
121.7
 30
0.0
 11
364.0
 21
121.7
 31
0.0
  0
ARC
  5
2C4
330
1D
100
AcDbEntity
  8
CSLAYER1
  6
Continuous
100
AcDbCircle
 10
364.0
 20
120.7
 30
0.0
 40
1.0
100
AcDbArc
 50
0.0
 51
90.0
  0
LINE
  5
2C5
330
1D
100
AcDbEntity
  8
CSLAYER1
  6
Continuous
100
AcDbLine
 10
365.0
 20
120.7
 30
0.0
 11
365.0
 21
116.0
 31
0.0
  0
LINE
  5
2C6
330
1D
100
AcDbEntity
  8
CSLAYER1
  6
Continuous
100
AcDbLine
 10
365.0
 20
116.0
 30
0.0
 11
364.0
 21
116.0
 31
0.0
  0
LINE
  5
2C7
330
1D
100
AcDbEntity
  8
CSLAYER1
  6
Continuous
100
AcDbLine
 10
364.0
 20
116.0
 30
0.0
 11
364.0
 21
120.7
 31
0.0
  0
LINE
  5
2C8
330
1D
100
AcDbEntity
  8
CSLAYER1
  6
Continuous
100
AcDbLine
 10
364.0
 20
120.7
 30
0.0
 11
363.0
 21
120.7
 31
0.0
  0
LINE
  5
2C9
330
1D
100
AcDbEntity
  8
CSLAYER1
  6
Continuous
100
AcDbLine
 10
363.0
 20
117.0
 30
0.0
 11
293.5
 21
117.0
 31
0.0
  0
LINE
  5
2CA
330
1D
100
AcDbEntity
  8
CSLAYER1
  6
Continuous
100
AcDbLine
 10
293.5
 20
122.5
 30
0.0
 11
290.5
 21
122.5
 31
0.0
  0
LINE
  5
2CB
330
1D
100
AcDbEntity
  8
CSLAYER1
  6
Continuous
100
AcDbLine
 10
290.5
 20
122.5
 30
0.0
 11
290.5
 21
129.0
 31
0.0
  0
ARC
  5
2CC
330
1D
100
AcDbEntity
  8
CSLAYER1
  6
Continuous
100
AcDbCircle
 10
292.0
 20
129.0
 30
0.0
 40
1.5
100
AcDbArc
 50
90.0
 51
180.0
  0
LINE
  5
2CD
330
1D
100
AcDbEntity
  8
CSLAYER1
  6
Continuous
100
AcDbLine
 10
292.0
 20
130.5
 30
0.0
 11
293.5
 21
130.5
 31
0.0
  0
LINE
  5
2CE
330
1D
100
AcDbEntity
  8
CSLAYER1
  6
Continuous
100
AcDbLine
 10
229.5929
 20
115.725653
 30
0.0
 11
228.0929
 21
115.725653
 31
0.0
  0
LINE
  5
2CF
330
1D
100
AcDbEntity
  8
CSLAYER1
  6
Continuous
100
AcDbLine
 10
228.0929
 20
115.725653
 30
0.0
 11
228.0929
 21
160.725653
 31
0.0
  0
LINE
  5
2D0
330
1D
100
AcDbEntity
  8
CSLAYER1
  6
Continuous
100
AcDbLine
 10
228.0929
 20
160.725653
 30
0.0
 11
229.5929
 21
160.725653
 31
0.0
  0
LINE
  5
2D1
330
1D
100
AcDbEntity
  8
CSLAYER1
  6
Continuous
100
AcDbLine
 10
229.5929
 20
160.725653
 30
0.0
 11
229.5929
 21
115.725653
 31
0.0
  0
ARC
  5
2D3
330
1D
100
AcDbEntity
  8
CSLAYER1
  6
Continuous
100
AcDbCircle
 10
297.5
 20
213.0
 30
0.0
 40
4.0
100
AcDbArc
 50
180.0
 51
270.0
  0
LINE
  5
2D4
330
1D
100
AcDbEntity
  8
CSLAYER1
  6
Continuous
100
AcDbLine
 10
297.5
 20
209.0
 30
0.0
 11
359.0
 21
209.0
 31
0.0
  0
ARC
  5
2D5
330
1D
100
AcDbEntity
  8
CSLAYER1
  6
Continuous
100
AcDbCircle
 10
359.0
 20
213.0
 30
0.0
 40
4.0
100
AcDbArc
 50
270.0
 51
0.0
  0
LINE
  5
2D6
330
1D
100
AcDbEntity
  8
CSLAYER1
  6
Continuous
100
AcDbLine
 10
363.0
 20
213.0
 30
0.0
 11
363.0
 21
251.0
 31
0.0
  0
ARC
  5
2D7
330
1D
100
AcDbEntity
  8
CSLAYER1
  6
Continuous
100
AcDbCircle
 10
359.0
 20
251.0
 30
0.0
 40
4.0
100
AcDbArc
 50
0.0
 51
90.0
  0
LINE
  5
2D8
330
1D
100
AcDbEntity
  8
CSLAYER1
  6
Continuous
100
AcDbLine
 10
359.0
 20
255.0
 30
0.0
 11
297.5
 21
255.0
 31
0.0
  0
ARC
  5
2D9
330
1D
100
AcDbEntity
  8
CSLAYER1
  6
Continuous
100
AcDbCircle
 10
297.5
 20
251.0
 30
0.0
 40
4.0
100
AcDbArc
 50
90.0
 51
180.0
  0
LINE
  5
2DA
330
1D
100
AcDbEntity
  8
CSLAYER1
  6
Continuous
100
AcDbLine
 10
293.5
 20
251.0
 30
0.0
 11
293.5
 21
213.0
 31
0.0
  0
LINE
  5
2DB
330
1D
100
AcDbEntity
  8
CSLAYER1
  6
Continuous
100
AcDbLine
 10
293.5
 20
220.5
 30
0.0
 11
335.5
 21
220.5
 31
0.0
  0
LINE
  5
2DC
330
1D
100
AcDbEntity
  8
CSLAYER1
  6
Continuous
100
AcDbLine
 10
338.5
 20
220.5
 30
0.0
 11
363.0
 21
220.5
 31
0.0
  0
LINE
  5
2DD
330
1D
100
AcDbEntity
  8
CSLAYER1
  6
Continuous
100
AcDbLine
 10
364.0
 20
221.5
 30
0.0
 11
365.0
 21
221.5
 31
0.0
  0
LINE
  5
2DE
330
1D
100
AcDbEntity
  8
CSLAYER1
  6
Continuous
100
AcDbLine
 10
365.0
 20
221.5
 30
0.0
 11
365.0
 21
242.5
 31
0.0
  0
LINE
  5
2DF
330
1D
100
AcDbEntity
  8
CSLAYER1
  6
Continuous
100
AcDbLine
 10
365.0
 20
242.5
 30
0.0
 11
364.0
 21
242.5
 31
0.0
  0
LINE
  5
2E0
330
1D
100
AcDbEntity
  8
CSLAYER1
  6
Continuous
100
AcDbLine
 10
364.0
 20
242.5
 30
0.0
 11
364.0
 21
241.4
 31
0.0
  0
LINE
  5
2E1
330
1D
100
AcDbEntity
  8
CSLAYER1
  6
Continuous
100
AcDbLine
 10
365.0
 20
241.4
 30
0.0
 11
363.0
 21
241.4
 31
0.0
  0
LINE
  5
2E2
330
1D
100
AcDbEntity
  8
CSLAYER1
  6
Continuous
100
AcDbLine
 10
363.0
 20
243.5
 30
0.0
 11
338.5
 21
243.5
 31
0.0
  0
LINE
  5
2E3
330
1D
100
AcDbEntity
  8
CSLAYER1
  6
Continuous
100
AcDbLine
 10
335.5
 20
243.5
 30
0.0
 11
293.5
 21
243.5
 31
0.0
  0
LINE
  5
2E4
330
1D
100
AcDbEntity
  8
CSLAYER1
  6
Continuous
100
AcDbLine
 10
293.5
 20
242.0
 30
0.0
 11
290.5
 21
242.0
 31
0.0
  0
LINE
  5
2E5
330
1D
100
AcDbEntity
  8
CSLAYER1
  6
Continuous
100
AcDbLine
 10
290.5
 20
242.0
 30
0.0
 11
290.5
 21
222.0
 31
0.0
  0
LINE
  5
2E6
330
1D
100
AcDbEntity
  8
CSLAYER1
  6
Continuous
100
AcDbLine
 10
290.5
 20
222.0
 30
0.0
 11
293.5
 21
222.0
 31
0.0
  0
LINE
  5
2E9
330
1D
100
AcDbEntity
  8
CSLAYER1
  6
Continuous
100
AcDbLine
 10
315.5
 20
238.0
 30
0.0
 11
335.5
 21
238.0
 31
0.0
  0
LINE
  5
2EA
330
1D
100
AcDbEntity
  8
CSLAYER1
  6
Continuous
100
AcDbLine
 10
331.5
 20
233.5
 30
0.0
 11
324.5
 21
233.5
 31
0.0
  0
LINE
  5
2EB
330
1D
100
AcDbEntity
  8
CSLAYER1
  6
Continuous
100
AcDbLine
 10
324.5
 20
233.5
 30
0.0
 11
324.5
 21
236.0
 31
0.0
  0
LINE
  5
2EC
330
1D
100
AcDbEntity
  8
CSLAYER1
  6
Continuous
100
AcDbLine
 10
324.5
 20
236.0
 30
0.0
 11
319.5
 21
232.0
 31
0.0
  0
LINE
  5
2ED
330
1D
100
AcDbEntity
  8
CSLAYER1
  6
Continuous
100
AcDbLine
 10
319.5
 20
232.0
 30
0.0
 11
324.5
 21
228.0
 31
0.0
  0
LINE
  5
2EE
330
1D
100
AcDbEntity
  8
CSLAYER1
  6
Continuous
100
AcDbLine
 10
324.5
 20
228.0
 30
0.0
 11
324.5
 21
230.5
 31
0.0
  0
LINE
  5
2EF
330
1D
100
AcDbEntity
  8
CSLAYER1
  6
Continuous
100
AcDbLine
 10
324.5
 20
230.5
 30
0.0
 11
331.5
 21
230.5
 31
0.0
  0
LINE
  5
2F0
330
1D
100
AcDbEntity
  8
CSLAYER1
  6
Continuous
100
AcDbLine
 10
331.5
 20
230.5
 30
0.0
 11
331.5
 21
233.5
 31
0.0
  0
LINE
  5
2F1
330
1D
100
AcDbEntity
  8
CSLAYER1
  6
Continuous
100
AcDbLine
 10
335.5
 20
226.0
 30
0.0
 11
315.5
 21
226.0
 31
0.0
  0
LINE
  5
2F2
330
1D
100
AcDbEntity
  8
CSLAYER1
  6
Continuous
100
AcDbLine
 10
315.5
 20
226.0
 30
0.0
 11
315.5
 21
238.0
 31
0.0
  0
LINE
  5
2F3
330
1D
100
AcDbEntity
  8
CSLAYER1
  6
Continuous
100
AcDbLine
 10
335.5
 20
250.0
 30
0.0
 11
335.5
 21
214.0
 31
0.0
  0
LINE
  5
2F4
330
1D
100
AcDbEntity
  8
CSLAYER1
  6
Continuous
100
AcDbLine
 10
335.5
 20
214.0
 30
0.0
 11
338.5
 21
214.0
 31
0.0
  0
LINE
  5
2F5
330
1D
100
AcDbEntity
  8
CSLAYER1
  6
Continuous
100
AcDbLine
 10
338.5
 20
214.0
 30
0.0
 11
338.5
 21
250.0
 31
0.0
  0
LINE
  5
2F6
330
1D
100
AcDbEntity
  8
CSLAYER1
  6
Continuous
100
AcDbLine
 10
338.5
 20
250.0
 30
0.0
 11
335.5
 21
250.0
 31
0.0
  0
LINE
  5
2F8
330
1D
100
AcDbEntity
  8
CSLAYER1
  6
Continuous
100
AcDbLine
 10
363.0
 20
222.6
 30
0.0
 11
365.0
 21
222.6
 31
0.0
  0
LINE
  5
2F9
330
1D
100
AcDbEntity
  8
CSLAYER1
  6
Continuous
100
AcDbLine
 10
364.0
 20
222.6
 30
0.0
 11
364.0
 21
221.5
 31
0.0
  0
LINE
  5
30A
330
1D
100
AcDbEntity
  8
CSLAYER10
  6
Continuous
100
AcDbLine
 10
163.077381
 20
94.725653
 30
0.0
 11
163.077381
 21
126.775653
 31
0.0
  0
LINE
  5
30B
330
1D
100
AcDbEntity
  8
CSLAYER10
  6
Continuous
100
AcDbLine
 10
158.527381
 20
122.225653
 30
0.0
 11
196.077381
 21
122.225653
 31
0.0
  0
LINE
  5
30C
330
1D
100
AcDbEntity
  8
CSLAYER10
  6
Continuous
100
AcDbLine
 10
185.172619
 20
138.225653
 30
0.0
 11
126.005952
 21
138.225653
 31
0.0
  0
LINE
  5
30D
330
1D
100
AcDbEntity
  8
CSLAYER10
  6
Continuous
100
AcDbLine
 10
173.077381
 20
94.725653
 30
0.0
 11
173.077381
 21
142.775653
 31
0.0
  0
LINE
  5
30E
330
1D
100
AcDbEntity
  8
CSLAYER10
  6
Continuous
100
AcDbLine
 10
163.077381
 20
149.675653
 30
0.0
 11
163.077381
 21
158.775653
 31
0.0
  0
LINE
  5
30F
330
1D
100
AcDbEntity
  8
CSLAYER10
  6
Continuous
100
AcDbLine
 10
158.527381
 20
154.225653
 30
0.0
 11
196.077381
 21
154.225653
 31
0.0
  0
LINE
  5
310
330
1D
100
AcDbEntity
  8
CSLAYER10
  6
Continuous
100
AcDbLine
 10
223.021471
 20
154.225653
 30
0.0
 11
236.545281
 21
154.225653
 31
0.0
  0
LINE
  5
311
330
1D
100
AcDbEntity
  8
CSLAYER10
  6
Continuous
100
AcDbLine
 10
303.5
 20
196.0
 30
0.0
 11
303.5
 21
219.225
 31
0.0
  0
LINE
  5
312
330
1D
100
AcDbEntity
  8
CSLAYER10
  6
Continuous
100
AcDbLine
 10
299.275
 20
215.0
 30
0.0
 11
307.725
 21
215.0
 31
0.0
  0
LINE
  5
313
330
1D
100
AcDbEntity
  8
CSLAYER10
  6
PHANTOM
100
AcDbLine
 10
315.5
 20
214.0
 30
0.0
 11
318.5
 21
214.0
 31
0.0
  0
LINE
  5
314
330
1D
100
AcDbEntity
  8
CSLAYER10
  6
PHANTOM
100
AcDbLine
 10
318.5
 20
214.0
 30
0.0
 11
318.5
 21
250.0
 31
0.0
  0
LINE
  5
315
330
1D
100
AcDbEntity
  8
CSLAYER10
  6
PHANTOM
100
AcDbLine
 10
318.5
 20
250.0
 30
0.0
 11
315.5
 21
250.0
 31
0.0
  0
LINE
  5
316
330
1D
100
AcDbEntity
  8
CSLAYER10
  6
PHANTOM
100
AcDbLine
 10
315.5
 20
250.0
 30
0.0
 11
315.5
 21
238.0
 31
0.0
  0
LINE
  5
317
330
1D
100
AcDbEntity
  8
CSLAYER10
  6
PHANTOM
100
AcDbLine
 10
315.5
 20
226.0
 30
0.0
 11
315.5
 21
214.0
 31
0.0
  0
LINE
  5
318
330
1D
100
AcDbEntity
  8
CSLAYER10
  6
Continuous
100
AcDbLine
 10
349.275
 20
215.0
 30
0.0
 11
357.725
 21
215.0
 31
0.0
  0
LINE
  5
319
330
1D
100
AcDbEntity
  8
CSLAYER10
  6
Continuous
100
AcDbLine
 10
353.5
 20
219.225
 30
0.0
 11
353.5
 21
196.0
 31
0.0
  0
LINE
  5
31A
330
1D
100
AcDbEntity
  8
CSLAYER10
  6
PHANTOM
100
AcDbLine
 10
318.5
 20
147.5
 30
0.0
 11
318.5
 21
127.5
 31
0.0
  0
LINE
  5
31B
330
1D
100
AcDbEntity
  8
CSLAYER10
  6
PHANTOM
100
AcDbLine
 10
318.5
 20
127.5
 30
0.0
 11
315.5
 21
127.5
 31
0.0
  0
LINE
  5
31C
330
1D
100
AcDbEntity
  8
CSLAYER10
  6
PHANTOM
100
AcDbLine
 10
315.5
 20
127.5
 30
0.0
 11
315.5
 21
147.5
 31
0.0
  0
LINE
  5
31D
330
1D
100
AcDbEntity
  8
CSLAYER10
  6
PHANTOM
100
AcDbLine
 10
315.5
 20
147.5
 30
0.0
 11
318.5
 21
147.5
 31
0.0
  0
LINE
  5
31E
330
1D
100
AcDbEntity
  8
CSLAYER10
  6
Continuous
100
AcDbLine
 10
328.5
 20
135.5
 30
0.0
 11
328.5
 21
89.0
 31
0.0
  0
LINE
  5
31F
330
1D
100
AcDbEntity
  8
CSLAYER10
  6
Continuous
100
AcDbLine
 10
326.0
 20
87.0
 30
0.0
 11
331.0
 21
116.0
 31
0.0
  0
LINE
  5
320
330
1D
100
AcDbEntity
  8
CSLAYER10
  6
Continuous
100
AcDbLine
 10
326.0
 20
116.0
 30
0.0
 11
331.0
 21
87.0
 31
0.0
  0
LINE
  5
321
330
1D
100
AcDbEntity
  8
CSLAYER10
  6
Continuous
100
AcDbLine
 10
353.5
 20
110.230949
 30
0.0
 11
353.5
 21
122.064282
 31
0.0
  0
LINE
  5
322
330
1D
100
AcDbEntity
  8
CSLAYER10
  6
Continuous
100
AcDbLine
 10
303.5
 20
122.064282
 30
0.0
 11
303.5
 21
110.230949
 31
0.0
  0
LINE
  5
323
330
1D
100
AcDbEntity
  8
CSLAYER10
  6
PHANTOM
100
AcDbLine
 10
290.5
 20
122.5
 30
0.0
 11
270.5
 21
122.5
 31
0.0
  0
LINE
  5
324
330
1D
100
AcDbEntity
  8
CSLAYER10
  6
PHANTOM
100
AcDbLine
 10
270.5
 20
122.5
 30
0.0
 11
270.5
 21
129.0
 31
0.0
  0
ARC
  5
325
330
1D
100
AcDbEntity
  8
CSLAYER10
  6
PHANTOM
100
AcDbCircle
 10
272.0
 20
129.0
 30
0.0
 40
1.5
100
AcDbArc
 50
90.0
 51
180.0
  0
LINE
  5
326
330
1D
100
AcDbEntity
  8
CSLAYER10
  6
PHANTOM
100
AcDbLine
 10
272.0
 20
130.5
 30
0.0
 11
292.0
 21
130.5
 31
0.0
  0
LINE
  5
327
330
1D
100
AcDbEntity
  8
CSLAYER10
  6
Continuous
100
AcDbLine
 10
255.5
 20
116.0
 30
0.0
 11
255.5
 21
105.61823
 31
0.0
  0
LINE
  5
328
330
1D
100
AcDbEntity
  8
CSLAYER10
  6
Continuous
100
AcDbLine
 10
236.545281
 20
122.225653
 30
0.0
 11
223.021471
 21
122.225653
 31
0.0
  0
LINE
  5
329
330
1D
100
AcDbEntity
  8
CSLAYER10
  6
Continuous
100
AcDbLine
 10
223.021471
 20
138.225653
 30
0.0
 11
236.545281
 21
138.225653
 31
0.0
  0
LINE
  5
347
330
1D
100
AcDbEntity
  8
CSLAYER10
  6
Continuous
100
AcDbLine
 10
370.700038
 20
232.0
 30
0.0
 11
266.855162
 21
232.0
 31
0.0
  0
LINE
  5
348
330
1D
100
AcDbEntity
  8
CSLAYER10
  6
PHANTOM
100
AcDbLine
 10
270.5
 20
242.0
 30
0.0
 11
290.5
 21
242.0
 31
0.0
  0
LINE
  5
349
330
1D
100
AcDbEntity
  8
CSLAYER10
  6
Continuous
100
AcDbLine
 10
299.275
 20
249.0
 30
0.0
 11
307.725
 21
249.0
 31
0.0
  0
LINE
  5
34A
330
1D
100
AcDbEntity
  8
CSLAYER10
  6
Continuous
100
AcDbLine
 10
349.275
 20
249.0
 30
0.0
 11
357.725
 21
249.0
 31
0.0
  0
LINE
  5
34B
330
1D
100
AcDbEntity
  8
CSLAYER10
  6
Continuous
100
AcDbLine
 10
353.5
 20
253.225
 30
0.0
 11
353.5
 21
244.775
 31
0.0
  0
LINE
  5
34C
330
1D
100
AcDbEntity
  8
CSLAYER10
  6
Continuous
100
AcDbLine
 10
303.5
 20
244.775
 30
0.0
 11
303.5
 21
253.225
 31
0.0
  0
LINE
  5
34D
330
1D
100
AcDbEntity
  8
CSLAYER10
  6
PHANTOM
100
AcDbLine
 10
290.5
 20
222.0
 30
0.0
 11
270.5
 21
222.0
 31
0.0
  0
LINE
  5
34E
330
1D
100
AcDbEntity
  8
CSLAYER10
  6
PHANTOM
100
AcDbLine
 10
270.5
 20
222.0
 30
0.0
 11
270.5
 21
242.0
 31
0.0
  0
LINE
  5
34F
330
1D
100
AcDbEntity
  8
CSLAYER10
  6
Continuous
100
AcDbLine
 10
219.167856
 20
232.0
 30
0.0
 11
144.453736949705
 21
232.0
 31
0.0
  0
LINE
  5
350
330
1D
100
AcDbEntity
  8
CSLAYER10
  6
Continuous
100
AcDbLine
 10
167.980109
 20
229.05
 30
0.0
 11
182.580109
 21
234.95
 31
0.0
  0
LINE
  5
351
330
1D
100
AcDbEntity
  8
CSLAYER10
  6
Continuous
100
AcDbLine
 10
182.580109
 20
229.05
 30
0.0
 11
167.980109
 21
234.95
 31
0.0
  0
LINE
  5
352
330
1D
100
AcDbEntity
  8
CSLAYER10
  6
Continuous
100
AcDbLine
 10
176.811058
 20
249.0
 30
0.0
 11
188.644391
 21
249.0
 31
0.0
  0
LINE
  5
353
330
1D
100
AcDbEntity
  8
CSLAYER10
  6
Continuous
100
AcDbLine
 10
188.644391
 20
215.0
 30
0.0
 11
176.811058
 21
215.0
 31
0.0
  0
LINE
  5
354
102
{ACAD_REACTORS
330
614
102
}
330
1D
100
AcDbEntity
  8
CSLAYER10
  6
Continuous
100
AcDbLine
 10
119.508592
 20
232.0
 30
0.0
 11
63.236146
 21
232.0
 31
0.0
  0
CIRCLE
  5
355
102
{ACAD_REACTORS
330
614
102
}
330
1D
100
AcDbEntity
  8
CSLAYER10
  6
CENTER
100
AcDbCircle
 10
90.932741
 20
232.0
 30
0.0
 40
7.5
  0
LINE
  5
356
102
{ACAD_REACTORS
330
614
102
}
330
1D
100
AcDbEntity
  8
CSLAYER10
  6
Continuous
100
AcDbLine
 10
90.932741
 20
195.685596
 30
0.0
 11
90.932741
 21
266.784667
 31
0.0
  0
TEXT
  5
366
330
1D
100
AcDbEntity
  8
CSLAYER10
100
AcDbText
 10
355.65
 20
13.281871
 30
0.0
 40
2.7
  1
 
 41
1.666666666667
  7
FX_FONT
 72
     5
 11
358.35
 21
13.281871
 31
0.0
100
AcDbText
  0
TEXT
  5
380
330
1D
100
AcDbEntity
  8
CSLAYER10
100
AcDbText
 10
319.305481
 20
168.39032
 30
0.0
 40
4.0
  1
スライド
 41
0.681818181818
  7
FX_FONT
 72
     5
 11
331.305481
 21
168.39032
 31
0.0
100
AcDbText
  0
TEXT
  5
384
330
1D
100
AcDbEntity
  8
CSLAYER10
100
AcDbText
 10
162.080109
 20
186.0
 30
0.0
 40
4.0
  1
取付扉厚
 41
0.606617647059
  7
FX_FONT
 72
     5
 11
173.080109
 21
186.0
 31
0.0
100
AcDbText
  0
TEXT
  5
442
330
1D
100
AcDbEntity
  8
CSLAYER10
100
AcDbText
 10
225.580109
 20
229.5
 30
0.0
 40
4.0
  1
36
 50
90.0
 41
0.681818181818
  7
FX_FONT
 72
     5
 11
225.580109
 21
234.5
 31
0.0
100
AcDbText
  0
LINE
  5
443
330
1D
100
AcDbEntity
  8
CSLAYER10
  6
Continuous
100
AcDbLine
 10
207.580109
 20
214.0
 30
0.0
 11
227.580109
 21
214.0
 31
0.0
  0
LINE
  5
444
330
1D
100
AcDbEntity
  8
CSLAYER10
  6
Continuous
100
AcDbLine
 10
207.580109
 20
250.0
 30
0.0
 11
227.580109
 21
250.0
 31
0.0
  0
LINE
  5
445
330
1D
100
AcDbEntity
  8
CSLAYER10
  6
Continuous
100
AcDbLine
 10
226.580109
 20
214.0
 30
0.0
 11
226.580109
 21
250.0
 31
0.0
  0
LINE
  5
446
330
1D
100
AcDbEntity
  8
CSLAYER10
  6
Continuous
100
AcDbLine
 10
226.580109
 20
214.0
 30
0.0
 11
226.062471
 21
215.931852
 31
0.0
  0
LINE
  5
447
330
1D
100
AcDbEntity
  8
CSLAYER10
  6
Continuous
100
AcDbLine
 10
226.580109
 20
214.0
 30
0.0
 11
227.097747
 21
215.931852
 31
0.0
  0
LINE
  5
448
330
1D
100
AcDbEntity
  8
CSLAYER10
  6
Continuous
100
AcDbLine
 10
226.580109
 20
250.0
 30
0.0
 11
226.062471
 21
248.068148
 31
0.0
  0
LINE
  5
449
330
1D
100
AcDbEntity
  8
CSLAYER10
  6
Continuous
100
AcDbLine
 10
226.580109
 20
250.0
 30
0.0
 11
227.097747
 21
248.068148
 31
0.0
  0
TEXT
  5
44A
330
1D
100
AcDbEntity
  8
CSLAYER10
100
AcDbText
 10
186.080093
 20
191.999985
 30
0.0
 40
4.0
  1
12
 41
0.681818181818
  7
FX_FONT
 72
     5
 11
191.080093
 21
191.999985
 31
0.0
100
AcDbText
  0
LINE
  5
44B
330
1D
100
AcDbEntity
  8
CSLAYER10
  6
Continuous
100
AcDbLine
 10
182.580109
 20
208.0
 30
0.0
 11
182.580109
 21
190.0
 31
0.0
  0
LINE
  5
44C
330
1D
100
AcDbEntity
  8
CSLAYER10
  6
Continuous
100
AcDbLine
 10
194.580109
 20
215.0
 30
0.0
 11
194.580109
 21
190.0
 31
0.0
  0
LINE
  5
44D
330
1D
100
AcDbEntity
  8
CSLAYER10
  6
Continuous
100
AcDbLine
 10
182.580109
 20
191.0
 30
0.0
 11
194.580109
 21
191.0
 31
0.0
  0
LINE
  5
44E
330
1D
100
AcDbEntity
  8
CSLAYER10
  6
Continuous
100
AcDbLine
 10
182.580109
 20
191.0
 30
0.0
 11
184.511961
 21
191.517638
 31
0.0
  0
LINE
  5
44F
330
1D
100
AcDbEntity
  8
CSLAYER10
  6
Continuous
100
AcDbLine
 10
182.580109
 20
191.0
 30
0.0
 11
184.511961
 21
190.482362
 31
0.0
  0
LINE
  5
450
330
1D
100
AcDbEntity
  8
CSLAYER10
  6
Continuous
100
AcDbLine
 10
194.580109
 20
191.0
 30
0.0
 11
192.648258
 21
191.517638
 31
0.0
  0
LINE
  5
451
330
1D
100
AcDbEntity
  8
CSLAYER10
  6
Continuous
100
AcDbLine
 10
194.580109
 20
191.0
 30
0.0
 11
192.648258
 21
190.482362
 31
0.0
  0
TEXT
  5
452
330
1D
100
AcDbEntity
  8
CSLAYER10
100
AcDbText
 10
202.080093
 20
191.999985
 30
0.0
 40
4.0
  1
20
 41
0.705329153605
  7
FX_FONT
 72
     5
 11
207.080093
 21
191.999985
 31
0.0
100
AcDbText
  0
LINE
  5
453
330
1D
100
AcDbEntity
  8
CSLAYER10
  6
Continuous
100
AcDbLine
 10
214.580109
 20
221.0
 30
0.0
 11
214.580109
 21
181.0
 31
0.0
  0
LINE
  5
454
330
1D
100
AcDbEntity
  8
CSLAYER10
  6
Continuous
100
AcDbLine
 10
194.580109
 20
191.0
 30
0.0
 11
214.580109
 21
191.0
 31
0.0
  0
LINE
  5
455
330
1D
100
AcDbEntity
  8
CSLAYER10
  6
Continuous
100
AcDbLine
 10
194.580109
 20
191.0
 30
0.0
 11
196.511961
 21
191.517638
 31
0.0
  0
LINE
  5
456
330
1D
100
AcDbEntity
  8
CSLAYER10
  6
Continuous
100
AcDbLine
 10
194.580109
 20
191.0
 30
0.0
 11
196.511961
 21
190.482362
 31
0.0
  0
LINE
  5
457
330
1D
100
AcDbEntity
  8
CSLAYER10
  6
Continuous
100
AcDbLine
 10
214.580109
 20
191.0
 30
0.0
 11
212.648258
 21
191.517638
 31
0.0
  0
LINE
  5
458
330
1D
100
AcDbEntity
  8
CSLAYER10
  6
Continuous
100
AcDbLine
 10
214.580109
 20
191.0
 30
0.0
 11
212.648258
 21
190.482362
 31
0.0
  0
TEXT
  5
459
330
1D
100
AcDbEntity
  8
CSLAYER10
100
AcDbText
 10
196.080093
 20
183.0
 30
0.0
 40
4.0
  1
32
 41
0.681818181818
  7
FX_FONT
 72
     5
 11
201.080093
 21
183.0
 31
0.0
100
AcDbText
  0
LINE
  5
45A
330
1D
100
AcDbEntity
  8
CSLAYER10
  6
Continuous
100
AcDbLine
 10
182.580109
 20
182.0
 30
0.0
 11
214.580109
 21
182.0
 31
0.0
  0
LINE
  5
45B
330
1D
100
AcDbEntity
  8
CSLAYER10
  6
Continuous
100
AcDbLine
 10
182.580109
 20
182.0
 30
0.0
 11
184.511961
 21
182.517638
 31
0.0
  0
LINE
  5
45C
330
1D
100
AcDbEntity
  8
CSLAYER10
  6
Continuous
100
AcDbLine
 10
182.580109
 20
182.0
 30
0.0
 11
184.511961
 21
181.482362
 31
0.0
  0
LINE
  5
45D
330
1D
100
AcDbEntity
  8
CSLAYER10
  6
Continuous
100
AcDbLine
 10
214.580109
 20
182.0
 30
0.0
 11
212.648258
 21
182.517638
 31
0.0
  0
LINE
  5
45E
330
1D
100
AcDbEntity
  8
CSLAYER10
  6
Continuous
100
AcDbLine
 10
214.580109
 20
182.0
 30
0.0
 11
212.648258
 21
181.482362
 31
0.0
  0
TEXT
  5
45F
330
1D
100
AcDbEntity
  8
CSLAYER10
100
AcDbText
 10
386.0
 20
229.5
 30
0.0
 40
4.0
  1
46
 50
90.0
 41
0.681818181818
  7
FX_FONT
 72
     5
 11
386.0
 21
234.5
 31
0.0
100
AcDbText
  0
LINE
  5
460
330
1D
100
AcDbEntity
  8
CSLAYER10
  6
Continuous
100
AcDbLine
 10
360.5
 20
209.0
 30
0.0
 11
388.0
 21
209.0
 31
0.0
  0
LINE
  5
461
330
1D
100
AcDbEntity
  8
CSLAYER10
  6
Continuous
100
AcDbLine
 10
360.5
 20
255.0
 30
0.0
 11
388.0
 21
255.0
 31
0.0
  0
LINE
  5
462
330
1D
100
AcDbEntity
  8
CSLAYER10
  6
Continuous
100
AcDbLine
 10
387.0
 20
209.0
 30
0.0
 11
387.0
 21
255.0
 31
0.0
  0
LINE
  5
463
330
1D
100
AcDbEntity
  8
CSLAYER10
  6
Continuous
100
AcDbLine
 10
387.0
 20
209.0
 30
0.0
 11
386.482362
 21
210.931852
 31
0.0
  0
LINE
  5
464
330
1D
100
AcDbEntity
  8
CSLAYER10
  6
Continuous
100
AcDbLine
 10
387.0
 20
209.0
 30
0.0
 11
387.517638
 21
210.931852
 31
0.0
  0
LINE
  5
465
330
1D
100
AcDbEntity
  8
CSLAYER10
  6
Continuous
100
AcDbLine
 10
387.0
 20
255.0
 30
0.0
 11
386.482362
 21
253.068148
 31
0.0
  0
LINE
  5
466
330
1D
100
AcDbEntity
  8
CSLAYER10
  6
Continuous
100
AcDbLine
 10
387.0
 20
255.0
 30
0.0
 11
387.517638
 21
253.068148
 31
0.0
  0
TEXT
  5
467
330
1D
100
AcDbEntity
  8
CSLAYER10
100
AcDbText
 10
376.0
 20
229.5
 30
0.0
 40
4.0
  1
34
 50
90.0
 41
0.681818181818
  7
FX_FONT
 72
     5
 11
376.0
 21
234.5
 31
0.0
100
AcDbText
  0
LINE
  5
468
330
1D
100
AcDbEntity
  8
CSLAYER10
  6
Continuous
100
AcDbLine
 10
357.1
 20
215.0
 30
0.0
 11
378.0
 21
215.0
 31
0.0
  0
LINE
  5
469
330
1D
100
AcDbEntity
  8
CSLAYER10
  6
Continuous
100
AcDbLine
 10
357.1
 20
249.0
 30
0.0
 11
378.0
 21
249.0
 31
0.0
  0
LINE
  5
46A
330
1D
100
AcDbEntity
  8
CSLAYER10
  6
Continuous
100
AcDbLine
 10
377.0
 20
215.0
 30
0.0
 11
377.0
 21
249.0
 31
0.0
  0
LINE
  5
46B
330
1D
100
AcDbEntity
  8
CSLAYER10
  6
Continuous
100
AcDbLine
 10
377.0
 20
215.0
 30
0.0
 11
376.482362
 21
216.931852
 31
0.0
  0
LINE
  5
46C
330
1D
100
AcDbEntity
  8
CSLAYER10
  6
Continuous
100
AcDbLine
 10
377.0
 20
215.0
 30
0.0
 11
377.517638
 21
216.931852
 31
0.0
  0
LINE
  5
46D
330
1D
100
AcDbEntity
  8
CSLAYER10
  6
Continuous
100
AcDbLine
 10
377.0
 20
249.0
 30
0.0
 11
376.482362
 21
247.068148
 31
0.0
  0
LINE
  5
46E
330
1D
100
AcDbEntity
  8
CSLAYER10
  6
Continuous
100
AcDbLine
 10
377.0
 20
249.0
 30
0.0
 11
377.517638
 21
247.068148
 31
0.0
  0
TEXT
  5
46F
330
1D
100
AcDbEntity
  8
CSLAYER10
100
AcDbText
 10
326.0
 20
198.0
 30
0.0
 40
4.0
  1
50
 41
0.702576112412
  7
FX_FONT
 72
     5
 11
331.0
 21
198.0
 31
0.0
100
AcDbText
  0
LINE
  5
470
330
1D
100
AcDbEntity
  8
CSLAYER10
  6
Continuous
100
AcDbLine
 10
303.5
 20
197.0
 30
0.0
 11
353.5
 21
197.0
 31
0.0
  0
LINE
  5
471
330
1D
100
AcDbEntity
  8
CSLAYER10
  6
Continuous
100
AcDbLine
 10
303.5
 20
197.0
 30
0.0
 11
305.431852
 21
197.517638
 31
0.0
  0
LINE
  5
472
330
1D
100
AcDbEntity
  8
CSLAYER10
  6
Continuous
100
AcDbLine
 10
303.5
 20
197.0
 30
0.0
 11
305.431852
 21
196.482362
 31
0.0
  0
LINE
  5
473
330
1D
100
AcDbEntity
  8
CSLAYER10
  6
Continuous
100
AcDbLine
 10
353.5
 20
197.0
 30
0.0
 11
351.568148
 21
197.517638
 31
0.0
  0
LINE
  5
474
330
1D
100
AcDbEntity
  8
CSLAYER10
  6
Continuous
100
AcDbLine
 10
353.5
 20
197.0
 30
0.0
 11
351.568148
 21
196.482362
 31
0.0
  0
LINE
  5
475
330
1D
100
AcDbEntity
  8
CSLAYER10
  6
Continuous
100
AcDbLine
 10
293.5
 20
212.0
 30
0.0
 11
293.5
 21
186.0
 31
0.0
  0
TEXT
  5
476
330
1D
100
AcDbEntity
  8
CSLAYER10
100
AcDbText
 10
279.5
 20
188.0
 30
0.0
 40
4.0
  1
23
 41
0.681818181818
  7
FX_FONT
 72
     5
 11
284.5
 21
188.0
 31
0.0
100
AcDbText
  0
LINE
  5
477
330
1D
100
AcDbEntity
  8
CSLAYER10
  6
Continuous
100
AcDbLine
 10
270.5
 20
221.0
 30
0.0
 11
270.5
 21
186.0
 31
0.0
  0
LINE
  5
478
330
1D
100
AcDbEntity
  8
CSLAYER10
  6
Continuous
100
AcDbLine
 10
270.5
 20
187.0
 30
0.0
 11
293.5
 21
187.0
 31
0.0
  0
LINE
  5
479
330
1D
100
AcDbEntity
  8
CSLAYER10
  6
Continuous
100
AcDbLine
 10
270.5
 20
187.0
 30
0.0
 11
272.431852
 21
187.517638
 31
0.0
  0
LINE
  5
47A
330
1D
100
AcDbEntity
  8
CSLAYER10
  6
Continuous
100
AcDbLine
 10
270.5
 20
187.0
 30
0.0
 11
272.431852
 21
186.482362
 31
0.0
  0
LINE
  5
47B
330
1D
100
AcDbEntity
  8
CSLAYER10
  6
Continuous
100
AcDbLine
 10
293.5
 20
187.0
 30
0.0
 11
291.568148
 21
187.517638
 31
0.0
  0
LINE
  5
47C
330
1D
100
AcDbEntity
  8
CSLAYER10
  6
Continuous
100
AcDbLine
 10
293.5
 20
187.0
 30
0.0
 11
291.568148
 21
186.482362
 31
0.0
  0
TEXT
  5
47D
330
1D
100
AcDbEntity
  8
CSLAYER10
100
AcDbText
 10
323.25
 20
188.0
 30
0.0
 40
4.0
  1
69.5
 41
0.650916104147
  7
FX_FONT
 72
     5
 11
333.25
 21
188.0
 31
0.0
100
AcDbText
  0
LINE
  5
47E
330
1D
100
AcDbEntity
  8
CSLAYER10
  6
Continuous
100
AcDbLine
 10
293.5
 20
187.0
 30
0.0
 11
363.0
 21
187.0
 31
0.0
  0
LINE
  5
47F
330
1D
100
AcDbEntity
  8
CSLAYER10
  6
Continuous
100
AcDbLine
 10
293.5
 20
187.0
 30
0.0
 11
295.431852
 21
187.517638
 31
0.0
  0
LINE
  5
480
330
1D
100
AcDbEntity
  8
CSLAYER10
  6
Continuous
100
AcDbLine
 10
293.5
 20
187.0
 30
0.0
 11
295.431852
 21
186.482362
 31
0.0
  0
LINE
  5
481
330
1D
100
AcDbEntity
  8
CSLAYER10
  6
Continuous
100
AcDbLine
 10
363.0
 20
187.0
 30
0.0
 11
361.068148
 21
187.517638
 31
0.0
  0
LINE
  5
482
330
1D
100
AcDbEntity
  8
CSLAYER10
  6
Continuous
100
AcDbLine
 10
363.0
 20
187.0
 30
0.0
 11
361.068148
 21
186.482362
 31
0.0
  0
LINE
  5
483
330
1D
100
AcDbEntity
  8
CSLAYER10
  6
Continuous
100
AcDbLine
 10
363.0
 20
212.0
 30
0.0
 11
363.0
 21
186.0
 31
0.0
  0
TEXT
  5
484
330
1D
100
AcDbEntity
  8
CSLAYER10
100
AcDbText
 10
367.25
 20
188.0
 30
0.0
 40
4.0
  1
2
 41
0.75
  7
FX_FONT
 72
     5
 11
369.75
 21
188.0
 31
0.0
100
AcDbText
  0
LINE
  5
485
330
1D
100
AcDbEntity
  8
CSLAYER10
  6
Continuous
100
AcDbLine
 10
363.0
 20
187.0
 30
0.0
 11
365.0
 21
187.0
 31
0.0
  0
LINE
  5
486
330
1D
100
AcDbEntity
  8
CSLAYER10
  6
Continuous
100
AcDbLine
 10
365.0
 20
220.5
 30
0.0
 11
365.0
 21
186.0
 31
0.0
  0
LINE
  5
487
330
1D
100
AcDbEntity
  8
CSLAYER10
  6
Continuous
100
AcDbLine
 10
358.0
 20
187.0
 30
0.0
 11
363.0
 21
187.0
 31
0.0
  0
LINE
  5
488
330
1D
100
AcDbEntity
  8
CSLAYER10
  6
Continuous
100
AcDbLine
 10
363.0
 20
187.0
 30
0.0
 11
361.068148
 21
187.517638
 31
0.0
  0
LINE
  5
489
330
1D
100
AcDbEntity
  8
CSLAYER10
  6
Continuous
100
AcDbLine
 10
363.0
 20
187.0
 30
0.0
 11
361.068148
 21
186.482362
 31
0.0
  0
LINE
  5
48A
330
1D
100
AcDbEntity
  8
CSLAYER10
  6
Continuous
100
AcDbLine
 10
365.0
 20
187.0
 30
0.0
 11
372.0
 21
187.0
 31
0.0
  0
LINE
  5
48B
330
1D
100
AcDbEntity
  8
CSLAYER10
  6
Continuous
100
AcDbLine
 10
365.0
 20
187.0
 30
0.0
 11
366.931852
 21
187.517638
 31
0.0
  0
LINE
  5
48C
330
1D
100
AcDbEntity
  8
CSLAYER10
  6
Continuous
100
AcDbLine
 10
365.0
 20
187.0
 30
0.0
 11
366.931852
 21
186.482362
 31
0.0
  0
TEXT
  5
48D
330
1D
100
AcDbEntity
  8
CSLAYER10
100
AcDbText
 10
257.5
 20
229.5
 30
0.0
 40
4.0
  1
20
 50
90.0
 41
0.705329153605
  7
FX_FONT
 72
     5
 11
257.5
 21
234.5
 31
0.0
100
AcDbText
  0
LINE
  5
48E
330
1D
100
AcDbEntity
  8
CSLAYER10
  6
Continuous
100
AcDbLine
 10
269.5
 20
222.0
 30
0.0
 11
257.5
 21
222.0
 31
0.0
  0
LINE
  5
48F
330
1D
100
AcDbEntity
  8
CSLAYER10
  6
Continuous
100
AcDbLine
 10
269.5
 20
242.0
 30
0.0
 11
257.5
 21
242.0
 31
0.0
  0
LINE
  5
490
330
1D
100
AcDbEntity
  8
CSLAYER10
  6
Continuous
100
AcDbLine
 10
258.5
 20
222.0
 30
0.0
 11
258.5
 21
242.0
 31
0.0
  0
LINE
  5
491
330
1D
100
AcDbEntity
  8
CSLAYER10
  6
Continuous
100
AcDbLine
 10
258.5
 20
222.0
 30
0.0
 11
257.982362
 21
223.931852
 31
0.0
  0
LINE
  5
492
330
1D
100
AcDbEntity
  8
CSLAYER10
  6
Continuous
100
AcDbLine
 10
258.5
 20
222.0
 30
0.0
 11
259.017638
 21
223.931852
 31
0.0
  0
LINE
  5
493
330
1D
100
AcDbEntity
  8
CSLAYER10
  6
Continuous
100
AcDbLine
 10
258.5
 20
242.0
 30
0.0
 11
257.982362
 21
240.068148
 31
0.0
  0
LINE
  5
494
330
1D
100
AcDbEntity
  8
CSLAYER10
  6
Continuous
100
AcDbLine
 10
258.5
 20
242.0
 30
0.0
 11
259.017638
 21
240.068148
 31
0.0
  0
TEXT
  5
495
330
1D
100
AcDbEntity
  8
CSLAYER10
100
AcDbText
 10
254.5
 20
106.580246
 30
0.0
 40
4.0
  1
6.5
 50
90.0
 41
0.660146699267
  7
FX_FONT
 72
     5
 11
254.5
 21
114.080246
 31
0.0
100
AcDbText
  0
LINE
  5
496
330
1D
100
AcDbEntity
  8
CSLAYER10
  6
Continuous
100
AcDbLine
 10
255.5
 20
116.0
 30
0.0
 11
255.5
 21
122.5
 31
0.0
  0
LINE
  5
497
330
1D
100
AcDbEntity
  8
CSLAYER10
  6
Continuous
100
AcDbLine
 10
255.5
 20
116.0
 30
0.0
 11
254.982362
 21
117.931852
 31
0.0
  0
LINE
  5
498
330
1D
100
AcDbEntity
  8
CSLAYER10
  6
Continuous
100
AcDbLine
 10
255.5
 20
116.0
 30
0.0
 11
256.017638
 21
117.931852
 31
0.0
  0
LINE
  5
499
330
1D
100
AcDbEntity
  8
CSLAYER10
  6
Continuous
100
AcDbLine
 10
255.5
 20
122.5
 30
0.0
 11
254.982362
 21
120.568148
 31
0.0
  0
LINE
  5
49A
330
1D
100
AcDbEntity
  8
CSLAYER10
  6
Continuous
100
AcDbLine
 10
255.5
 20
122.5
 30
0.0
 11
256.017638
 21
120.568148
 31
0.0
  0
LINE
  5
49B
330
1D
100
AcDbEntity
  8
CSLAYER10
  6
Continuous
100
AcDbLine
 10
292.5
 20
116.0
 30
0.0
 11
254.5
 21
116.0
 31
0.0
  0
LINE
  5
49C
330
1D
100
AcDbEntity
  8
CSLAYER10
  6
Continuous
100
AcDbLine
 10
269.5
 20
122.5
 30
0.0
 11
254.5
 21
122.5
 31
0.0
  0
TEXT
  5
49D
330
1D
100
AcDbEntity
  8
CSLAYER10
100
AcDbText
 10
254.499985
 20
125.25
 30
0.0
 40
4.0
  1
8
 50
90.0
 41
0.75
  7
FX_FONT
 72
     5
 11
254.499985
 21
127.75
 31
0.0
100
AcDbText
  0
LINE
  5
49E
330
1D
100
AcDbEntity
  8
CSLAYER10
  6
Continuous
100
AcDbLine
 10
271.0
 20
130.5
 30
0.0
 11
254.5
 21
130.5
 31
0.0
  0
LINE
  5
49F
330
1D
100
AcDbEntity
  8
CSLAYER10
  6
Continuous
100
AcDbLine
 10
255.5
 20
122.5
 30
0.0
 11
255.5
 21
130.5
 31
0.0
  0
LINE
  5
4A0
330
1D
100
AcDbEntity
  8
CSLAYER10
  6
Continuous
100
AcDbLine
 10
255.5
 20
122.5
 30
0.0
 11
254.982362
 21
124.431852
 31
0.0
  0
LINE
  5
4A1
330
1D
100
AcDbEntity
  8
CSLAYER10
  6
Continuous
100
AcDbLine
 10
255.5
 20
122.5
 30
0.0
 11
256.017638
 21
124.431852
 31
0.0
  0
LINE
  5
4A2
330
1D
100
AcDbEntity
  8
CSLAYER10
  6
Continuous
100
AcDbLine
 10
255.5
 20
130.5
 30
0.0
 11
254.982362
 21
128.568148
 31
0.0
  0
LINE
  5
4A3
330
1D
100
AcDbEntity
  8
CSLAYER10
  6
Continuous
100
AcDbLine
 10
255.5
 20
130.5
 30
0.0
 11
256.017638
 21
128.568148
 31
0.0
  0
LINE
  5
4A4
330
1D
100
AcDbEntity
  8
CSLAYER10
  6
Continuous
100
AcDbLine
 10
290.971306
 20
130.090069
 30
0.0
 11
283.828173
 21
141.129282
 31
0.0
  0
LINE
  5
4A5
330
1D
100
AcDbEntity
  8
CSLAYER10
  6
Continuous
100
AcDbLine
 10
290.971306
 20
130.090069
 30
0.0
 11
289.487222
 21
131.430776
 31
0.0
  0
LINE
  5
4A6
330
1D
100
AcDbEntity
  8
CSLAYER10
  6
Continuous
100
AcDbLine
 10
290.971306
 20
130.090069
 30
0.0
 11
290.356405
 21
131.993197
 31
0.0
  0
LINE
  5
4A7
330
1D
100
AcDbEntity
  8
CSLAYER10
  6
Continuous
100
AcDbLine
 10
283.828173
 20
141.129282
 30
0.0
 11
271.828173
 21
141.129282
 31
0.0
  0
TEXT
  5
4A8
330
1D
100
AcDbEntity
  8
CSLAYER10
100
AcDbText
 10
272.828186
 20
142.129272
 30
0.0
 40
4.0
  1
R1.5
 41
0.652173913043
  7
FX_FONT
 72
     5
 11
282.828186
 21
142.129272
 31
0.0
100
AcDbText
  0
TEXT
  5
4A9
330
1D
100
AcDbEntity
  8
CSLAYER10
100
AcDbText
 10
302.0
 20
163.499985
 30
0.0
 40
4.0
  1
22
 41
0.681818181818
  7
FX_FONT
 72
     5
 11
307.0
 21
163.499985
 31
0.0
100
AcDbText
  0
LINE
  5
4AA
330
1D
100
AcDbEntity
  8
CSLAYER10
  6
Continuous
100
AcDbLine
 10
293.5
 20
133.0
 30
0.0
 11
293.5
 21
163.5
 31
0.0
  0
LINE
  5
4AB
330
1D
100
AcDbEntity
  8
CSLAYER10
  6
Continuous
100
AcDbLine
 10
315.5
 20
148.5
 30
0.0
 11
315.5
 21
163.5
 31
0.0
  0
LINE
  5
4AC
330
1D
100
AcDbEntity
  8
CSLAYER10
  6
Continuous
100
AcDbLine
 10
293.5
 20
162.5
 30
0.0
 11
315.5
 21
162.5
 31
0.0
  0
LINE
  5
4AD
330
1D
100
AcDbEntity
  8
CSLAYER10
  6
Continuous
100
AcDbLine
 10
293.5
 20
162.5
 30
0.0
 11
295.431852
 21
163.017638
 31
0.0
  0
LINE
  5
4AE
330
1D
100
AcDbEntity
  8
CSLAYER10
  6
Continuous
100
AcDbLine
 10
293.5
 20
162.5
 30
0.0
 11
295.431852
 21
161.982362
 31
0.0
  0
LINE
  5
4AF
330
1D
100
AcDbEntity
  8
CSLAYER10
  6
Continuous
100
AcDbLine
 10
315.5
 20
162.5
 30
0.0
 11
313.568148
 21
163.017638
 31
0.0
  0
LINE
  5
4B0
330
1D
100
AcDbEntity
  8
CSLAYER10
  6
Continuous
100
AcDbLine
 10
315.5
 20
162.5
 30
0.0
 11
313.568148
 21
161.982362
 31
0.0
  0
TEXT
  5
4B1
330
1D
100
AcDbEntity
  8
CSLAYER10
100
AcDbText
 10
323.0
 20
163.499985
 30
0.0
 40
4.0
  1
20
 41
0.705329153605
  7
FX_FONT
 72
     5
 11
328.0
 21
163.499985
 31
0.0
100
AcDbText
  0
LINE
  5
4B2
330
1D
100
AcDbEntity
  8
CSLAYER10
  6
Continuous
100
AcDbLine
 10
335.5
 20
148.5
 30
0.0
 11
335.5
 21
163.5
 31
0.0
  0
LINE
  5
4B3
330
1D
100
AcDbEntity
  8
CSLAYER10
  6
Continuous
100
AcDbLine
 10
315.5
 20
162.5
 30
0.0
 11
335.5
 21
162.5
 31
0.0
  0
LINE
  5
4B4
330
1D
100
AcDbEntity
  8
CSLAYER10
  6
Continuous
100
AcDbLine
 10
315.5
 20
162.5
 30
0.0
 11
317.431852
 21
163.017638
 31
0.0
  0
LINE
  5
4B5
330
1D
100
AcDbEntity
  8
CSLAYER10
  6
Continuous
100
AcDbLine
 10
315.5
 20
162.5
 30
0.0
 11
317.431852
 21
161.982362
 31
0.0
  0
LINE
  5
4B6
330
1D
100
AcDbEntity
  8
CSLAYER10
  6
Continuous
100
AcDbLine
 10
335.5
 20
162.5
 30
0.0
 11
333.568148
 21
163.017638
 31
0.0
  0
LINE
  5
4B7
330
1D
100
AcDbEntity
  8
CSLAYER10
  6
Continuous
100
AcDbLine
 10
335.5
 20
162.5
 30
0.0
 11
333.568148
 21
161.982362
 31
0.0
  0
TEXT
  5
4B8
330
1D
100
AcDbEntity
  8
CSLAYER10
100
AcDbText
 10
379.0
 20
121.5
 30
0.0
 40
4.0
  1
16
 50
90.0
 41
0.681818181818
  7
FX_FONT
 72
     5
 11
379.0
 21
126.5
 31
0.0
100
AcDbText
  0
LINE
  5
4B9
330
1D
100
AcDbEntity
  8
CSLAYER10
  6
Continuous
100
AcDbLine
 10
380.0
 20
116.0
 30
0.0
 11
380.0
 21
132.0
 31
0.0
  0
LINE
  5
4BA
330
1D
100
AcDbEntity
  8
CSLAYER10
  6
Continuous
100
AcDbLine
 10
380.0
 20
116.0
 30
0.0
 11
379.482362
 21
117.931852
 31
0.0
  0
LINE
  5
4BB
330
1D
100
AcDbEntity
  8
CSLAYER10
  6
Continuous
100
AcDbLine
 10
380.0
 20
116.0
 30
0.0
 11
380.517638
 21
117.931852
 31
0.0
  0
LINE
  5
4BC
330
1D
100
AcDbEntity
  8
CSLAYER10
  6
Continuous
100
AcDbLine
 10
380.0
 20
132.0
 30
0.0
 11
379.482362
 21
130.068148
 31
0.0
  0
LINE
  5
4BD
330
1D
100
AcDbEntity
  8
CSLAYER10
  6
Continuous
100
AcDbLine
 10
380.0
 20
132.0
 30
0.0
 11
380.517638
 21
130.068148
 31
0.0
  0
LINE
  5
4BE
330
1D
100
AcDbEntity
  8
CSLAYER10
  6
Continuous
100
AcDbLine
 10
366.0
 20
116.0
 30
0.0
 11
381.0
 21
116.0
 31
0.0
  0
LINE
  5
4BF
330
1D
100
AcDbEntity
  8
CSLAYER10
  6
Continuous
100
AcDbLine
 10
363.0
 20
132.0
 30
0.0
 11
381.0
 21
132.0
 31
0.0
  0
TEXT
  5
4C0
330
1D
100
AcDbEntity
  8
CSLAYER10
100
AcDbText
 10
57.932743
 20
229.5
 30
0.0
 40
4.0
  1
45
 50
90.0
 41
0.681818181818
  7
FX_FONT
 72
     5
 11
57.932743
 21
234.5
 31
0.0
100
AcDbText
  0
LINE
  5
4C1
330
1D
100
AcDbEntity
  8
CSLAYER10
  6
Continuous
100
AcDbLine
 10
73.932741
 20
209.5
 30
0.0
 11
57.932741
 21
209.5
 31
0.0
  0
LINE
  5
4C2
330
1D
100
AcDbEntity
  8
CSLAYER10
  6
Continuous
100
AcDbLine
 10
73.932741
 20
254.5
 30
0.0
 11
57.932741
 21
254.5
 31
0.0
  0
LINE
  5
4C3
330
1D
100
AcDbEntity
  8
CSLAYER10
  6
Continuous
100
AcDbLine
 10
58.932741
 20
209.5
 30
0.0
 11
58.932741
 21
254.5
 31
0.0
  0
LINE
  5
4C4
330
1D
100
AcDbEntity
  8
CSLAYER10
  6
Continuous
100
AcDbLine
 10
58.932741
 20
209.5
 30
0.0
 11
58.415103
 21
211.431852
 31
0.0
  0
LINE
  5
4C5
330
1D
100
AcDbEntity
  8
CSLAYER10
  6
Continuous
100
AcDbLine
 10
58.932741
 20
209.5
 30
0.0
 11
59.450379
 21
211.431852
 31
0.0
  0
LINE
  5
4C6
330
1D
100
AcDbEntity
  8
CSLAYER10
  6
Continuous
100
AcDbLine
 10
58.932741
 20
254.5
 30
0.0
 11
58.415103
 21
252.568148
 31
0.0
  0
LINE
  5
4C7
330
1D
100
AcDbEntity
  8
CSLAYER10
  6
Continuous
100
AcDbLine
 10
58.932741
 20
254.5
 30
0.0
 11
59.450379
 21
252.568148
 31
0.0
  0
TEXT
  5
4C8
330
1D
100
AcDbEntity
  8
CSLAYER10
100
AcDbText
 10
47.932739
 20
229.5
 30
0.0
 40
4.0
  1
60
 50
90.0
 41
0.702576112412
  7
FX_FONT
 72
     5
 11
47.932739
 21
234.5
 31
0.0
100
AcDbText
  0
LINE
  5
4C9
330
1D
100
AcDbEntity
  8
CSLAYER10
  6
Continuous
100
AcDbLine
 10
70.332741
 20
202.0
 30
0.0
 11
47.932741
 21
202.0
 31
0.0
  0
LINE
  5
4CA
330
1D
100
AcDbEntity
  8
CSLAYER10
  6
Continuous
100
AcDbLine
 10
70.332741
 20
262.0
 30
0.0
 11
47.932741
 21
262.0
 31
0.0
  0
LINE
  5
4CB
330
1D
100
AcDbEntity
  8
CSLAYER10
  6
Continuous
100
AcDbLine
 10
48.932741
 20
202.0
 30
0.0
 11
48.932741
 21
262.0
 31
0.0
  0
LINE
  5
4CC
330
1D
100
AcDbEntity
  8
CSLAYER10
  6
Continuous
100
AcDbLine
 10
48.932741
 20
202.0
 30
0.0
 11
48.415103
 21
203.931852
 31
0.0
  0
LINE
  5
4CD
330
1D
100
AcDbEntity
  8
CSLAYER10
  6
Continuous
100
AcDbLine
 10
48.932741
 20
202.0
 30
0.0
 11
49.450379
 21
203.931852
 31
0.0
  0
LINE
  5
4CE
330
1D
100
AcDbEntity
  8
CSLAYER10
  6
Continuous
100
AcDbLine
 10
48.932741
 20
262.0
 30
0.0
 11
48.415103
 21
260.068148
 31
0.0
  0
LINE
  5
4CF
330
1D
100
AcDbEntity
  8
CSLAYER10
  6
Continuous
100
AcDbLine
 10
48.932741
 20
262.0
 30
0.0
 11
49.450379
 21
260.068148
 31
0.0
  0
TEXT
  5
4D0
330
1D
100
AcDbEntity
  8
CSLAYER10
100
AcDbText
 10
88.432747
 20
192.0
 30
0.0
 40
4.0
  1
28
 41
0.681818181818
  7
FX_FONT
 72
     5
 11
93.432747
 21
192.0
 31
0.0
100
AcDbText
  0
LINE
  5
4D1
330
1D
100
AcDbEntity
  8
CSLAYER10
  6
Continuous
100
AcDbLine
 10
76.932741
 20
206.5
 30
0.0
 11
76.932741
 21
190.0
 31
0.0
  0
LINE
  5
4D2
330
1D
100
AcDbEntity
  8
CSLAYER10
  6
Continuous
100
AcDbLine
 10
104.932741
 20
206.5
 30
0.0
 11
104.932741
 21
190.0
 31
0.0
  0
LINE
  5
4D3
330
1D
100
AcDbEntity
  8
CSLAYER10
  6
Continuous
100
AcDbLine
 10
76.932741
 20
191.0
 30
0.0
 11
104.932741
 21
191.0
 31
0.0
  0
LINE
  5
4D4
330
1D
100
AcDbEntity
  8
CSLAYER10
  6
Continuous
100
AcDbLine
 10
76.932741
 20
191.0
 30
0.0
 11
78.864592
 21
191.517638
 31
0.0
  0
LINE
  5
4D5
330
1D
100
AcDbEntity
  8
CSLAYER10
  6
Continuous
100
AcDbLine
 10
76.932741
 20
191.0
 30
0.0
 11
78.864592
 21
190.482362
 31
0.0
  0
LINE
  5
4D6
330
1D
100
AcDbEntity
  8
CSLAYER10
  6
Continuous
100
AcDbLine
 10
104.932741
 20
191.0
 30
0.0
 11
103.000889
 21
191.517638
 31
0.0
  0
LINE
  5
4D7
330
1D
100
AcDbEntity
  8
CSLAYER10
  6
Continuous
100
AcDbLine
 10
104.932741
 20
191.0
 30
0.0
 11
103.000889
 21
190.482362
 31
0.0
  0
TEXT
  5
4D8
330
1D
100
AcDbEntity
  8
CSLAYER10
100
AcDbText
 10
88.432747
 20
183.0
 30
0.0
 40
4.0
  1
40
 41
0.705329153605
  7
FX_FONT
 72
     5
 11
93.432747
 21
183.0
 31
0.0
100
AcDbText
  0
LINE
  5
4D9
330
1D
100
AcDbEntity
  8
CSLAYER10
  6
Continuous
100
AcDbLine
 10
70.932741
 20
202.5
 30
0.0
 11
70.932741
 21
181.0
 31
0.0
  0
LINE
  5
4DA
330
1D
100
AcDbEntity
  8
CSLAYER10
  6
Continuous
100
AcDbLine
 10
110.932741
 20
202.5
 30
0.0
 11
110.932741
 21
181.0
 31
0.0
  0
LINE
  5
4DB
330
1D
100
AcDbEntity
  8
CSLAYER10
  6
Continuous
100
AcDbLine
 10
70.932741
 20
182.0
 30
0.0
 11
110.932741
 21
182.0
 31
0.0
  0
LINE
  5
4DC
330
1D
100
AcDbEntity
  8
CSLAYER10
  6
Continuous
100
AcDbLine
 10
70.932741
 20
182.0
 30
0.0
 11
72.864592
 21
182.517638
 31
0.0
  0
LINE
  5
4DD
330
1D
100
AcDbEntity
  8
CSLAYER10
  6
Continuous
100
AcDbLine
 10
70.932741
 20
182.0
 30
0.0
 11
72.864592
 21
181.482362
 31
0.0
  0
LINE
  5
4DE
330
1D
100
AcDbEntity
  8
CSLAYER10
  6
Continuous
100
AcDbLine
 10
110.932741
 20
182.0
 30
0.0
 11
109.000889
 21
182.517638
 31
0.0
  0
LINE
  5
4DF
330
1D
100
AcDbEntity
  8
CSLAYER10
  6
Continuous
100
AcDbLine
 10
110.932741
 20
182.0
 30
0.0
 11
109.000889
 21
181.482362
 31
0.0
  0
LINE
  5
4E0
330
1D
100
AcDbEntity
  8
CSLAYER10
  6
Continuous
100
AcDbLine
 10
76.932741
 20
254.5
 30
0.0
 11
64.787776
 21
274.292378
 31
0.0
  0
LINE
  5
4E1
330
1D
100
AcDbEntity
  8
CSLAYER10
  6
Continuous
100
AcDbLine
 10
76.932741
 20
254.5
 30
0.0
 11
75.481174
 21
255.875847
 31
0.0
  0
LINE
  5
4E2
330
1D
100
AcDbEntity
  8
CSLAYER10
  6
Continuous
100
AcDbLine
 10
76.932741
 20
254.5
 30
0.0
 11
76.363571
 21
256.417302
 31
0.0
  0
LINE
  5
4E3
330
1D
100
AcDbEntity
  8
CSLAYER10
  6
Continuous
100
AcDbLine
 10
64.787776
 20
274.292378
 30
0.0
 11
49.334012657848
 21
274.292378
 31
0.0
  0
TEXT
  5
4E4
330
1D
100
AcDbEntity
  8
CSLAYER10
100
AcDbText
 10
49.141031179109
 20
275.158715170662
 30
0.0
 40
4.0
  1
4-3.1mmネジ位置
 41
0.328129673383
  7
FX_FONT
 72
     5
 11
64.278746777826
 21
275.158715170662
 31
0.0
100
AcDbText
  0
LINE
  5
4E5
330
1D
100
AcDbEntity
  8
CSLAYER10
  6
Continuous
100
AcDbLine
 10
124.795214
 20
271.662539
 30
0.0
 11
95.801686
 21
237.702912
 31
0.0
  0
LINE
  5
4E6
102
{ACAD_REACTORS
330
614
102
}
330
1D
100
AcDbEntity
  8
CSLAYER10
  6
Continuous
100
AcDbLine
 10
95.801686
 20
237.702912
 30
0.0
 11
86.062923
 21
226.296065
 31
0.0
  0
LINE
  5
4E7
330
1D
100
AcDbEntity
  8
CSLAYER10
  6
Continuous
100
AcDbLine
 10
95.801686
 20
237.702912
 30
0.0
 11
94.940993
 21
235.897584
 31
0.0
  0
LINE
  5
4E8
330
1D
100
AcDbEntity
  8
CSLAYER10
  6
Continuous
100
AcDbLine
 10
95.801686
 20
237.702912
 30
0.0
 11
94.15364
 21
236.569799
 31
0.0
  0
LINE
  5
4E9
330
1D
100
AcDbEntity
  8
CSLAYER10
  6
Continuous
100
AcDbLine
 10
86.062923
 20
226.296065
 30
0.0
 11
86.923615
 21
228.101393
 31
0.0
  0
LINE
  5
4EA
330
1D
100
AcDbEntity
  8
CSLAYER10
  6
Continuous
100
AcDbLine
 10
86.062923
 20
226.296065
 30
0.0
 11
87.710968
 21
227.429179
 31
0.0
  0
LINE
  5
4EB
330
1D
100
AcDbEntity
  8
CSLAYER10
  6
Continuous
100
AcDbLine
 10
124.795214
 20
271.662539
 30
0.0
 11
105.400958
 21
271.662539
 31
0.0
  0
TEXT
  5
4EC
330
1D
100
AcDbEntity
  8
CSLAYER10
100
AcDbText
 10
105.795219
 20
272.662537
 30
0.0
 40
4.0
  1
%%c15貫通穴
 41
0.709748083242
  7
FX_FONT
 72
     5
 11
123.795219
 21
272.662537
 31
0.0
100
AcDbText
  0
TEXT
  5
4ED
330
1D
100
AcDbEntity
  8
CSLAYER10
100
AcDbText
 10
118.077377
 20
135.725647
 30
0.0
 40
4.0
  1
25
 50
90.0
 41
0.681818181818
  7
FX_FONT
 72
     5
 11
118.077377
 21
140.725647
 31
0.0
100
AcDbText
  0
LINE
  5
4EE
330
1D
100
AcDbEntity
  8
CSLAYER10
  6
Continuous
100
AcDbLine
 10
119.077381
 20
125.725653
 30
0.0
 11
119.077381
 21
150.725653
 31
0.0
  0
LINE
  5
4EF
330
1D
100
AcDbEntity
  8
CSLAYER10
  6
Continuous
100
AcDbLine
 10
119.077381
 20
125.725653
 30
0.0
 11
118.559743
 21
127.657505
 31
0.0
  0
LINE
  5
4F0
330
1D
100
AcDbEntity
  8
CSLAYER10
  6
Continuous
100
AcDbLine
 10
119.077381
 20
125.725653
 30
0.0
 11
119.595019
 21
127.657505
 31
0.0
  0
LINE
  5
4F1
330
1D
100
AcDbEntity
  8
CSLAYER10
  6
Continuous
100
AcDbLine
 10
119.077381
 20
150.725653
 30
0.0
 11
118.559743
 21
148.793801
 31
0.0
  0
LINE
  5
4F2
330
1D
100
AcDbEntity
  8
CSLAYER10
  6
Continuous
100
AcDbLine
 10
119.077381
 20
150.725653
 30
0.0
 11
119.595019
 21
148.793801
 31
0.0
  0
LINE
  5
4F3
330
1D
100
AcDbEntity
  8
CSLAYER10
  6
Continuous
100
AcDbLine
 10
137.077381
 20
125.725653
 30
0.0
 11
118.077381
 21
125.725653
 31
0.0
  0
LINE
  5
4F4
330
1D
100
AcDbEntity
  8
CSLAYER10
  6
Continuous
100
AcDbLine
 10
137.077381
 20
150.725653
 30
0.0
 11
118.077381
 21
150.725653
 31
0.0
  0
TEXT
  5
4F5
330
1D
100
AcDbEntity
  8
CSLAYER10
100
AcDbText
 10
204.077377
 20
135.725647
 30
0.0
 40
4.0
  1
45
 50
90.0
 41
0.681818181818
  7
FX_FONT
 72
     5
 11
204.077377
 21
140.725647
 31
0.0
100
AcDbText
  0
LINE
  5
4F6
330
1D
100
AcDbEntity
  8
CSLAYER10
  6
Continuous
100
AcDbLine
 10
205.077381
 20
115.725653
 30
0.0
 11
205.077381
 21
160.725653
 31
0.0
  0
LINE
  5
4F7
330
1D
100
AcDbEntity
  8
CSLAYER10
  6
Continuous
100
AcDbLine
 10
205.077381
 20
115.725653
 30
0.0
 11
204.559743
 21
117.657505
 31
0.0
  0
LINE
  5
4F8
330
1D
100
AcDbEntity
  8
CSLAYER10
  6
Continuous
100
AcDbLine
 10
205.077381
 20
115.725653
 30
0.0
 11
205.595019
 21
117.657505
 31
0.0
  0
LINE
  5
4F9
330
1D
100
AcDbEntity
  8
CSLAYER10
  6
Continuous
100
AcDbLine
 10
205.077381
 20
160.725653
 30
0.0
 11
204.559743
 21
158.793801
 31
0.0
  0
LINE
  5
4FA
330
1D
100
AcDbEntity
  8
CSLAYER10
  6
Continuous
100
AcDbLine
 10
205.077381
 20
160.725653
 30
0.0
 11
205.595019
 21
158.793801
 31
0.0
  0
LINE
  5
4FB
330
1D
100
AcDbEntity
  8
CSLAYER10
  6
Continuous
100
AcDbLine
 10
179.077381
 20
115.725653
 30
0.0
 11
206.077381
 21
115.725653
 31
0.0
  0
LINE
  5
4FC
330
1D
100
AcDbEntity
  8
CSLAYER10
  6
Continuous
100
AcDbLine
 10
179.077381
 20
160.725653
 30
0.0
 11
206.077381
 21
160.725653
 31
0.0
  0
TEXT
  5
4FD
330
1D
100
AcDbEntity
  8
CSLAYER10
100
AcDbText
 10
194.077377
 20
135.725647
 30
0.0
 40
4.0
  1
32
 50
90.0
 41
0.681818181818
  7
FX_FONT
 72
     5
 11
194.077377
 21
140.725647
 31
0.0
100
AcDbText
  0
LINE
  5
4FE
330
1D
100
AcDbEntity
  8
CSLAYER10
  6
Continuous
100
AcDbLine
 10
195.077381
 20
122.225653
 30
0.0
 11
195.077381
 21
154.225653
 31
0.0
  0
LINE
  5
4FF
330
1D
100
AcDbEntity
  8
CSLAYER10
  6
Continuous
100
AcDbLine
 10
195.077381
 20
122.225653
 30
0.0
 11
194.559743
 21
124.157505
 31
0.0
  0
LINE
  5
500
330
1D
100
AcDbEntity
  8
CSLAYER10
  6
Continuous
100
AcDbLine
 10
195.077381
 20
122.225653
 30
0.0
 11
195.595019
 21
124.157505
 31
0.0
  0
LINE
  5
501
330
1D
100
AcDbEntity
  8
CSLAYER10
  6
Continuous
100
AcDbLine
 10
195.077381
 20
154.225653
 30
0.0
 11
194.559743
 21
152.293801
 31
0.0
  0
LINE
  5
502
330
1D
100
AcDbEntity
  8
CSLAYER10
  6
Continuous
100
AcDbLine
 10
195.077381
 20
154.225653
 30
0.0
 11
195.595019
 21
152.293801
 31
0.0
  0
TEXT
  5
503
330
1D
100
AcDbEntity
  8
CSLAYER10
100
AcDbText
 10
132.827377
 20
105.725647
 30
0.0
 40
4.0
  1
6
 41
0.75
  7
FX_FONT
 72
     5
 11
135.327377
 21
105.725647
 31
0.0
100
AcDbText
  0
LINE
  5
504
330
1D
100
AcDbEntity
  8
CSLAYER10
  6
Continuous
100
AcDbLine
 10
131.077381
 20
104.725653
 30
0.0
 11
137.077381
 21
104.725653
 31
0.0
  0
LINE
  5
505
330
1D
100
AcDbEntity
  8
CSLAYER10
  6
Continuous
100
AcDbLine
 10
131.077381
 20
104.725653
 30
0.0
 11
133.009233
 21
105.243291
 31
0.0
  0
LINE
  5
506
330
1D
100
AcDbEntity
  8
CSLAYER10
  6
Continuous
100
AcDbLine
 10
131.077381
 20
104.725653
 30
0.0
 11
133.009233
 21
104.208015
 31
0.0
  0
LINE
  5
507
330
1D
100
AcDbEntity
  8
CSLAYER10
  6
Continuous
100
AcDbLine
 10
137.077381
 20
104.725653
 30
0.0
 11
135.145529
 21
105.243291
 31
0.0
  0
LINE
  5
508
330
1D
100
AcDbEntity
  8
CSLAYER10
  6
Continuous
100
AcDbLine
 10
137.077381
 20
104.725653
 30
0.0
 11
135.145529
 21
104.208015
 31
0.0
  0
LINE
  5
509
330
1D
100
AcDbEntity
  8
CSLAYER10
  6
Continuous
100
AcDbLine
 10
131.077381
 20
119.725653
 30
0.0
 11
131.077381
 21
103.725653
 31
0.0
  0
LINE
  5
50A
330
1D
100
AcDbEntity
  8
CSLAYER10
  6
Continuous
100
AcDbLine
 10
137.077381
 20
125.725653
 30
0.0
 11
137.077381
 21
103.725653
 31
0.0
  0
TEXT
  5
50B
330
1D
100
AcDbEntity
  8
CSLAYER10
100
AcDbText
 10
139.577377
 20
105.725647
 30
0.0
 40
4.0
  1
10
 41
0.705329153605
  7
FX_FONT
 72
     5
 11
144.577377
 21
105.725647
 31
0.0
100
AcDbText
  0
LINE
  5
50C
330
1D
100
AcDbEntity
  8
CSLAYER10
  6
Continuous
100
AcDbLine
 10
137.077381
 20
104.725653
 30
0.0
 11
147.077381
 21
104.725653
 31
0.0
  0
LINE
  5
50D
330
1D
100
AcDbEntity
  8
CSLAYER10
  6
Continuous
100
AcDbLine
 10
137.077381
 20
104.725653
 30
0.0
 11
139.009233
 21
105.243291
 31
0.0
  0
LINE
  5
50E
330
1D
100
AcDbEntity
  8
CSLAYER10
  6
Continuous
100
AcDbLine
 10
137.077381
 20
104.725653
 30
0.0
 11
139.009233
 21
104.208015
 31
0.0
  0
LINE
  5
50F
330
1D
100
AcDbEntity
  8
CSLAYER10
  6
Continuous
100
AcDbLine
 10
147.077381
 20
104.725653
 30
0.0
 11
145.145529
 21
105.243291
 31
0.0
  0
LINE
  5
510
330
1D
100
AcDbEntity
  8
CSLAYER10
  6
Continuous
100
AcDbLine
 10
147.077381
 20
104.725653
 30
0.0
 11
145.145529
 21
104.208015
 31
0.0
  0
LINE
  5
511
330
1D
100
AcDbEntity
  8
CSLAYER10
  6
Continuous
100
AcDbLine
 10
147.077381
 20
125.725653
 30
0.0
 11
147.077381
 21
103.725653
 31
0.0
  0
TEXT
  5
512
330
1D
100
AcDbEntity
  8
CSLAYER10
100
AcDbText
 10
144.577377
 20
96.725647
 30
0.0
 40
4.0
  1
32
 41
0.681818181818
  7
FX_FONT
 72
     5
 11
149.577377
 21
96.725647
 31
0.0
100
AcDbText
  0
LINE
  5
513
330
1D
100
AcDbEntity
  8
CSLAYER10
  6
Continuous
100
AcDbLine
 10
131.077381
 20
95.725653
 30
0.0
 11
163.077381
 21
95.725653
 31
0.0
  0
LINE
  5
514
330
1D
100
AcDbEntity
  8
CSLAYER10
  6
Continuous
100
AcDbLine
 10
131.077381
 20
95.725653
 30
0.0
 11
133.009233
 21
96.243291
 31
0.0
  0
LINE
  5
515
330
1D
100
AcDbEntity
  8
CSLAYER10
  6
Continuous
100
AcDbLine
 10
131.077381
 20
95.725653
 30
0.0
 11
133.009233
 21
95.208015
 31
0.0
  0
LINE
  5
516
330
1D
100
AcDbEntity
  8
CSLAYER10
  6
Continuous
100
AcDbLine
 10
163.077381
 20
95.725653
 30
0.0
 11
161.145529
 21
96.243291
 31
0.0
  0
LINE
  5
517
330
1D
100
AcDbEntity
  8
CSLAYER10
  6
Continuous
100
AcDbLine
 10
163.077381
 20
95.725653
 30
0.0
 11
161.145529
 21
95.208015
 31
0.0
  0
LINE
  5
518
330
1D
100
AcDbEntity
  8
CSLAYER10
  6
Continuous
100
AcDbLine
 10
131.077381
 20
119.725653
 30
0.0
 11
131.077381
 21
94.725653
 31
0.0
  0
TEXT
  5
519
330
1D
100
AcDbEntity
  8
CSLAYER10
100
AcDbText
 10
165.577377
 20
96.725647
 30
0.0
 40
4.0
  1
10
 41
0.705329153605
  7
FX_FONT
 72
     5
 11
170.577377
 21
96.725647
 31
0.0
100
AcDbText
  0
LINE
  5
51A
330
1D
100
AcDbEntity
  8
CSLAYER10
  6
Continuous
100
AcDbLine
 10
163.077381
 20
95.725653
 30
0.0
 11
173.077381
 21
95.725653
 31
0.0
  0
LINE
  5
51B
330
1D
100
AcDbEntity
  8
CSLAYER10
  6
Continuous
100
AcDbLine
 10
163.077381
 20
95.725653
 30
0.0
 11
165.009233
 21
96.243291
 31
0.0
  0
LINE
  5
51C
330
1D
100
AcDbEntity
  8
CSLAYER10
  6
Continuous
100
AcDbLine
 10
163.077381
 20
95.725653
 30
0.0
 11
165.009233
 21
95.208015
 31
0.0
  0
LINE
  5
51D
330
1D
100
AcDbEntity
  8
CSLAYER10
  6
Continuous
100
AcDbLine
 10
173.077381
 20
95.725653
 30
0.0
 11
171.145529
 21
96.243291
 31
0.0
  0
LINE
  5
51E
330
1D
100
AcDbEntity
  8
CSLAYER10
  6
Continuous
100
AcDbLine
 10
173.077381
 20
95.725653
 30
0.0
 11
171.145529
 21
95.208015
 31
0.0
  0
TEXT
  5
51F
330
1D
100
AcDbEntity
  8
CSLAYER10
100
AcDbText
 10
154.577377
 20
87.725655
 30
0.0
 40
4.0
  1
52
 41
0.679245283019
  7
FX_FONT
 72
     5
 11
159.577377
 21
87.725655
 31
0.0
100
AcDbText
  0
LINE
  5
520
330
1D
100
AcDbEntity
  8
CSLAYER10
  6
Continuous
100
AcDbLine
 10
131.077381
 20
86.725653
 30
0.0
 11
183.077381
 21
86.725653
 31
0.0
  0
LINE
  5
521
330
1D
100
AcDbEntity
  8
CSLAYER10
  6
Continuous
100
AcDbLine
 10
131.077381
 20
86.725653
 30
0.0
 11
133.009233
 21
87.243291
 31
0.0
  0
LINE
  5
522
330
1D
100
AcDbEntity
  8
CSLAYER10
  6
Continuous
100
AcDbLine
 10
131.077381
 20
86.725653
 30
0.0
 11
133.009233
 21
86.208015
 31
0.0
  0
LINE
  5
523
330
1D
100
AcDbEntity
  8
CSLAYER10
  6
Continuous
100
AcDbLine
 10
183.077381
 20
86.725653
 30
0.0
 11
181.145529
 21
87.243291
 31
0.0
  0
LINE
  5
524
330
1D
100
AcDbEntity
  8
CSLAYER10
  6
Continuous
100
AcDbLine
 10
183.077381
 20
86.725653
 30
0.0
 11
181.145529
 21
86.208015
 31
0.0
  0
LINE
  5
525
330
1D
100
AcDbEntity
  8
CSLAYER10
  6
Continuous
100
AcDbLine
 10
131.077381
 20
119.725653
 30
0.0
 11
131.077381
 21
85.725653
 31
0.0
  0
LINE
  5
526
330
1D
100
AcDbEntity
  8
CSLAYER10
  6
Continuous
100
AcDbLine
 10
183.077381
 20
119.725653
 30
0.0
 11
183.077381
 21
85.725653
 31
0.0
  0
TEXT
  5
527
330
1D
100
AcDbEntity
  8
CSLAYER10
100
AcDbText
 10
230.592896
 20
104.725647
 30
0.0
 40
4.0
  1
1.5
 41
0.661764705882
  7
FX_FONT
 72
     5
 11
238.092896
 21
104.725647
 31
0.0
100
AcDbText
  0
LINE
  5
528
330
1D
100
AcDbEntity
  8
CSLAYER10
  6
Continuous
100
AcDbLine
 10
228.0929
 20
103.725653
 30
0.0
 11
229.5929
 21
103.725653
 31
0.0
  0
LINE
  5
529
330
1D
100
AcDbEntity
  8
CSLAYER10
  6
Continuous
100
AcDbLine
 10
228.0929
 20
114.725653
 30
0.0
 11
228.0929
 21
102.725653
 31
0.0
  0
LINE
  5
52A
330
1D
100
AcDbEntity
  8
CSLAYER10
  6
Continuous
100
AcDbLine
 10
229.5929
 20
114.725653
 30
0.0
 11
229.5929
 21
102.725653
 31
0.0
  0
LINE
  5
52B
330
1D
100
AcDbEntity
  8
CSLAYER10
  6
Continuous
100
AcDbLine
 10
223.0929
 20
103.725653
 30
0.0
 11
228.0929
 21
103.725653
 31
0.0
  0
LINE
  5
52C
330
1D
100
AcDbEntity
  8
CSLAYER10
  6
Continuous
100
AcDbLine
 10
228.0929
 20
103.725653
 30
0.0
 11
226.161048
 21
104.243291
 31
0.0
  0
LINE
  5
52D
330
1D
100
AcDbEntity
  8
CSLAYER10
  6
Continuous
100
AcDbLine
 10
228.0929
 20
103.725653
 30
0.0
 11
226.161048
 21
103.208015
 31
0.0
  0
LINE
  5
52E
330
1D
100
AcDbEntity
  8
CSLAYER10
  6
Continuous
100
AcDbLine
 10
229.5929
 20
103.725653
 30
0.0
 11
239.0929
 21
103.725653
 31
0.0
  0
LINE
  5
52F
330
1D
100
AcDbEntity
  8
CSLAYER10
  6
Continuous
100
AcDbLine
 10
229.5929
 20
103.725653
 30
0.0
 11
231.524751
 21
104.243291
 31
0.0
  0
LINE
  5
530
330
1D
100
AcDbEntity
  8
CSLAYER10
  6
Continuous
100
AcDbLine
 10
229.5929
 20
103.725653
 30
0.0
 11
231.524751
 21
103.208015
 31
0.0
  0
TEXT
  5
531
330
1D
100
AcDbEntity
  8
CSLAYER10
100
AcDbText
 10
308.5
 20
77.0
 30
0.0
 40
4.0
  1
35
 41
0.681818181818
  7
FX_FONT
 72
     5
 11
313.5
 21
77.0
 31
0.0
100
AcDbText
  0
LINE
  5
532
330
1D
100
AcDbEntity
  8
CSLAYER10
  6
Continuous
100
AcDbLine
 10
293.5
 20
76.0
 30
0.0
 11
328.5
 21
76.0
 31
0.0
  0
LINE
  5
533
330
1D
100
AcDbEntity
  8
CSLAYER10
  6
Continuous
100
AcDbLine
 10
293.5
 20
76.0
 30
0.0
 11
295.431852
 21
76.517638
 31
0.0
  0
LINE
  5
534
330
1D
100
AcDbEntity
  8
CSLAYER10
  6
Continuous
100
AcDbLine
 10
293.5
 20
76.0
 30
0.0
 11
295.431852
 21
75.482362
 31
0.0
  0
LINE
  5
535
330
1D
100
AcDbEntity
  8
CSLAYER10
  6
Continuous
100
AcDbLine
 10
328.5
 20
76.0
 30
0.0
 11
326.568148
 21
76.517638
 31
0.0
  0
LINE
  5
536
330
1D
100
AcDbEntity
  8
CSLAYER10
  6
Continuous
100
AcDbLine
 10
328.5
 20
76.0
 30
0.0
 11
326.568148
 21
75.482362
 31
0.0
  0
LINE
  5
537
330
1D
100
AcDbEntity
  8
CSLAYER10
  6
Continuous
100
AcDbLine
 10
293.5
 20
114.5
 30
0.0
 11
293.5
 21
75.0
 31
0.0
  0
LINE
  5
538
330
1D
100
AcDbEntity
  8
CSLAYER10
  6
Continuous
100
AcDbLine
 10
328.5
 20
94.5
 30
0.0
 11
328.5
 21
75.0
 31
0.0
  0
TEXT
  5
539
330
1D
100
AcDbEntity
  8
CSLAYER10
100
AcDbText
 10
332.0
 20
107.0
 30
0.0
 40
4.0
  1
ロ5
 41
0.614754098361
  7
FX_FONT
 72
     5
 11
337.0
 21
107.0
 31
0.0
100
AcDbText
  0
LINE
  5
53A
330
1D
100
AcDbEntity
  8
CSLAYER10
  6
Continuous
100
AcDbLine
 10
326.0
 20
106.0
 30
0.0
 11
331.0
 21
106.0
 31
0.0
  0
LINE
  5
53B
330
1D
100
AcDbEntity
  8
CSLAYER10
  6
Continuous
100
AcDbLine
 10
321.0
 20
106.0
 30
0.0
 11
326.0
 21
106.0
 31
0.0
  0
LINE
  5
53C
330
1D
100
AcDbEntity
  8
CSLAYER10
  6
Continuous
100
AcDbLine
 10
326.0
 20
106.0
 30
0.0
 11
324.068148
 21
106.517638
 31
0.0
  0
LINE
  5
53D
330
1D
100
AcDbEntity
  8
CSLAYER10
  6
Continuous
100
AcDbLine
 10
326.0
 20
106.0
 30
0.0
 11
324.068148
 21
105.482362
 31
0.0
  0
LINE
  5
53E
330
1D
100
AcDbEntity
  8
CSLAYER10
  6
Continuous
100
AcDbLine
 10
331.0
 20
106.0
 30
0.0
 11
338.0
 21
106.0
 31
0.0
  0
LINE
  5
53F
330
1D
100
AcDbEntity
  8
CSLAYER10
  6
Continuous
100
AcDbLine
 10
331.0
 20
106.0
 30
0.0
 11
332.931852
 21
106.517638
 31
0.0
  0
LINE
  5
540
330
1D
100
AcDbEntity
  8
CSLAYER10
  6
Continuous
100
AcDbLine
 10
331.0
 20
106.0
 30
0.0
 11
332.931852
 21
105.482362
 31
0.0
  0
TEXT
  5
541
330
1D
100
AcDbEntity
  8
CSLAYER10
100
AcDbText
 10
161.330109
 20
192.0
 30
0.0
 40
4.0
  1
28~40
 41
0.654831199069
  7
FX_FONT
 72
     5
 11
173.830109
 21
192.0
 31
0.0
100
AcDbText
  0
LINE
  5
542
330
1D
100
AcDbEntity
  8
CSLAYER10
  6
Continuous
100
AcDbLine
 10
152.580109
 20
191.0
 30
0.0
 11
182.580109
 21
191.0
 31
0.0
  0
LINE
  5
543
330
1D
100
AcDbEntity
  8
CSLAYER10
  6
Continuous
100
AcDbLine
 10
152.580109
 20
191.0
 30
0.0
 11
154.511961
 21
191.517638
 31
0.0
  0
LINE
  5
544
330
1D
100
AcDbEntity
  8
CSLAYER10
  6
Continuous
100
AcDbLine
 10
152.580109
 20
191.0
 30
0.0
 11
154.511961
 21
190.482362
 31
0.0
  0
LINE
  5
545
330
1D
100
AcDbEntity
  8
CSLAYER10
  6
Continuous
100
AcDbLine
 10
182.580109
 20
191.0
 30
0.0
 11
180.648258
 21
191.517638
 31
0.0
  0
LINE
  5
546
330
1D
100
AcDbEntity
  8
CSLAYER10
  6
Continuous
100
AcDbLine
 10
182.580109
 20
191.0
 30
0.0
 11
180.648258
 21
190.482362
 31
0.0
  0
LINE
  5
547
330
1D
100
AcDbEntity
  8
CSLAYER10
  6
Continuous
100
AcDbLine
 10
152.580109
 20
201.0
 30
0.0
 11
152.580109
 21
190.0
 31
0.0
  0
LINE
  5
548
330
1D
100
AcDbEntity
  8
CSLAYER10
  6
Continuous
100
AcDbLine
 10
182.580109
 20
208.0
 30
0.0
 11
182.580109
 21
181.0
 31
0.0
  0
TEXT
  5
549
330
1D
100
AcDbEntity
  8
CSLAYER10
100
AcDbText
 10
379.0
 20
98.5
 30
0.0
 40
4.0
  1
30
 50
90.0
 41
0.705329153605
  7
FX_FONT
 72
     5
 11
379.0
 21
103.5
 31
0.0
100
AcDbText
  0
LINE
  5
54A
330
1D
100
AcDbEntity
  8
CSLAYER10
  6
Continuous
100
AcDbLine
 10
380.0
 20
86.0
 30
0.0
 11
380.0
 21
116.0
 31
0.0
  0
LINE
  5
54B
330
1D
100
AcDbEntity
  8
CSLAYER10
  6
Continuous
100
AcDbLine
 10
380.0
 20
86.0
 30
0.0
 11
379.482362
 21
87.931852
 31
0.0
  0
LINE
  5
54C
330
1D
100
AcDbEntity
  8
CSLAYER10
  6
Continuous
100
AcDbLine
 10
380.0
 20
86.0
 30
0.0
 11
380.517638
 21
87.931852
 31
0.0
  0
LINE
  5
54D
330
1D
100
AcDbEntity
  8
CSLAYER10
  6
Continuous
100
AcDbLine
 10
380.0
 20
116.0
 30
0.0
 11
379.482362
 21
114.068148
 31
0.0
  0
LINE
  5
54E
330
1D
100
AcDbEntity
  8
CSLAYER10
  6
Continuous
100
AcDbLine
 10
380.0
 20
116.0
 30
0.0
 11
380.517638
 21
114.068148
 31
0.0
  0
LINE
  5
54F
330
1D
100
AcDbEntity
  8
CSLAYER10
  6
Continuous
100
AcDbLine
 10
331.0
 20
86.0
 30
0.0
 11
381.0
 21
86.0
 31
0.0
  0
LINE
  5
550
330
1D
100
AcDbEntity
  8
CSLAYER10
  6
Continuous
100
AcDbLine
 10
366.0
 20
116.0
 30
0.0
 11
381.0
 21
116.0
 31
0.0
  0
LINE
  5
551
330
1D
100
AcDbEntity
  8
CSLAYER10
  6
Continuous
100
AcDbLine
 10
175.113748896286
 20
135.692728644443
 30
0.0
 11
194.850786748414
 21
92.193667428752
 31
0.0
  0
LINE
  5
552
330
1D
100
AcDbEntity
  8
CSLAYER10
  6
Continuous
100
AcDbLine
 10
175.113748896286
 20
135.692728644443
 30
0.0
 11
176.38335632507
 21
134.147382807324
 31
0.0
  0
LINE
  5
553
330
1D
100
AcDbEntity
  8
CSLAYER10
  6
Continuous
100
AcDbLine
 10
175.113748896286
 20
135.692728644443
 30
0.0
 11
175.440588204909
 21
133.719615541339
 31
0.0
  0
LINE
  5
554
330
1D
100
AcDbEntity
  8
CSLAYER10
  6
Continuous
100
AcDbLine
 10
194.850786748414
 20
92.193667428752
 30
0.0
 11
223.015017748414
 21
92.193667428752
 31
0.0
  0
LINE
  5
555
330
1D
100
AcDbEntity
  8
CSLAYER10
  6
Continuous
100
AcDbLine
 10
223.015017748414
 20
92.193667428752
 30
0.0
 11
198.515017748414
 21
92.193667428752
 31
0.0
  0
TEXT
  5
556
330
1D
100
AcDbEntity
  8
CSLAYER10
100
AcDbText
 10
195.166452748414
 20
93.059188428752
 30
0.0
 40
4.0
  1
3-3.5mmネジ用穴
 41
0.595739559514
  7
FX_FONT
 72
     5
 11
222.666452748414
 21
93.059188428752
 31
0.0
100
AcDbText
  0
LINE
  5
557
330
1D
100
AcDbEntity
  8
CSLAYER10
  6
Continuous
100
AcDbLine
 10
354.55
 20
250.818653
 30
0.0
 11
363.892305
 21
267.0
 31
0.0
  0
LINE
  5
558
330
1D
100
AcDbEntity
  8
CSLAYER10
  6
Continuous
100
AcDbLine
 10
354.55
 20
250.818653
 30
0.0
 11
355.067638
 21
252.750505
 31
0.0
  0
LINE
  5
559
330
1D
100
AcDbEntity
  8
CSLAYER10
  6
Continuous
100
AcDbLine
 10
354.55
 20
250.818653
 30
0.0
 11
355.964214
 21
252.232867
 31
0.0
  0
LINE
  5
55A
330
1D
100
AcDbEntity
  8
CSLAYER10
  6
Continuous
100
AcDbLine
 10
363.892305
 20
267.0
 30
0.0
 11
334.892305
 21
267.0
 31
0.0
  0
LINE
  5
55B
330
1D
100
AcDbEntity
  8
CSLAYER10
  6
Continuous
100
AcDbLine
 10
334.892305
 20
267.0
 30
0.0
 11
359.80342
 21
267.0
 31
0.0
  0
TEXT
  5
55C
330
1D
100
AcDbEntity
  8
CSLAYER10
100
AcDbText
 10
335.942749
 20
268.085358
 30
0.0
 40
4.0
  1
4-3.5mmネジ用穴
 41
0.595739559514
  7
FX_FONT
 72
     5
 11
363.442749
 21
268.085358
 31
0.0
100
AcDbText
  0
TEXT
  5
55D
330
1D
100
AcDbEntity
  8
CSLAYER10
100
AcDbText
 10
285.75
 20
198.0
 30
0.0
 40
4.0
  1
3
 41
0.75
  7
FX_FONT
 72
     5
 11
288.25
 21
198.0
 31
0.0
100
AcDbText
  0
LINE
  5
55E
330
1D
100
AcDbEntity
  8
CSLAYER10
  6
Continuous
100
AcDbLine
 10
290.5
 20
197.0
 30
0.0
 11
293.5
 21
197.0
 31
0.0
  0
LINE
  5
55F
330
1D
100
AcDbEntity
  8
CSLAYER10
  6
Continuous
100
AcDbLine
 10
290.5
 20
221.0
 30
0.0
 11
290.5
 21
196.0
 31
0.0
  0
LINE
  5
560
330
1D
100
AcDbEntity
  8
CSLAYER10
  6
Continuous
100
AcDbLine
 10
293.5
 20
197.0
 30
0.0
 11
298.5
 21
197.0
 31
0.0
  0
LINE
  5
561
330
1D
100
AcDbEntity
  8
CSLAYER10
  6
Continuous
100
AcDbLine
 10
293.5
 20
197.0
 30
0.0
 11
295.431852
 21
197.517638
 31
0.0
  0
LINE
  5
562
330
1D
100
AcDbEntity
  8
CSLAYER10
  6
Continuous
100
AcDbLine
 10
293.5
 20
197.0
 30
0.0
 11
295.431852
 21
196.482362
 31
0.0
  0
LINE
  5
563
330
1D
100
AcDbEntity
  8
CSLAYER10
  6
Continuous
100
AcDbLine
 10
283.5
 20
197.0
 30
0.0
 11
290.5
 21
197.0
 31
0.0
  0
LINE
  5
564
330
1D
100
AcDbEntity
  8
CSLAYER10
  6
Continuous
100
AcDbLine
 10
290.5
 20
197.0
 30
0.0
 11
288.568148
 21
197.517638
 31
0.0
  0
LINE
  5
565
330
1D
100
AcDbEntity
  8
CSLAYER10
  6
Continuous
100
AcDbLine
 10
290.5
 20
197.0
 30
0.0
 11
288.568148
 21
196.482362
 31
0.0
  0
TEXT
  5
566
330
1D
100
AcDbEntity
  8
CSLAYER10
100
AcDbText
 10
142.330109
 20
192.0
 30
0.0
 40
4.0
  1
5
 41
0.75
  7
FX_FONT
 72
     5
 11
144.830109
 21
192.0
 31
0.0
100
AcDbText
  0
LINE
  5
567
330
1D
100
AcDbEntity
  8
CSLAYER10
  6
Continuous
100
AcDbLine
 10
147.580109
 20
191.0
 30
0.0
 11
152.580109
 21
191.0
 31
0.0
  0
LINE
  5
568
330
1D
100
AcDbEntity
  8
CSLAYER10
  6
Continuous
100
AcDbLine
 10
147.580109
 20
202.5
 30
0.0
 11
147.580109
 21
190.0
 31
0.0
  0
LINE
  5
569
330
1D
100
AcDbEntity
  8
CSLAYER10
  6
Continuous
100
AcDbLine
 10
152.580109
 20
191.0
 30
0.0
 11
157.580109
 21
191.0
 31
0.0
  0
LINE
  5
56A
330
1D
100
AcDbEntity
  8
CSLAYER10
  6
Continuous
100
AcDbLine
 10
152.580109
 20
191.0
 30
0.0
 11
154.511961
 21
191.517638
 31
0.0
  0
LINE
  5
56B
330
1D
100
AcDbEntity
  8
CSLAYER10
  6
Continuous
100
AcDbLine
 10
152.580109
 20
191.0
 30
0.0
 11
154.511961
 21
190.482362
 31
0.0
  0
LINE
  5
56C
330
1D
100
AcDbEntity
  8
CSLAYER10
  6
Continuous
100
AcDbLine
 10
139.580109
 20
191.0
 30
0.0
 11
147.580109
 21
191.0
 31
0.0
  0
LINE
  5
56D
330
1D
100
AcDbEntity
  8
CSLAYER10
  6
Continuous
100
AcDbLine
 10
147.580109
 20
191.0
 30
0.0
 11
145.648258
 21
191.517638
 31
0.0
  0
LINE
  5
56E
330
1D
100
AcDbEntity
  8
CSLAYER10
  6
Continuous
100
AcDbLine
 10
147.580109
 20
191.0
 30
0.0
 11
145.648258
 21
190.482362
 31
0.0
  0
SPLINE
  5
59C
330
1D
100
AcDbEntity
  8
CSLAYER1
100
AcDbSpline
210
0.0
220
0.0
230
1.0
 70
  1064
 71
     3
 72
     9
 73
     5
 74
     3
 42
0.000000001
 43
0.0000000001
 44
0.0
 12
1.0
 22
0.0
 32
0.0
 13
-0.9895890930501341
 23
-0.1439215998945711
 33
0.0
 40
0.0
 40
0.0
 40
0.0
 40
0.0
 40
4.100304866714204
 40
8.200609733428362
 40
8.200609733428362
 40
8.200609733428362
 40
8.200609733428362
 10
183.580109
 20
252.2205519837133
 30
0.0
 10
184.9468772889047
 20
252.2205519837133
 30
0.0
 10
187.2204553598341
 20
248.8721982443012
 30
0.0
 10
184.9326479914269
 20
245.9172594625377
 30
0.0
 10
183.580109
 20
245.7205519837133
 30
0.0
 11
183.580109
 21
252.2205519837133
 31
0.0
 11
186.080109
 21
248.9705519837133
 31
0.0
 11
183.580109
 21
245.7205519837133
 31
0.0
  0
SPLINE
  5
5C9
330
1D
100
AcDbEntity
  8
CSLAYER1
100
AcDbSpline
210
0.0
220
0.0
230
1.0
 70
  1064
 71
     3
 72
     9
 73
     5
 74
     3
 42
0.000000001
 43
0.0000000001
 44
0.0
 12
1.0
 22
0.0
 32
0.0
 13
-0.9895890930501341
 23
-0.1439215998945711
 33
0.0
 40
0.0
 40
0.0
 40
0.0
 40
0.0
 40
4.077003198404423
 40
8.200688357521997
 40
8.200688357521997
 40
8.200688357521997
 40
8.200688357521997
 10
183.580109
 20
218.2205519837133
 30
0.0
 10
184.9391100661348
 20
218.2205519837133
 30
0.0
 10
187.2205638487557
 20
214.8946530347796
 30
0.0
 10
184.9403602855452
 20
211.9183811055672
 30
0.0
 10
183.580109
 20
211.7205519837133
 30
0.0
 11
183.580109
 21
218.2205519837133
 31
0.0
 11
186.080109
 21
215.0
 31
0.0
 11
183.580109
 21
211.7205519837133
 31
0.0
  0
CIRCLE
  5
5F9
330
1D
100
AcDbEntity
  8
CSLAYER1
100
AcDbCircle
 10
303.5
 20
249.0
 30
0.0
 40
3.25
  0
LINE
  5
5FA
330
1D
100
AcDbEntity
  8
CSLAYER1
100
AcDbLine
 10
301.91993489012
 20
247.41993489012
 30
0.0
 11
305.08006510988
 21
250.58006510988
 31
0.0
  0
LINE
  5
5FB
330
1D
100
AcDbEntity
  8
CSLAYER1
100
AcDbLine
 10
301.91993489012
 20
250.58006510988
 30
0.0
 11
305.08006510988
 21
247.41993489012
 31
0.0
  0
CIRCLE
  5
5FF
330
1D
100
AcDbEntity
  8
CSLAYER1
100
AcDbCircle
 10
353.5
 20
249.0
 30
0.0
 40
3.25
  0
LINE
  5
600
330
1D
100
AcDbEntity
  8
CSLAYER1
100
AcDbLine
 10
351.91993489012
 20
247.41993489012
 30
0.0
 11
355.08006510988
 21
250.58006510988
 31
0.0
  0
LINE
  5
601
330
1D
100
AcDbEntity
  8
CSLAYER1
100
AcDbLine
 10
351.91993489012
 20
250.58006510988
 30
0.0
 11
355.08006510988
 21
247.41993489012
 31
0.0
  0
CIRCLE
  5
602
330
1D
100
AcDbEntity
  8
CSLAYER1
100
AcDbCircle
 10
353.5
 20
215.0
 30
0.0
 40
3.25
  0
LINE
  5
603
330
1D
100
AcDbEntity
  8
CSLAYER1
100
AcDbLine
 10
351.91993489012
 20
213.41993489012
 30
0.0
 11
355.08006510988
 21
216.58006510988
 31
0.0
  0
LINE
  5
604
330
1D
100
AcDbEntity
  8
CSLAYER1
100
AcDbLine
 10
351.91993489012
 20
216.58006510988
 30
0.0
 11
355.08006510988
 21
213.41993489012
 31
0.0
  0
CIRCLE
  5
605
330
1D
100
AcDbEntity
  8
CSLAYER1
100
AcDbCircle
 10
303.5
 20
215.0
 30
0.0
 40
3.25
  0
LINE
  5
606
330
1D
100
AcDbEntity
  8
CSLAYER1
100
AcDbLine
 10
301.91993489012
 20
213.41993489012
 30
0.0
 11
305.08006510988
 21
216.58006510988
 31
0.0
  0
LINE
  5
607
330
1D
100
AcDbEntity
  8
CSLAYER1
100
AcDbLine
 10
301.91993489012
 20
216.58006510988
 30
0.0
 11
305.08006510988
 21
213.41993489012
 31
0.0
  0
CIRCLE
  5
60B
330
1D
100
AcDbEntity
  8
CSLAYER1
100
AcDbCircle
 10
163.092522700619
 20
154.240794700619
 30
0.0
 40
3.25
  0
LINE
  5
60C
330
1D
100
AcDbEntity
  8
CSLAYER1
100
AcDbLine
 10
161.512457590739
 20
152.660729590739
 30
0.0
 11
164.672587810499
 21
155.820859810499
 31
0.0
  0
LINE
  5
60D
330
1D
100
AcDbEntity
  8
CSLAYER1
100
AcDbLine
 10
161.512457590739
 20
155.8208598105
 30
0.0
 11
164.672587810499
 21
152.660729590739
 31
0.0
  0
CIRCLE
  5
60E
330
1D
100
AcDbEntity
  8
CSLAYER1
100
AcDbCircle
 10
173.077381
 20
138.225653
 30
0.0
 40
3.25
  0
LINE
  5
60F
330
1D
100
AcDbEntity
  8
CSLAYER1
100
AcDbLine
 10
171.49731589012
 20
136.64558789012
 30
0.0
 11
174.65744610988
 21
139.80571810988
 31
0.0
  0
LINE
  5
610
330
1D
100
AcDbEntity
  8
CSLAYER1
100
AcDbLine
 10
171.49731589012
 20
139.80571810988
 30
0.0
 11
174.65744610988
 21
136.64558789012
 31
0.0
  0
CIRCLE
  5
611
330
1D
100
AcDbEntity
  8
CSLAYER1
100
AcDbCircle
 10
163.245634235834
 20
122.393906235834
 30
0.0
 40
3.25
  0
LINE
  5
612
330
1D
100
AcDbEntity
  8
CSLAYER1
100
AcDbLine
 10
161.665569125954
 20
120.813841125954
 30
0.0
 11
164.825699345715
 21
123.973971345715
 31
0.0
  0
LINE
  5
613
330
1D
100
AcDbEntity
  8
CSLAYER1
100
AcDbLine
 10
161.665569125954
 20
123.973971345715
 30
0.0
 11
164.825699345715
 21
120.813841125954
 31
0.0
  0
HATCH
  5
614
102
{ACAD_XDICTIONARY
360
616
102
}
330
1D
100
AcDbEntity
  8
CSLAYER10
100
AcDbHatch
 10
0.0
 20
0.0
 30
0.0
210
0.0
220
0.0
230
1.0
  2
_USER
 70
     0
 71
     1
 91
        8
 92
        7
 72
     1
 73
     1
 93
        9
 10
88.78759765605484
 20
236.5164541208898
 42
-0.3659773829854914
 10
87.539416955711
 20
236.846168563649
 42
0.0
 10
87.539417
 20
236.846169
 42
0.0
 10
86.63091765889686
 20
238.143640284224
 42
0.2446984402759765
 10
83.432741
 20
232.0
 42
0.0
 10
90.93274120063029
 20
232.0
 42
0.0
 10
90.932741
 20
232.0
 42
0.0
 10
90.932741
 20
237.0
 42
0.1113106180003089
 10
88.7875977197258
 20
236.5164543955513
 42
0.0
 97
        6
330
230
330
22F
330
355
330
354
330
356
330
231
 92
        7
 72
     1
 73
     1
 93
        7
 10
87.539416955711
 20
236.846168563649
 42
0.3659773829854914
 10
88.78759765605484
 20
236.5164541208898
 42
0.0
 10
88.7875977197258
 20
236.5164543955513
 42
-0.1113106180003089
 10
90.932741
 20
237.0
 42
0.0
 10
90.932741
 20
239.5
 42
0.1539147239120601
 10
86.63091765889686
 20
238.143640284224
 42
0.0
 10
87.539417
 20
236.846169
 42
0.0
 97
        5
330
230
330
231
330
356
330
355
330
22F
 92
        7
 72
     1
 73
     1
 93
       10
 10
90.93274120063029
 20
232.0
 42
0.0
 10
95.801686
 20
237.702912
 42
0.0
 10
95.8025591525752
 20
237.7039347086769
 42
0.0239571793770579
 10
95.23456419024923
 20
238.1436403898531
 42
0.0
 10
94.326065
 20
236.846169
 42
0.0
 10
94.326065044289
 20
236.846168563649
 42
-0.365977382985491
 10
93.07788434394516
 20
236.5164541208898
 42
0.0
 10
93.07788428027419
 20
236.5164543955513
 42
0.111310618000309
 10
90.932741
 20
237.0
 42
0.0
 10
90.932741
 20
232.0
 42
0.0
 97
        6
330
4E6
330
355
330
233
330
232
330
231
330
356
 92
        7
 72
     1
 73
     1
 93
        7
 10
93.07788434394516
 20
236.5164541208898
 42
0.365977382985491
 10
94.326065044289
 20
236.846168563649
 42
0.0
 10
94.326065
 20
236.846169
 42
0.0
 10
95.23456419024923
 20
238.1436403898531
 42
0.1539147176280179
 10
90.932741
 20
239.5
 42
0.0
 10
90.932741
 20
237.0
 42
-0.111310618000309
 10
93.07788428027419
 20
236.5164543955513
 42
0.0
 97
        5
330
232
330
233
330
355
330
356
330
231
 92
        7
 72
     1
 73
     1
 93
        4
 10
95.801686
 20
237.702912
 42
0.0
 10
90.93274120063029
 20
232.0
 42
0.0
 10
98.432741
 20
232.0
 42
0.2194547611422261
 10
95.8025591525752
 20
237.7039347086769
 42
0.0
 97
        3
330
4E6
330
354
330
355
 92
        7
 72
     1
 73
     1
 93
        4
 10
98.432741
 20
232.0
 42
0.0
 10
90.93274120063029
 20
232.0
 42
0.0
 10
90.932741
 20
232.0
 42
0.0
 10
90.932741
 20
224.5
 42
0.414213562373095
 97
        3
330
354
330
356
330
355
 92
        7
 72
     1
 73
     1
 93
        5
 10
90.93274120063029
 20
232.0
 42
0.0
 10
86.062923
 20
226.296065
 42
0.0
 10
86.06292307953382
 20
226.2960650931566
 42
0.1785301920815533
 10
90.932741
 20
224.5
 42
0.0
 10
90.932741
 20
232.0
 42
0.0
 97
        3
330
4E6
330
355
330
356
 92
        7
 72
     1
 73
     1
 93
        4
 10
86.062923
 20
226.296065
 42
0.0
 10
90.93274120063029
 20
232.0
 42
0.0
 10
83.432741
 20
232.0
 42
0.2194547718053689
 10
86.06292307953382
 20
226.2960650931566
 42
0.0
 97
        3
330
4E6
330
354
330
355
 75
     0
 76
     0
 52
135.0
 41
2.5
 77
     0
 78
     1
 53
135.0
 43
0.0
 44
0.0
 45
-1.767766952966369
 46
-1.767766952966369
 79
     0
 47
0.0
 98
        8
 10
87.51792024382985
 20
233.562375098208
 10
88.42491764661567
 20
236.8193203173025
 10
91.51695424702189
 20
235.541278522468
 10
92.3827244951356
 20
237.6850905654162
 10
95.92825979693473
 20
233.3974664795196
 10
95.18617101283725
 20
229.8107040230485
 10
89.95032236948273
 20
228.6975708469022
 10
87.1468758517811
 20
230.099294105753
1001
ACAD
1010
0.0
1020
0.0
1030
0.0
1001
AcadAnnotative
1000
AnnotativeData
1002
{
1070
     1
1070
     0
1002
}
  0
LINE
  5
619
330
1D
100
AcDbEntity
  8
CSLAYER1
  6
Continuous
100
AcDbLine
 10
147.580109
 20
203.5
 30
0.0
 11
152.580109
 21
203.5
 31
0.0
  0
LINE
  5
61A
330
1D
100
AcDbEntity
  8
CSLAYER1
  6
Continuous
100
AcDbLine
 10
147.880109
 20
202.0
 30
0.0
 11
147.880109
 21
203.5
 31
0.0
  0
LINE
  5
61B
330
1D
100
AcDbEntity
  8
CSLAYER1
  6
Continuous
100
AcDbLine
 10
152.580109
 20
202.0
 30
0.0
 11
147.880109
 21
202.0
 31
0.0
  0
SPLINE
  5
6CB
330
1D
100
AcDbEntity
  8
CSLAYER1
100
AcDbSpline
210
0.0
220
0.0
230
1.0
 70
  1064
 71
     3
 72
     9
 73
     5
 74
     3
 42
0.000000001
 43
0.0000000001
 44
0.0
 12
6.123233995736766E-17
 22
1.0
 32
0.0
 13
0.143921599894571
 23
-0.9895890930501341
 33
0.0
 40
0.0
 40
0.0
 40
0.0
 40
0.0
 40
4.077003198404423
 40
8.200688357521997
 40
8.200688357521997
 40
8.200688357521997
 40
8.200688357521997
 10
300.2808048470067
 20
117.0
 30
0.0
 10
300.2808048470067
 20
118.3590010661348
 30
0.0
 10
303.6067037959403
 20
120.6404548487557
 30
0.0
 10
306.5829757251528
 20
118.3602512855451
 30
0.0
 10
306.7808048470067
 20
117.0
 30
0.0
 11
300.2808048470067
 21
117.0
 31
0.0
 11
303.50135683072
 21
119.5
 31
0.0
 11
306.7808048470067
 21
117.0
 31
0.0
  0
SPLINE
  5
6CC
330
1D
100
AcDbEntity
  8
CSLAYER1
100
AcDbSpline
210
0.0
220
0.0
230
1.0
 70
  1064
 71
     3
 72
     9
 73
     5
 74
     3
 42
0.000000001
 43
0.0000000001
 44
0.0
 12
-6.123233995736766E-17
 22
1.0
 32
0.0
 13
-0.143921599894571
 23
-0.9895890930501341
 33
0.0
 40
0.0
 40
0.0
 40
0.0
 40
0.0
 40
4.077003198404423
 40
8.200688357521997
 40
8.200688357521997
 40
8.200688357521997
 40
8.200688357521997
 10
356.7191951529933
 20
117.0
 30
0.0
 10
356.7191951529933
 20
118.3590010661348
 30
0.0
 10
353.3932962040595
 20
120.6404548487557
 30
0.0
 10
350.4170242748472
 20
118.3602512855451
 30
0.0
 10
350.2191951529933
 20
117.0
 30
0.0
 11
356.7191951529933
 21
117.0
 31
0.0
 11
353.49864316928
 21
119.5
 31
0.0
 11
350.2191951529933
 21
117.0
 31
0.0
  0
TEXT
  5
72A
330
1D
100
AcDbEntity
  8
CSLAYER10
100
AcDbText
 10
48.780901096279
 20
296.857933419939
 30
0.0
 40
8.0
  1
1100-P
100
AcDbText
  0
LINE
  5
72B
330
1D
100
AcDbEntity
  8
CSLAYER10
100
AcDbLine
 10
47.339364625622
 20
294.892201869043
 30
0.0
 11
88.292105269292
 21
294.892201869043
 31
0.0
  0
ENDSEC
  0
SECTION
  2
OBJECTS
  0
DICTIONARY
  5
C
330
0
100
AcDbDictionary
281
     1
  3
ACAD_DETAILVIEWSTYLE
350
78D
  3
ACAD_GROUP
350
D
  3
ACAD_LAYOUT
350
1A
  3
ACAD_MATERIAL
350
438
  3
ACAD_MLEADERSTYLE
350
43E
  3
ACAD_MLINESTYLE
350
17
  3
ACAD_PLOTSETTINGS
350
19
  3
ACAD_PLOTSTYLENAME
350
E
  3
ACAD_SCALELIST
350
3F9
  3
ACAD_SECTIONVIEWSTYLE
350
78E
  3
ACAD_TABLESTYLE
350
43C
  3
ACAD_VISUALSTYLE
350
41F
  3
ACDB_RECOMPOSE_DATA
350
78C
  3
AcDbVariableDictionary
350
65E
  0
SUN
  5
441
330
3B
100
AcDbSun
 90
        1
290
     0
 63
     7
 40
1.0
291
     1
 91
  2455826
 92
 54000000
292
     0
 70
     2
 71
   256
280
     1
  0
DICTIONARY
  5
59D
330
1D
100
AcDbDictionary
280
     1
281
     1
  3
ACAD_SORTENTS
360
59E
  0
DICTIONARY
  5
594
330
56F
100
AcDbDictionary
280
     1
281
     1
  3
ACAD_SORTENTS
360
595
  0
DICTIONARY
  5
5C3
330
59F
100
AcDbDictionary
280
     1
281
     1
  3
ACAD_SORTENTS
360
5C4
  0
DICTIONARY
  5
5F1
330
5CD
100
AcDbDictionary
280
     1
281
     1
  3
ACAD_SORTENTS
360
5F2
  0
DICTIONARY
  5
6C5
330
6A0
100
AcDbDictionary
280
     1
281
     1
  3
ACAD_SORTENTS
360
6C6
  0
DICTIONARY
  5
616
330
614
100
AcDbDictionary
280
     1
281
     1
  3
AcDbContextDataManager
360
617
  0
DICTIONARY
  5
78D
102
{ACAD_REACTORS
330
C
102
}
330
C
100
AcDbDictionary
281
     1
  0
DICTIONARY
  5
D
102
{ACAD_REACTORS
330
C
102
}
330
C
100
AcDbDictionary
281
     1
  0
DICTIONARY
  5
1A
102
{ACAD_REACTORS
330
C
102
}
330
C
100
AcDbDictionary
281
     1
  3
Layout1
350
1C
  3
Model
350
1E
  0
DICTIONARY
  5
438
102
{ACAD_REACTORS
330
C
102
}
330
C
100
AcDbDictionary
281
     1
  3
ByBlock
350
43A
  3
ByLayer
350
439
  3
Global
350
43B
  0
DICTIONARY
  5
43E
102
{ACAD_REACTORS
330
C
102
}
330
C
100
AcDbDictionary
281
     1
  3
Standard
350
43F
  0
DICTIONARY
  5
17
102
{ACAD_REACTORS
330
C
102
}
330
C
100
AcDbDictionary
281
     1
  3
Standard
350
18
  0
DICTIONARY
  5
19
102
{ACAD_REACTORS
330
C
102
}
330
C
100
AcDbDictionary
281
     1
  0
ACDBDICTIONARYWDFLT
  5
E
102
{ACAD_REACTORS
330
C
102
}
330
C
100
AcDbDictionary
281
     1
  3
Normal
350
F
100
AcDbDictionaryWithDefault
340
F
  0
DICTIONARY
  5
3F9
102
{ACAD_REACTORS
330
C
102
}
330
C
100
AcDbDictionary
281
     1
  3
A0
350
3FA
  3
A1
350
3FB
  3
A2
350
3FC
  3
A3
350
3FD
  3
A4
350
3FE
  3
A5
350
3FF
  3
A6
350
400
  3
A7
350
401
  3
A8
350
402
  3
A9
350
403
  3
B0
350
404
  3
B1
350
405
  3
B2
350
406
  3
B3
350
407
  3
B4
350
408
  3
B5
350
409
  3
B6
350
40A
  3
B7
350
40B
  3
B8
350
40C
  3
B9
350
40D
  3
C0
350
40E
  3
C1
350
40F
  3
C2
350
410
  3
C3
350
411
  3
C4
350
412
  3
C5
350
413
  3
C6
350
414
  3
C7
350
415
  3
C8
350
416
  3
C9
350
417
  3
D0
350
418
  3
D1
350
419
  3
D2
350
41A
  0
DICTIONARY
  5
78E
102
{ACAD_REACTORS
330
C
102
}
330
C
100
AcDbDictionary
281
     1
  0
DICTIONARY
  5
43C
102
{ACAD_REACTORS
330
C
102
}
330
C
100
AcDbDictionary
281
     1
  3
Standard
350
43D
  0
DICTIONARY
  5
41F
102
{ACAD_REACTORS
330
C
102
}
330
C
100
AcDbDictionary
281
     1
  3
2dWireframe
350
424
  3
Basic
350
427
  3
Brighten
350
42B
  3
ColorChange
350
42F
  3
Conceptual
350
429
  3
Dim
350
42A
  3
EdgeColorOff
350
432
  3
Facepattern
350
42E
  3
Flat
350
420
  3
FlatWithEdges
350
421
  3
Gouraud
350
422
  3
GouraudWithEdges
350
423
  3
Hidden
350
426
  3
JitterOff
350
430
  3
Linepattern
350
42D
  3
Modeling
350
440
  3
OverhangOff
350
431
  3
Realistic
350
428
  3
Shaded
350
437
  3
Shaded with edges
350
436
  3
Shades of Gray
350
433
  3
Sketchy
350
434
  3
Thicken
350
42C
  3
Wireframe
350
425
  3
X-Ray
350
435
  0
XRECORD
  5
78C
102
{ACAD_REACTORS
330
C
102
}
330
C
100
AcDbXrecord
280
     1
 90
        1
330
43D
  0
DICTIONARY
  5
65E
102
{ACAD_REACTORS
330
C
102
}
330
C
100
AcDbDictionary
281
     1
  3
CANNOSCALE
350
789
  3
CMLEADERSTYLE
350
660
  3
CTABLESTYLE
350
65F
  3
DIMASSOC
350
664
  3
HIDETEXT
350
665
  3
MSLTSCALE
350
661
  0
SORTENTSTABLE
  5
59E
102
{ACAD_REACTORS
330
59D
102
}
330
59D
100
AcDbSortentsTable
330
1D
331
22F
  5
230
331
230
  5
231
331
231
  5
232
331
232
  5
233
331
233
  5
234
331
234
  5
235
331
235
  5
236
331
236
  5
237
331
237
  5
238
331
238
  5
239
331
239
  5
23A
331
23A
  5
23B
331
23B
  5
23C
331
23C
  5
23D
331
23D
  5
23E
331
23E
  5
23F
331
23F
  5
240
331
243
  5
244
331
244
  5
245
331
245
  5
246
331
246
  5
247
331
247
  5
248
331
248
  5
249
331
249
  5
24A
331
24A
  5
24B
331
24B
  5
24C
331
24C
  5
24D
331
24D
  5
24E
331
24E
  5
24F
331
24F
  5
250
331
250
  5
251
331
251
  5
252
331
252
  5
253
331
253
  5
254
331
254
  5
255
331
255
  5
256
331
256
  5
257
331
257
  5
258
331
258
  5
259
331
259
  5
25A
331
25A
  5
25B
331
25B
  5
25C
331
25C
  5
25D
331
25D
  5
25E
331
25E
  5
25F
331
25F
  5
260
331
260
  5
261
331
261
  5
262
331
262
  5
263
331
263
  5
264
331
264
  5
265
331
265
  5
266
331
266
  5
267
331
267
  5
268
331
268
  5
269
331
269
  5
26A
331
26A
  5
26B
331
26B
  5
26C
331
26C
  5
26D
331
26D
  5
26E
331
26E
  5
26F
331
26F
  5
270
331
270
  5
271
331
271
  5
272
331
272
  5
273
331
273
  5
274
331
274
  5
275
331
275
  5
276
331
276
  5
277
331
277
  5
278
331
278
  5
279
331
279
  5
27A
331
27A
  5
27B
331
27B
  5
27C
331
27C
  5
27D
331
27D
  5
27E
331
27E
  5
27F
331
27F
  5
280
331
280
  5
281
331
281
  5
282
331
282
  5
283
331
283
  5
284
331
284
  5
285
331
285
  5
286
331
286
  5
287
331
287
  5
288
331
288
  5
289
331
289
  5
28A
331
28A
  5
28B
331
28B
  5
28C
331
28C
  5
28D
331
28D
  5
28E
331
28E
  5
28F
331
28F
  5
290
331
290
  5
291
331
291
  5
292
331
292
  5
293
331
293
  5
294
331
296
  5
297
331
297
  5
298
331
298
  5
299
331
299
  5
29A
331
29A
  5
29B
331
29B
  5
29C
331
29C
  5
29D
331
29D
  5
29E
331
29E
  5
29F
331
29F
  5
2A0
331
2A0
  5
2A1
331
2A1
  5
2A2
331
2A2
  5
2A3
331
2A3
  5
2A4
331
2A4
  5
2A5
331
2AE
  5
2AF
331
2AF
  5
2B0
331
2B0
  5
2B1
331
2B1
  5
2B2
331
2B2
  5
2B3
331
2B3
  5
2B4
331
2B4
  5
2B5
331
2B5
  5
2B6
331
2B6
  5
2B7
331
2B7
  5
2B8
331
2B8
  5
2B9
331
2B9
  5
2BA
331
2BA
  5
2BB
331
2BB
  5
2BC
331
2BC
  5
2BD
331
2BD
  5
2BE
331
2BE
  5
2BF
331
2BF
  5
2C0
331
2C0
  5
2C1
331
2C1
  5
2C2
331
2C2
  5
2C3
331
2C3
  5
2C4
331
2C4
  5
2C5
331
2C5
  5
2C6
331
2C6
  5
2C7
331
2C7
  5
2C8
331
2C8
  5
2C9
331
2C9
  5
2CA
331
2CA
  5
2CB
331
2CB
  5
2CC
331
2CC
  5
2CD
331
2CD
  5
2CE
331
2CE
  5
2CF
331
2CF
  5
2D0
331
2D0
  5
2D1
331
2D1
  5
2D2
331
2D3
  5
2D4
331
2D4
  5
2D5
331
2D5
  5
2D6
331
2D6
  5
2D7
331
2D7
  5
2D8
331
2D8
  5
2D9
331
2D9
  5
2DA
331
2DA
  5
2DB
331
2DB
  5
2DC
331
2DC
  5
2DD
331
2DD
  5
2DE
331
2DE
  5
2DF
331
2DF
  5
2E0
331
2E0
  5
2E1
331
2E1
  5
2E2
331
2E2
  5
2E3
331
2E3
  5
2E4
331
2E4
  5
2E5
331
2E5
  5
2E6
331
2E6
  5
2E7
331
2E9
  5
2EA
331
2EA
  5
2EB
331
2EB
  5
2EC
331
2EC
  5
2ED
331
2ED
  5
2EE
331
2EE
  5
2EF
331
2EF
  5
2F0
331
2F0
  5
2F1
331
2F1
  5
2F2
331
2F2
  5
2F3
331
2F3
  5
2F4
331
2F4
  5
2F5
331
2F5
  5
2F6
331
2F6
  5
2F7
331
2F8
  5
2F9
331
2F9
  5
2FA
331
30A
  5
30B
331
30B
  5
30C
331
30C
  5
30D
331
30D
  5
30E
331
30E
  5
30F
331
30F
  5
310
331
310
  5
311
331
311
  5
312
331
312
  5
313
331
313
  5
314
331
314
  5
315
331
315
  5
316
331
316
  5
317
331
317
  5
318
331
318
  5
319
331
319
  5
31A
331
31A
  5
31B
331
31B
  5
31C
331
31C
  5
31D
331
31D
  5
31E
331
31E
  5
31F
331
31F
  5
320
331
320
  5
321
331
321
  5
322
331
322
  5
323
331
323
  5
324
331
324
  5
325
331
325
  5
326
331
326
  5
327
331
327
  5
328
331
328
  5
329
331
329
  5
32A
331
347
  5
348
331
348
  5
349
331
349
  5
34A
331
34A
  5
34B
331
34B
  5
34C
331
34C
  5
34D
331
34D
  5
34E
331
34E
  5
34F
331
34F
  5
350
331
350
  5
351
331
351
  5
352
331
352
  5
353
331
353
  5
354
331
354
  5
355
331
355
  5
356
331
356
  5
357
331
366
  5
367
331
380
  5
381
331
384
  5
385
331
442
  5
443
331
443
  5
444
331
444
  5
445
331
445
  5
446
331
446
  5
447
331
447
  5
448
331
448
  5
449
331
449
  5
44A
331
44A
  5
44B
331
44B
  5
44C
331
44C
  5
44D
331
44D
  5
44E
331
44E
  5
44F
331
44F
  5
450
331
450
  5
451
331
451
  5
452
331
452
  5
453
331
453
  5
454
331
454
  5
455
331
455
  5
456
331
456
  5
457
331
457
  5
458
331
458
  5
459
331
459
  5
45A
331
45A
  5
45B
331
45B
  5
45C
331
45C
  5
45D
331
45D
  5
45E
331
45E
  5
45F
331
45F
  5
460
331
460
  5
461
331
461
  5
462
331
462
  5
463
331
463
  5
464
331
464
  5
465
331
465
  5
466
331
466
  5
467
331
467
  5
468
331
468
  5
469
331
469
  5
46A
331
46A
  5
46B
331
46B
  5
46C
331
46C
  5
46D
331
46D
  5
46E
331
46E
  5
46F
331
46F
  5
470
331
470
  5
471
331
471
  5
472
331
472
  5
473
331
473
  5
474
331
474
  5
475
331
475
  5
476
331
476
  5
477
331
477
  5
478
331
478
  5
479
331
479
  5
47A
331
47A
  5
47B
331
47B
  5
47C
331
47C
  5
47D
331
47D
  5
47E
331
47E
  5
47F
331
47F
  5
480
331
480
  5
481
331
481
  5
482
331
482
  5
483
331
483
  5
484
331
484
  5
485
331
485
  5
486
331
486
  5
487
331
487
  5
488
331
488
  5
489
331
489
  5
48A
331
48A
  5
48B
331
48B
  5
48C
331
48C
  5
48D
331
48D
  5
48E
331
48E
  5
48F
331
48F
  5
490
331
490
  5
491
331
491
  5
492
331
492
  5
493
331
493
  5
494
331
494
  5
495
331
495
  5
496
331
496
  5
497
331
497
  5
498
331
498
  5
499
331
499
  5
49A
331
49A
  5
49B
331
49B
  5
49C
331
49C
  5
49D
331
49D
  5
49E
331
49E
  5
49F
331
49F
  5
4A0
331
4A0
  5
4A1
331
4A1
  5
4A2
331
4A2
  5
4A3
331
4A3
  5
4A4
331
4A4
  5
4A5
331
4A5
  5
4A6
331
4A6
  5
4A7
331
4A7
  5
4A8
331
4A8
  5
4A9
331
4A9
  5
4AA
331
4AA
  5
4AB
331
4AB
  5
4AC
331
4AC
  5
4AD
331
4AD
  5
4AE
331
4AE
  5
4AF
331
4AF
  5
4B0
331
4B0
  5
4B1
331
4B1
  5
4B2
331
4B2
  5
4B3
331
4B3
  5
4B4
331
4B4
  5
4B5
331
4B5
  5
4B6
331
4B6
  5
4B7
331
4B7
  5
4B8
331
4B8
  5
4B9
331
4B9
  5
4BA
331
4BA
  5
4BB
331
4BB
  5
4BC
331
4BC
  5
4BD
331
4BD
  5
4BE
331
4BE
  5
4BF
331
4BF
  5
4C0
331
4C0
  5
4C1
331
4C1
  5
4C2
331
4C2
  5
4C3
331
4C3
  5
4C4
331
4C4
  5
4C5
331
4C5
  5
4C6
331
4C6
  5
4C7
331
4C7
  5
4C8
331
4C8
  5
4C9
331
4C9
  5
4CA
331
4CA
  5
4CB
331
4CB
  5
4CC
331
4CC
  5
4CD
331
4CD
  5
4CE
331
4CE
  5
4CF
331
4CF
  5
4D0
331
4D0
  5
4D1
331
4D1
  5
4D2
331
4D2
  5
4D3
331
4D3
  5
4D4
331
4D4
  5
4D5
331
4D5
  5
4D6
331
4D6
  5
4D7
331
4D7
  5
4D8
331
4D8
  5
4D9
331
4D9
  5
4DA
331
4DA
  5
4DB
331
4DB
  5
4DC
331
4DC
  5
4DD
331
4DD
  5
4DE
331
4DE
  5
4DF
331
4DF
  5
4E0
331
4E0
  5
4E1
331
4E1
  5
4E2
331
4E2
  5
4E3
331
4E3
  5
4E4
331
4E4
  5
4E5
331
4E5
  5
4E6
331
4E6
  5
4E7
331
4E7
  5
4E8
331
4E8
  5
4E9
331
4E9
  5
4EA
331
4EA
  5
4EB
331
4EB
  5
4EC
331
4EC
  5
4ED
331
4ED
  5
4EE
331
4EE
  5
4EF
331
4EF
  5
4F0
331
4F0
  5
4F1
331
4F1
  5
4F2
331
4F2
  5
4F3
331
4F3
  5
4F4
331
4F4
  5
4F5
331
4F5
  5
4F6
331
4F6
  5
4F7
331
4F7
  5
4F8
331
4F8
  5
4F9
331
4F9
  5
4FA
331
4FA
  5
4FB
331
4FB
  5
4FC
331
4FC
  5
4FD
331
4FD
  5
4FE
331
4FE
  5
4FF
331
4FF
  5
500
331
500
  5
501
331
501
  5
502
331
502
  5
503
331
503
  5
504
331
504
  5
505
331
505
  5
506
331
506
  5
507
331
507
  5
508
331
508
  5
509
331
509
  5
50A
331
50A
  5
50B
331
50B
  5
50C
331
50C
  5
50D
331
50D
  5
50E
331
50E
  5
50F
331
50F
  5
510
331
510
  5
511
331
511
  5
512
331
512
  5
513
331
513
  5
514
331
514
  5
515
331
515
  5
516
331
516
  5
517
331
517
  5
518
331
518
  5
519
331
519
  5
51A
331
51A
  5
51B
331
51B
  5
51C
331
51C
  5
51D
331
51D
  5
51E
331
51E
  5
51F
331
51F
  5
520
331
520
  5
521
331
521
  5
522
331
522
  5
523
331
523
  5
524
331
524
  5
525
331
525
  5
526
331
526
  5
527
331
527
  5
528
331
528
  5
529
331
529
  5
52A
331
52A
  5
52B
331
52B
  5
52C
331
52C
  5
52D
331
52D
  5
52E
331
52E
  5
52F
331
52F
  5
530
331
530
  5
531
331
531
  5
532
331
532
  5
533
331
533
  5
534
331
534
  5
535
331
535
  5
536
331
536
  5
537
331
537
  5
538
331
538
  5
539
331
539
  5
53A
331
53A
  5
53B
331
53B
  5
53C
331
53C
  5
53D
331
53D
  5
53E
331
53E
  5
53F
331
53F
  5
540
331
540
  5
541
331
541
  5
542
331
542
  5
543
331
543
  5
544
331
544
  5
545
331
545
  5
546
331
546
  5
547
331
547
  5
548
331
548
  5
549
331
549
  5
54A
331
54A
  5
54B
331
54B
  5
54C
331
54C
  5
54D
331
54D
  5
54E
331
54E
  5
54F
331
54F
  5
550
331
550
  5
551
331
551
  5
552
331
552
  5
553
331
553
  5
554
331
554
  5
555
331
555
  5
556
331
556
  5
557
331
557
  5
558
331
558
  5
559
331
559
  5
55A
331
55A
  5
55B
331
55B
  5
55C
331
55C
  5
55D
331
55D
  5
55E
331
55E
  5
55F
331
55F
  5
560
331
560
  5
561
331
561
  5
562
331
562
  5
563
331
563
  5
564
331
564
  5
565
331
565
  5
566
331
566
  5
567
331
567
  5
568
331
568
  5
569
331
569
  5
56A
331
56A
  5
56B
331
56B
  5
56C
331
56C
  5
56D
331
56D
  5
56E
331
56E
  5
59A
331
59C
  5
5C8
331
5C9
  5
5F8
331
5F9
  5
5FA
331
5FA
  5
5FB
331
5FB
  5
5FC
331
5FF
  5
600
331
600
  5
601
331
601
  5
602
331
602
  5
603
331
603
  5
604
331
604
  5
605
331
605
  5
606
331
606
  5
607
331
607
  5
608
331
60B
  5
60C
331
60C
  5
60D
331
60D
  5
60E
331
60E
  5
60F
331
60F
  5
610
331
610
  5
611
331
611
  5
612
331
612
  5
613
331
613
  5
614
331
614
  5
22F
  0
SORTENTSTABLE
  5
595
102
{ACAD_REACTORS
330
594
330
594
102
}
330
594
100
AcDbSortentsTable
330
56F
  0
SORTENTSTABLE
  5
5C4
102
{ACAD_REACTORS
330
5C3
330
5C3
102
}
330
5C3
100
AcDbSortentsTable
330
59F
  0
SORTENTSTABLE
  5
5F2
102
{ACAD_REACTORS
330
5F1
330
5F1
102
}
330
5F1
100
AcDbSortentsTable
330
5CD
  0
SORTENTSTABLE
  5
6C6
102
{ACAD_REACTORS
330
6C5
330
6C5
102
}
330
6C5
100
AcDbSortentsTable
330
6A0
  0
DICTIONARY
  5
617
102
{ACAD_REACTORS
330
616
102
}
330
616
100
AcDbDictionary
281
     1
  3
ACDB_ANNOTATIONSCALES
350
618
  0
LAYOUT
  5
1C
102
{ACAD_REACTORS
330
1A
102
}
330
1A
100
AcDbPlotSettings
  1

  2
none_device
  4

  6

 40
0.0
 41
0.0
 42
0.0
 43
0.0
 44
0.0
 45
0.0
 46
0.0
 47
0.0
 48
0.0
 49
0.0
140
0.0
141
0.0
142
1.0
143
1.0
 70
   688
 72
     0
 73
     0
 74
     5
  7
monochrome.ctb
 75
    16
 76
     0
 77
     2
 78
   300
147
1.0
148
0.0
149
0.0
100
AcDbLayout
  1
Layout1
 70
     1
 71
     1
 10
0.0
 20
0.0
 11
12.0
 21
9.0
 12
0.0
 22
0.0
 32
0.0
 14
1.000000000000E+20
 24
1.000000000000E+20
 34
1.000000000000E+20
 15
-1.000000000000E+20
 25
-1.000000000000E+20
 35
-1.000000000000E+20
146
0.0
 13
0.0
 23
0.0
 33
0.0
 16
1.0
 26
0.0
 36
0.0
 17
0.0
 27
1.0
 37
0.0
 76
     0
330
1B
  0
LAYOUT
  5
1E
102
{ACAD_REACTORS
330
1A
102
}
330
1A
100
AcDbPlotSettings
  1

  2
RICOH imagio MP C3500 RPCS
  4
A3
  6

 40
5.08
 41
5.08
 42
5.08
 43
5.08
 44
297.0
 45
420.0
 46
18.24351590577
 47
0.0
 48
23.3808
 49
64.9272
140
430.3809
141
313.5454
142
1.0
143
0.993070710521
 70
  1716
 72
     1
 73
     1
 74
     4
  7
monochrome.ctb
 75
     0
 76
     0
 77
     2
 78
   300
147
1.006977639563
148
-239.403333258597
149
-255.473968054537
100
AcDbLayout
  1
Model
 70
     1
 71
     0
 10
0.0
 20
0.0
 11
12.0
 21
9.0
 12
0.0
 22
0.0
 32
0.0
 14
43.932739
 24
75.0
 34
0.0
 15
388.0
 25
304.857933419939
 35
0.0
146
0.0
 13
0.0
 23
0.0
 33
0.0
 16
1.0
 26
0.0
 36
0.0
 17
0.0
 27
1.0
 37
0.0
 76
     0
330
1D
331
3B
  0
MATERIAL
  5
43A
102
{ACAD_REACTORS
330
438
102
}
330
438
100
AcDbMaterial
  1
ByBlock
 72
     1
 94
      127
  0
MATERIAL
  5
439
102
{ACAD_REACTORS
330
438
102
}
330
438
100
AcDbMaterial
  1
ByLayer
 72
     1
 94
      127
  0
MATERIAL
  5
43B
102
{ACAD_REACTORS
330
438
102
}
330
438
100
AcDbMaterial
  1
Global
 72
     1
 94
      127
  0
MLEADERSTYLE
  5
43F
102
{ACAD_REACTORS
330
43E
102
}
330
43E
100
AcDbMLeaderStyle
179
     2
170
     2
171
     1
172
     0
 90
        2
 40
0.0
 41
0.0
173
     1
 91
-1056964608
340
14
 92
       -2
290
     1
 42
0.09
291
     1
 43
0.36
  3
Standard
341
0
 44
0.18
300

342
11
174
     1
178
     6
175
     1
176
     0
 93
-1056964608
 45
0.18
292
     0
297
     0
 46
0.18
343
0
 94
-1056964608
 47
1.0
 49
1.0
140
1.0
293
     1
141
0.0
294
     1
177
     0
142
1.0
295
     0
296
     0
143
0.125
271
     0
272
     9
273
     9
298
     0
  0
MLINESTYLE
  5
18
102
{ACAD_REACTORS
330
17
102
}
330
17
100
AcDbMlineStyle
  2
Standard
 70
     0
  3

 62
   256
 51
90.0
 52
90.0
 71
     2
 49
0.5
 62
   256
  6
BYLAYER
 49
-0.5
 62
   256
  6
BYLAYER
  0
ACDBPLACEHOLDER
  5
F
102
{ACAD_REACTORS
330
E
102
}
330
E
  0
SCALE
  5
3FA
102
{ACAD_REACTORS
330
3F9
102
}
330
3F9
100
AcDbScale
 70
     0
300
1:1
140
1.0
141
1.0
290
     1
  0
SCALE
  5
3FB
102
{ACAD_REACTORS
330
3F9
102
}
330
3F9
100
AcDbScale
 70
     0
300
1:2
140
1.0
141
2.0
290
     0
  0
SCALE
  5
3FC
102
{ACAD_REACTORS
330
3F9
102
}
330
3F9
100
AcDbScale
 70
     0
300
1:4
140
1.0
141
4.0
290
     0
  0
SCALE
  5
3FD
102
{ACAD_REACTORS
330
3F9
102
}
330
3F9
100
AcDbScale
 70
     0
300
1:5
140
1.0
141
5.0
290
     0
  0
SCALE
  5
3FE
102
{ACAD_REACTORS
330
3F9
102
}
330
3F9
100
AcDbScale
 70
     0
300
1:8
140
1.0
141
8.0
290
     0
  0
SCALE
  5
3FF
102
{ACAD_REACTORS
330
3F9
102
}
330
3F9
100
AcDbScale
 70
     0
300
1:10
140
1.0
141
10.0
290
     0
  0
SCALE
  5
400
102
{ACAD_REACTORS
330
3F9
102
}
330
3F9
100
AcDbScale
 70
     0
300
1:16
140
1.0
141
16.0
290
     0
  0
SCALE
  5
401
102
{ACAD_REACTORS
330
3F9
102
}
330
3F9
100
AcDbScale
 70
     0
300
1:20
140
1.0
141
20.0
290
     0
  0
SCALE
  5
402
102
{ACAD_REACTORS
330
3F9
102
}
330
3F9
100
AcDbScale
 70
     0
300
1:30
140
1.0
141
30.0
290
     0
  0
SCALE
  5
403
102
{ACAD_REACTORS
330
3F9
102
}
330
3F9
100
AcDbScale
 70
     0
300
1:40
140
1.0
141
40.0
290
     0
  0
SCALE
  5
404
102
{ACAD_REACTORS
330
3F9
102
}
330
3F9
100
AcDbScale
 70
     0
300
1:50
140
1.0
141
50.0
290
     0
  0
SCALE
  5
405
102
{ACAD_REACTORS
330
3F9
102
}
330
3F9
100
AcDbScale
 70
     0
300
1:100
140
1.0
141
100.0
290
     0
  0
SCALE
  5
406
102
{ACAD_REACTORS
330
3F9
102
}
330
3F9
100
AcDbScale
 70
     0
300
2:1
140
2.0
141
1.0
290
     0
  0
SCALE
  5
407
102
{ACAD_REACTORS
330
3F9
102
}
330
3F9
100
AcDbScale
 70
     0
300
4:1
140
4.0
141
1.0
290
     0
  0
SCALE
  5
408
102
{ACAD_REACTORS
330
3F9
102
}
330
3F9
100
AcDbScale
 70
     0
300
8:1
140
8.0
141
1.0
290
     0
  0
SCALE
  5
409
102
{ACAD_REACTORS
330
3F9
102
}
330
3F9
100
AcDbScale
 70
     0
300
10:1
140
10.0
141
1.0
290
     0
  0
SCALE
  5
40A
102
{ACAD_REACTORS
330
3F9
102
}
330
3F9
100
AcDbScale
 70
     0
300
100:1
140
100.0
141
1.0
290
     0
  0
SCALE
  5
40B
102
{ACAD_REACTORS
330
3F9
102
}
330
3F9
100
AcDbScale
 70
     0
300
1/128" = 1'-0"
140
0.0078125
141
12.0
290
     0
  0
SCALE
  5
40C
102
{ACAD_REACTORS
330
3F9
102
}
330
3F9
100
AcDbScale
 70
     0
300
1/64" = 1'-0"
140
0.015625
141
12.0
290
     0
  0
SCALE
  5
40D
102
{ACAD_REACTORS
330
3F9
102
}
330
3F9
100
AcDbScale
 70
     0
300
1/32" = 1'-0"
140
0.03125
141
12.0
290
     0
  0
SCALE
  5
40E
102
{ACAD_REACTORS
330
3F9
102
}
330
3F9
100
AcDbScale
 70
     0
300
1/16" = 1'-0"
140
0.0625
141
12.0
290
     0
  0
SCALE
  5
40F
102
{ACAD_REACTORS
330
3F9
102
}
330
3F9
100
AcDbScale
 70
     0
300
3/32" = 1'-0"
140
0.09375
141
12.0
290
     0
  0
SCALE
  5
410
102
{ACAD_REACTORS
330
3F9
102
}
330
3F9
100
AcDbScale
 70
     0
300
1/8" = 1'-0"
140
0.125
141
12.0
290
     0
  0
SCALE
  5
411
102
{ACAD_REACTORS
330
3F9
102
}
330
3F9
100
AcDbScale
 70
     0
300
3/16" = 1'-0"
140
0.1875
141
12.0
290
     0
  0
SCALE
  5
412
102
{ACAD_REACTORS
330
3F9
102
}
330
3F9
100
AcDbScale
 70
     0
300
1/4" = 1'-0"
140
0.25
141
12.0
290
     0
  0
SCALE
  5
413
102
{ACAD_REACTORS
330
3F9
102
}
330
3F9
100
AcDbScale
 70
     0
300
3/8" = 1'-0"
140
0.375
141
12.0
290
     0
  0
SCALE
  5
414
102
{ACAD_REACTORS
330
3F9
102
}
330
3F9
100
AcDbScale
 70
     0
300
1/2" = 1'-0"
140
0.5
141
12.0
290
     0
  0
SCALE
  5
415
102
{ACAD_REACTORS
330
3F9
102
}
330
3F9
100
AcDbScale
 70
     0
300
3/4" = 1'-0"
140
0.75
141
12.0
290
     0
  0
SCALE
  5
416
102
{ACAD_REACTORS
330
3F9
102
}
330
3F9
100
AcDbScale
 70
     0
300
1" = 1'-0"
140
1.0
141
12.0
290
     0
  0
SCALE
  5
417
102
{ACAD_REACTORS
330
3F9
102
}
330
3F9
100
AcDbScale
 70
     0
300
1-1/2" = 1'-0"
140
1.5
141
12.0
290
     0
  0
SCALE
  5
418
102
{ACAD_REACTORS
330
3F9
102
}
330
3F9
100
AcDbScale
 70
     0
300
3" = 1'-0"
140
3.0
141
12.0
290
     0
  0
SCALE
  5
419
102
{ACAD_REACTORS
330
3F9
102
}
330
3F9
100
AcDbScale
 70
     0
300
6" = 1'-0"
140
6.0
141
12.0
290
     0
  0
SCALE
  5
41A
102
{ACAD_REACTORS
330
3F9
102
}
330
3F9
100
AcDbScale
 70
     0
300
1'-0" = 1'-0"
140
12.0
141
12.0
290
     0
  0
TABLESTYLE
  5
43D
102
{ACAD_REACTORS
330
43C
102
}
102
{ACAD_XDICTIONARY
360
78A
102
}
330
43C
100
AcDbTableStyle
  3
Standard
 70
     0
 71
     0
 40
0.06
 41
0.06
280
     0
281
     0
  7
Standard
140
0.18
170
     2
 62
     0
 63
   257
283
     0
 90
        4
 91
        0
  1

274
    -2
284
     1
 64
     0
275
    -2
285
     1
 65
     0
276
    -2
286
     1
 66
     0
277
    -2
287
     1
 67
     0
278
    -2
288
     1
 68
     0
279
    -2
289
     1
 69
     0
  7
Standard
140
0.25
170
     5
 62
     0
 63
   257
283
     0
 90
        4
 91
        0
  1

274
    -2
284
     1
 64
     0
275
    -2
285
     1
 65
     0
276
    -2
286
     1
 66
     0
277
    -2
287
     1
 67
     0
278
    -2
288
     1
 68
     0
279
    -2
289
     1
 69
     0
  7
Standard
140
0.18
170
     5
 62
     0
 63
   257
283
     0
 90
        4
 91
        0
  1

274
    -2
284
     1
 64
     0
275
    -2
285
     1
 65
     0
276
    -2
286
     1
 66
     0
277
    -2
287
     1
 67
     0
278
    -2
288
     1
 68
     0
279
    -2
289
     1
 69
     0
  0
VISUALSTYLE
  5
424
102
{ACAD_REACTORS
330
41F
102
}
330
41F
100
AcDbVisualStyle
  2
2dWireframe
 70
     4
177
     3
291
     0
 70
    58
 90
        0
176
     1
 90
        2
176
     1
 90
        0
176
     1
 90
        0
176
     1
 40
0.6
176
     1
 40
30.0
176
     1
 62
     7
176
     1
 90
        1
176
     1
 90
        4
176
     1
 62
     7
176
     1
 62
   257
176
     1
 90
        1
176
     1
 90
        1
176
     1
 40
1.0
176
     1
 90
        0
176
     1
 62
   257
176
     1
 40
1.0
176
     1
 90
        1
176
     1
 90
        6
176
     1
 90
        2
176
     1
 62
     7
176
     1
 90
        5
176
     1
 90
        0
176
     1
 90
        0
176
     1
290
     0
176
     1
 90
        1
176
     1
 40
0.0
176
     1
 90
        0
176
     1
290
     1
176
     1
290
     1
176
     1
290
     0
176
     1
290
     0
176
     1
290
     0
176
     1
290
     0
176
     1
290
     0
176
     1
290
     0
176
     1
290
     0
176
     1
 90
       50
176
     1
 40
0.0
176
     1
 40
1.0
176
     1
 90
        0
176
     1
 62
    18
420
        0
176
     1
 90
       50
176
     1
 90
        3
176
     1
 62
     5
420
      255
176
     1
290
     0
176
     1
 90
       50
176
     1
 90
       50
176
     1
 90
       50
176
     1
290
     0
176
     1
 90
       50
176
     1
 62
   256
176
     0
 40
1.0
176
     0
 90
        2
176
     1
  1
strokes_ogs.tif
176
     1
290
     0
176
     1
 40
1.0
176
     1
 40
1.0
176
     1
  0
VISUALSTYLE
  5
427
102
{ACAD_REACTORS
330
41F
102
}
330
41F
100
AcDbVisualStyle
  2
Basic
 70
     7
177
     3
291
     1
 70
    58
 90
        1
176
     1
 90
        0
176
     1
 90
        1
176
     1
 90
        0
176
     1
 40
0.6
176
     1
 40
30.0
176
     1
 62
     7
176
     1
 90
        0
176
     1
 90
        4
176
     1
 62
     7
176
     1
 62
   257
176
     1
 90
        1
176
     1
 90
        1
176
     1
 40
1.0
176
     1
 90
        8
176
     1
 62
     7
176
     1
 40
1.0
176
     1
 90
        1
176
     1
 90
        6
176
     1
 90
        2
176
     1
 62
     7
176
     1
 90
        5
176
     1
 90
        0
176
     1
 90
        0
176
     1
290
     0
176
     1
 90
        1
176
     1
 40
0.0
176
     1
 90
        0
176
     1
290
     0
176
     1
290
     1
176
     1
290
     1
176
     1
290
     0
176
     1
290
     0
176
     1
290
     0
176
     1
290
     0
176
     1
290
     0
176
     1
290
     0
176
     1
 90
       50
176
     1
 40
0.0
176
     1
 40
1.0
176
     1
 90
        0
176
     1
 62
    18
420
        0
176
     1
 90
       50
176
     1
 90
        3
176
     1
 62
     5
420
      255
176
     1
290
     0
176
     1
 90
       50
176
     1
 90
       50
176
     1
 90
       50
176
     1
290
     0
176
     1
 90
       50
176
     1
 62
   256
176
     0
 40
1.0
176
     0
 90
        2
176
     1
  1
strokes_ogs.tif
176
     1
290
     0
176
     1
 40
1.0
176
     1
 40
1.0
176
     1
  0
VISUALSTYLE
  5
42B
102
{ACAD_REACTORS
330
41F
102
}
330
41F
100
AcDbVisualStyle
  2
Brighten
 70
    12
177
     3
291
     1
 70
    58
 90
        2
176
     1
 90
        2
176
     1
 90
        0
176
     1
 90
        0
176
     1
 40
0.6
176
     1
 40
30.0
176
     1
 62
     7
176
     1
 90
        1
176
     1
 90
        4
176
     1
 62
     7
176
     1
 62
   257
176
     1
 90
        1
176
     1
 90
        1
176
     1
 40
1.0
176
     1
 90
        8
176
     1
 62
     7
176
     1
 40
1.0
176
     1
 90
        1
176
     1
 90
        6
176
     1
 90
        2
176
     1
 62
     7
176
     1
 90
        5
176
     1
 90
        0
176
     1
 90
        0
176
     1
290
     0
176
     1
 90
        1
176
     1
 40
50.0
176
     1
 90
        0
176
     1
290
     0
176
     1
290
     1
176
     1
290
     1
176
     1
290
     0
176
     1
290
     0
176
     1
290
     0
176
     1
290
     0
176
     1
290
     0
176
     1
290
     0
176
     1
 90
       50
176
     1
 40
0.0
176
     1
 40
1.0
176
     1
 90
        0
176
     1
 62
    18
420
        0
176
     1
 90
       50
176
     1
 90
        3
176
     1
 62
     5
420
      255
176
     1
290
     0
176
     1
 90
       50
176
     1
 90
       50
176
     1
 90
       50
176
     1
290
     0
176
     1
 90
       50
176
     1
 62
   256
176
     0
 40
1.0
176
     0
 90
        2
176
     1
  1
strokes_ogs.tif
176
     1
290
     0
176
     1
 40
1.0
176
     1
 40
1.0
176
     1
  0
VISUALSTYLE
  5
42F
102
{ACAD_REACTORS
330
41F
102
}
330
41F
100
AcDbVisualStyle
  2
ColorChange
 70
    16
177
     3
291
     1
 70
    58
 90
        2
176
     1
 90
        2
176
     1
 90
        3
176
     1
 90
        0
176
     1
 40
0.6
176
     1
 40
30.0
176
     1
 62
     8
176
     1
 90
        1
176
     1
 90
        4
176
     1
 62
     7
176
     1
 62
   257
176
     1
 90
        1
176
     1
 90
        1
176
     1
 40
1.0
176
     1
 90
        8
176
     1
 62
     8
176
     1
 40
1.0
176
     1
 90
        1
176
     1
 90
        6
176
     1
 90
        2
176
     1
 62
     7
176
     1
 90
        5
176
     1
 90
        0
176
     1
 90
        0
176
     1
290
     0
176
     1
 90
        1
176
     1
 40
0.0
176
     1
 90
        0
176
     1
290
     0
176
     1
290
     1
176
     1
290
     1
176
     1
290
     0
176
     1
290
     0
176
     1
290
     0
176
     1
290
     0
176
     1
290
     0
176
     1
290
     0
176
     1
 90
       50
176
     1
 40
0.0
176
     1
 40
1.0
176
     1
 90
        0
176
     1
 62
    18
420
        0
176
     1
 90
       50
176
     1
 90
        3
176
     1
 62
     5
420
      255
176
     1
290
     0
176
     1
 90
       50
176
     1
 90
       50
176
     1
 90
       50
176
     1
290
     0
176
     1
 90
       50
176
     1
 62
   256
176
     0
 40
1.0
176
     0
 90
        2
176
     1
  1
strokes_ogs.tif
176
     1
290
     0
176
     1
 40
1.0
176
     1
 40
1.0
176
     1
  0
VISUALSTYLE
  5
429
102
{ACAD_REACTORS
330
41F
102
}
330
41F
100
AcDbVisualStyle
  2
Conceptual
 70
     9
177
     3
291
     0
 70
    58
 90
        3
176
     1
 90
        2
176
     1
 90
        0
176
     1
 90
        0
176
     1
 40
0.6
176
     1
 40
30.0
176
     1
 62
     7
176
     1
 90
        2
176
     1
 90
        2
176
     1
 62
     7
176
     1
 62
   257
176
     1
 90
        1
176
     1
 90
        1
176
     1
 40
179.0
176
     1
 90
        8
176
     1
 62
     7
176
     1
 40
1.0
176
     1
 90
        1
176
     1
 90
        6
176
     1
 90
        2
176
     1
 62
     7
176
     1
 90
        3
176
     1
 90
        0
176
     1
 90
        0
176
     1
290
     0
176
     1
 90
        1
176
     1
 40
0.0
176
     1
 90
        0
176
     1
290
     0
176
     1
290
     1
176
     1
290
     1
176
     1
290
     0
176
     1
290
     0
176
     1
290
     0
176
     1
290
     0
176
     1
290
     0
176
     1
290
     0
176
     1
 90
       50
176
     1
 40
0.0
176
     1
 40
1.0
176
     1
 90
        0
176
     1
 62
    18
420
        0
176
     1
 90
       50
176
     1
 90
        3
176
     1
 62
     5
420
      255
176
     1
290
     0
176
     1
 90
       50
176
     1
 90
       50
176
     1
 90
       50
176
     1
290
     0
176
     1
 90
       50
176
     1
 62
   256
176
     0
 40
1.0
176
     0
 90
        2
176
     1
  1
strokes_ogs.tif
176
     1
290
     0
176
     1
 40
1.0
176
     1
 40
1.0
176
     1
  0
VISUALSTYLE
  5
42A
102
{ACAD_REACTORS
330
41F
102
}
330
41F
100
AcDbVisualStyle
  2
Dim
 70
    11
177
     3
291
     1
 70
    58
 90
        2
176
     1
 90
        2
176
     1
 90
        0
176
     1
 90
        0
176
     1
 40
0.6
176
     1
 40
30.0
176
     1
 62
     7
176
     1
 90
        1
176
     1
 90
        4
176
     1
 62
     7
176
     1
 62
   257
176
     1
 90
        1
176
     1
 90
        1
176
     1
 40
1.0
176
     1
 90
        8
176
     1
 62
     7
176
     1
 40
1.0
176
     1
 90
        1
176
     1
 90
        6
176
     1
 90
        2
176
     1
 62
     7
176
     1
 90
        5
176
     1
 90
        0
176
     1
 90
        0
176
     1
290
     0
176
     1
 90
        1
176
     1
 40
-50.0
176
     1
 90
        0
176
     1
290
     0
176
     1
290
     1
176
     1
290
     1
176
     1
290
     0
176
     1
290
     0
176
     1
290
     0
176
     1
290
     0
176
     1
290
     0
176
     1
290
     0
176
     1
 90
       50
176
     1
 40
0.0
176
     1
 40
1.0
176
     1
 90
        0
176
     1
 62
    18
420
        0
176
     1
 90
       50
176
     1
 90
        3
176
     1
 62
     5
420
      255
176
     1
290
     0
176
     1
 90
       50
176
     1
 90
       50
176
     1
 90
       50
176
     1
290
     0
176
     1
 90
       50
176
     1
 62
   256
176
     0
 40
1.0
176
     0
 90
        2
176
     1
  1
strokes_ogs.tif
176
     1
290
     0
176
     1
 40
1.0
176
     1
 40
1.0
176
     1
  0
VISUALSTYLE
  5
432
102
{ACAD_REACTORS
330
41F
102
}
330
41F
100
AcDbVisualStyle
  2
EdgeColorOff
 70
    22
177
     3
291
     1
 70
    58
 90
        2
176
     1
 90
        2
176
     1
 90
        0
176
     1
 90
        0
176
     1
 40
0.6
176
     1
 40
30.0
176
     1
 62
     7
176
     1
 90
        1
176
     1
 90
        4
176
     1
 62
     7
176
     1
 62
   257
176
     1
 90
        1
176
     1
 90
        1
176
     1
 40
1.0
176
     1
 90
        8
176
     1
 62
     7
176
     1
 40
1.0
176
     1
 90
        1
176
     1
 90
        6
176
     1
 90
        2
176
     1
 62
     7
176
     1
 90
        5
176
     1
 90
        0
176
     1
 90
        0
176
     1
290
     0
176
     1
 90
        1
176
     1
 40
0.0
176
     1
 90
        0
176
     1
290
     0
176
     1
290
     1
176
     1
290
     1
176
     1
290
     0
176
     1
290
     0
176
     1
290
     0
176
     1
290
     0
176
     1
290
     0
176
     1
290
     0
176
     1
 90
       50
176
     1
 40
0.0
176
     1
 40
1.0
176
     1
 90
        0
176
     1
 62
    18
420
        0
176
     1
 90
       50
176
     1
 90
        3
176
     1
 62
     5
420
      255
176
     1
290
     0
176
     1
 90
       50
176
     1
 90
       50
176
     1
 90
       50
176
     1
290
     0
176
     1
 90
       50
176
     1
 62
   256
176
     0
 40
1.0
176
     0
 90
        2
176
     1
  1
strokes_ogs.tif
176
     1
290
     0
176
     1
 40
1.0
176
     1
 40
1.0
176
     1
  0
VISUALSTYLE
  5
42E
102
{ACAD_REACTORS
330
41F
102
}
330
41F
100
AcDbVisualStyle
  2
Facepattern
 70
    15
177
     3
291
     1
 70
    58
 90
        2
176
     1
 90
        2
176
     1
 90
        0
176
     1
 90
        0
176
     1
 40
0.6
176
     1
 40
30.0
176
     1
 62
     7
176
     1
 90
        1
176
     1
 90
        4
176
     1
 62
     7
176
     1
 62
   257
176
     1
 90
        1
176
     1
 90
        1
176
     1
 40
1.0
176
     1
 90
        8
176
     1
 62
     7
176
     1
 40
1.0
176
     1
 90
        1
176
     1
 90
        6
176
     1
 90
        2
176
     1
 62
     7
176
     1
 90
        5
176
     1
 90
        0
176
     1
 90
        0
176
     1
290
     0
176
     1
 90
        1
176
     1
 40
0.0
176
     1
 90
        0
176
     1
290
     0
176
     1
290
     1
176
     1
290
     1
176
     1
290
     0
176
     1
290
     0
176
     1
290
     0
176
     1
290
     0
176
     1
290
     0
176
     1
290
     0
176
     1
 90
       50
176
     1
 40
0.0
176
     1
 40
1.0
176
     1
 90
        0
176
     1
 62
    18
420
        0
176
     1
 90
       50
176
     1
 90
        3
176
     1
 62
     5
420
      255
176
     1
290
     0
176
     1
 90
       50
176
     1
 90
       50
176
     1
 90
       50
176
     1
290
     0
176
     1
 90
       50
176
     1
 62
   256
176
     0
 40
1.0
176
     0
 90
        2
176
     1
  1
strokes_ogs.tif
176
     1
290
     0
176
     1
 40
1.0
176
     1
 40
1.0
176
     1
  0
VISUALSTYLE
  5
420
102
{ACAD_REACTORS
330
41F
102
}
330
41F
100
AcDbVisualStyle
  2
Flat
 70
     0
177
     3
291
     1
 70
    58
 90
        2
176
     1
 90
        1
176
     1
 90
        1
176
     1
 90
        2
176
     1
 40
0.6
176
     1
 40
30.0
176
     1
 62
     7
176
     1
 90
        0
176
     1
 90
        0
176
     1
 62
     7
176
     1
 62
   257
176
     1
 90
        1
176
     1
 90
        1
176
     1
 40
1.0
176
     1
 90
        8
176
     1
 62
     7
176
     1
 40
1.0
176
     1
 90
        1
176
     1
 90
        6
176
     1
 90
        2
176
     1
 62
     7
176
     1
 90
        5
176
     1
 90
        0
176
     1
 90
        0
176
     1
290
     0
176
     1
 90
       13
176
     1
 40
0.0
176
     1
 90
        0
176
     1
290
     0
176
     1
290
     1
176
     1
290
     1
176
     1
290
     0
176
     1
290
     0
176
     1
290
     0
176
     1
290
     0
176
     1
290
     0
176
     1
290
     0
176
     1
 90
       50
176
     1
 40
0.0
176
     1
 40
1.0
176
     1
 90
        0
176
     1
 62
    18
420
        0
176
     1
 90
       50
176
     1
 90
        3
176
     1
 62
     5
420
      255
176
     1
290
     0
176
     1
 90
       50
176
     1
 90
       50
176
     1
 90
       50
176
     1
290
     0
176
     1
 90
       50
176
     1
 62
   256
176
     0
 40
1.0
176
     0
 90
        2
176
     1
  1
strokes_ogs.tif
176
     1
290
     0
176
     1
 40
1.0
176
     1
 40
1.0
176
     1
  0
VISUALSTYLE
  5
421
102
{ACAD_REACTORS
330
41F
102
}
330
41F
100
AcDbVisualStyle
  2
FlatWithEdges
 70
     1
177
     3
291
     1
 70
    58
 90
        2
176
     1
 90
        1
176
     1
 90
        1
176
     1
 90
        2
176
     1
 40
0.6
176
     1
 40
30.0
176
     1
 62
     7
176
     1
 90
        1
176
     1
 90
        0
176
     1
 62
     7
176
     1
 62
   257
176
     1
 90
        1
176
     1
 90
        1
176
     1
 40
1.0
176
     1
 90
        0
176
     1
 62
   257
176
     1
 40
1.0
176
     1
 90
        1
176
     1
 90
        6
176
     1
 90
        2
176
     1
 62
     7
176
     1
 90
        5
176
     1
 90
        0
176
     1
 90
        0
176
     1
290
     0
176
     1
 90
       13
176
     1
 40
0.0
176
     1
 90
        0
176
     1
290
     0
176
     1
290
     1
176
     1
290
     1
176
     1
290
     0
176
     1
290
     0
176
     1
290
     0
176
     1
290
     0
176
     1
290
     0
176
     1
290
     0
176
     1
 90
       50
176
     1
 40
0.0
176
     1
 40
1.0
176
     1
 90
        0
176
     1
 62
    18
420
        0
176
     1
 90
       50
176
     1
 90
        3
176
     1
 62
     5
420
      255
176
     1
290
     0
176
     1
 90
       50
176
     1
 90
       50
176
     1
 90
       50
176
     1
290
     0
176
     1
 90
       50
176
     1
 62
   256
176
     0
 40
1.0
176
     0
 90
        2
176
     1
  1
strokes_ogs.tif
176
     1
290
     0
176
     1
 40
1.0
176
     1
 40
1.0
176
     1
  0
VISUALSTYLE
  5
422
102
{ACAD_REACTORS
330
41F
102
}
330
41F
100
AcDbVisualStyle
  2
Gouraud
 70
     2
177
     3
291
     1
 70
    58
 90
        2
176
     1
 90
        2
176
     1
 90
        1
176
     1
 90
        2
176
     1
 40
0.6
176
     1
 40
30.0
176
     1
 62
     7
176
     1
 90
        0
176
     1
 90
        0
176
     1
 62
     7
176
     1
 62
   257
176
     1
 90
        1
176
     1
 90
        1
176
     1
 40
1.0
176
     1
 90
        0
176
     1
 62
     7
176
     1
 40
1.0
176
     1
 90
        1
176
     1
 90
        6
176
     1
 90
        2
176
     1
 62
     7
176
     1
 90
        5
176
     1
 90
        0
176
     1
 90
        0
176
     1
290
     0
176
     1
 90
       13
176
     1
 40
0.0
176
     1
 90
        0
176
     1
290
     0
176
     1
290
     1
176
     1
290
     1
176
     1
290
     0
176
     1
290
     0
176
     1
290
     0
176
     1
290
     0
176
     1
290
     0
176
     1
290
     0
176
     1
 90
       50
176
     1
 40
0.0
176
     1
 40
1.0
176
     1
 90
        0
176
     1
 62
    18
420
        0
176
     1
 90
       50
176
     1
 90
        3
176
     1
 62
     5
420
      255
176
     1
290
     0
176
     1
 90
       50
176
     1
 90
       50
176
     1
 90
       50
176
     1
290
     0
176
     1
 90
       50
176
     1
 62
   256
176
     0
 40
1.0
176
     0
 90
        2
176
     1
  1
strokes_ogs.tif
176
     1
290
     0
176
     1
 40
1.0
176
     1
 40
1.0
176
     1
  0
VISUALSTYLE
  5
423
102
{ACAD_REACTORS
330
41F
102
}
330
41F
100
AcDbVisualStyle
  2
GouraudWithEdges
 70
     3
177
     3
291
     1
 70
    58
 90
        2
176
     1
 90
        2
176
     1
 90
        1
176
     1
 90
        2
176
     1
 40
0.6
176
     1
 40
30.0
176
     1
 62
     7
176
     1
 90
        1
176
     1
 90
        0
176
     1
 62
     7
176
     1
 62
   257
176
     1
 90
        1
176
     1
 90
        1
176
     1
 40
1.0
176
     1
 90
        0
176
     1
 62
   257
176
     1
 40
1.0
176
     1
 90
        1
176
     1
 90
        6
176
     1
 90
        2
176
     1
 62
     7
176
     1
 90
        5
176
     1
 90
        0
176
     1
 90
        0
176
     1
290
     0
176
     1
 90
       13
176
     1
 40
0.0
176
     1
 90
        0
176
     1
290
     0
176
     1
290
     1
176
     1
290
     1
176
     1
290
     0
176
     1
290
     0
176
     1
290
     0
176
     1
290
     0
176
     1
290
     0
176
     1
290
     0
176
     1
 90
       50
176
     1
 40
0.0
176
     1
 40
1.0
176
     1
 90
        0
176
     1
 62
    18
420
        0
176
     1
 90
       50
176
     1
 90
        3
176
     1
 62
     5
420
      255
176
     1
290
     0
176
     1
 90
       50
176
     1
 90
       50
176
     1
 90
       50
176
     1
290
     0
176
     1
 90
       50
176
     1
 62
   256
176
     0
 40
1.0
176
     0
 90
        2
176
     1
  1
strokes_ogs.tif
176
     1
290
     0
176
     1
 40
1.0
176
     1
 40
1.0
176
     1
  0
VISUALSTYLE
  5
426
102
{ACAD_REACTORS
330
41F
102
}
330
41F
100
AcDbVisualStyle
  2
Hidden
 70
     6
177
     3
291
     0
 70
    58
 90
        1
176
     1
 90
        2
176
     1
 90
        2
176
     1
 90
        0
176
     1
 40
0.6
176
     1
 40
30.0
176
     1
 62
     7
176
     1
 90
        2
176
     1
 90
        2
176
     1
 62
     7
176
     1
 62
   257
176
     1
 90
        2
176
     1
 90
        1
176
     1
 40
40.0
176
     1
 90
        0
176
     1
 62
   257
176
     1
 40
1.0
176
     1
 90
        1
176
     1
 90
        6
176
     1
 90
        2
176
     1
 62
     7
176
     1
 90
        3
176
     1
 90
        0
176
     1
 90
        0
176
     1
290
     0
176
     1
 90
        1
176
     1
 40
0.0
176
     1
 90
        0
176
     1
290
     0
176
     1
290
     1
176
     1
290
     1
176
     1
290
     0
176
     1
290
     0
176
     1
290
     0
176
     1
290
     0
176
     1
290
     0
176
     1
290
     0
176
     1
 90
       50
176
     1
 40
0.0
176
     1
 40
1.0
176
     1
 90
        0
176
     1
 62
    18
420
        0
176
     1
 90
       50
176
     1
 90
        3
176
     1
 62
     5
420
      255
176
     1
290
     0
176
     1
 90
       50
176
     1
 90
       50
176
     1
 90
       50
176
     1
290
     0
176
     1
 90
       50
176
     1
 62
   256
176
     0
 40
1.0
176
     0
 90
        2
176
     1
  1
strokes_ogs.tif
176
     1
290
     0
176
     1
 40
1.0
176
     1
 40
1.0
176
     1
  0
VISUALSTYLE
  5
430
102
{ACAD_REACTORS
330
41F
102
}
330
41F
100
AcDbVisualStyle
  2
JitterOff
 70
    20
177
     3
291
     1
 70
    58
 90
        2
176
     1
 90
        2
176
     1
 90
        0
176
     1
 90
        0
176
     1
 40
0.6
176
     1
 40
30.0
176
     1
 62
     7
176
     1
 90
        1
176
     1
 90
        4
176
     1
 62
     7
176
     1
 62
   257
176
     1
 90
        1
176
     1
 90
        1
176
     1
 40
1.0
176
     1
 90
       10
176
     1
 62
     7
176
     1
 40
1.0
176
     1
 90
        1
176
     1
 90
        6
176
     1
 90
        2
176
     1
 62
     7
176
     1
 90
        5
176
     1
 90
        0
176
     1
 90
        0
176
     1
290
     0
176
     1
 90
        1
176
     1
 40
0.0
176
     1
 90
        0
176
     1
290
     0
176
     1
290
     1
176
     1
290
     1
176
     1
290
     0
176
     1
290
     0
176
     1
290
     0
176
     1
290
     0
176
     1
290
     0
176
     1
290
     0
176
     1
 90
       50
176
     1
 40
0.0
176
     1
 40
1.0
176
     1
 90
        0
176
     1
 62
    18
420
        0
176
     1
 90
       50
176
     1
 90
        3
176
     1
 62
     5
420
      255
176
     1
290
     0
176
     1
 90
       50
176
     1
 90
       50
176
     1
 90
       50
176
     1
290
     0
176
     1
 90
       50
176
     1
 62
   256
176
     0
 40
1.0
176
     0
 90
        2
176
     1
  1
strokes_ogs.tif
176
     1
290
     0
176
     1
 40
1.0
176
     1
 40
1.0
176
     1
  0
VISUALSTYLE
  5
42D
102
{ACAD_REACTORS
330
41F
102
}
330
41F
100
AcDbVisualStyle
  2
Linepattern
 70
    14
177
     3
291
     1
 70
    58
 90
        2
176
     1
 90
        2
176
     1
 90
        0
176
     1
 90
        0
176
     1
 40
0.6
176
     1
 40
30.0
176
     1
 62
     7
176
     1
 90
        1
176
     1
 90
        4
176
     1
 62
     7
176
     1
 62
   257
176
     1
 90
        7
176
     1
 90
        7
176
     1
 40
1.0
176
     1
 90
        8
176
     1
 62
     7
176
     1
 40
1.0
176
     1
 90
        1
176
     1
 90
        6
176
     1
 90
        2
176
     1
 62
     7
176
     1
 90
        5
176
     1
 90
        0
176
     1
 90
        0
176
     1
290
     0
176
     1
 90
        1
176
     1
 40
0.0
176
     1
 90
        0
176
     1
290
     0
176
     1
290
     1
176
     1
290
     1
176
     1
290
     0
176
     1
290
     0
176
     1
290
     0
176
     1
290
     0
176
     1
290
     0
176
     1
290
     0
176
     1
 90
       50
176
     1
 40
0.0
176
     1
 40
1.0
176
     1
 90
        0
176
     1
 62
    18
420
        0
176
     1
 90
       50
176
     1
 90
        3
176
     1
 62
     5
420
      255
176
     1
290
     0
176
     1
 90
       50
176
     1
 90
       50
176
     1
 90
       50
176
     1
290
     0
176
     1
 90
       50
176
     1
 62
   256
176
     0
 40
1.0
176
     0
 90
        2
176
     1
  1
strokes_ogs.tif
176
     1
290
     0
176
     1
 40
1.0
176
     1
 40
1.0
176
     1
  0
VISUALSTYLE
  5
440
102
{ACAD_REACTORS
330
41F
102
}
330
41F
100
AcDbVisualStyle
  2

 70
    10
177
     3
291
     0
 70
    58
 90
        2
176
     1
 90
        3
176
     1
 90
        0
176
     1
 90
        2
176
     1
 40
0.6
176
     1
 40
30.0
176
     1
 62
     7
176
     1
 90
        2
176
     1
 90
        0
176
     1
 62
     7
176
     1
 62
   257
176
     1
 90
        1
176
     1
 90
        1
176
     1
 40
180.0
176
     1
 90
        8
176
     1
 62
     8
176
     1
 40
1.0
176
     1
 90
        1
176
     1
 90
        6
176
     1
 90
        2
176
     1
 62
     7
176
     1
 90
        5
176
     1
 90
        0
176
     1
 90
        0
176
     1
290
     0
176
     1
 90
       13
176
     1
 40
0.0
176
     1
 90
        0
176
     1
290
     0
176
     1
290
     1
176
     1
290
     1
176
     1
290
     0
176
     1
290
     0
176
     1
290
     0
176
     1
290
     0
176
     1
290
     0
176
     1
290
     0
176
     1
 90
       50
176
     1
 40
0.0
176
     1
 40
1.0
176
     1
 90
        0
176
     1
 62
    18
420
        0
176
     1
 90
       50
176
     1
 90
        3
176
     1
 62
     5
420
      255
176
     1
290
     0
176
     1
 90
       50
176
     1
 90
       50
176
     1
 90
       50
176
     1
290
     0
176
     1
 90
       50
176
     1
 62
   256
176
     0
 40
1.0
176
     0
 90
        2
176
     1
  1
strokes_ogs.tif
176
     1
290
     0
176
     1
 40
1.0
176
     1
 40
1.0
176
     1
  0
VISUALSTYLE
  5
431
102
{ACAD_REACTORS
330
41F
102
}
330
41F
100
AcDbVisualStyle
  2
OverhangOff
 70
    21
177
     3
291
     1
 70
    58
 90
        2
176
     1
 90
        2
176
     1
 90
        0
176
     1
 90
        0
176
     1
 40
0.6
176
     1
 40
30.0
176
     1
 62
     7
176
     1
 90
        1
176
     1
 90
        4
176
     1
 62
     7
176
     1
 62
   257
176
     1
 90
        1
176
     1
 90
        1
176
     1
 40
1.0
176
     1
 90
        9
176
     1
 62
     7
176
     1
 40
1.0
176
     1
 90
        1
176
     1
 90
        6
176
     1
 90
        2
176
     1
 62
     7
176
     1
 90
        5
176
     1
 90
        0
176
     1
 90
        0
176
     1
290
     0
176
     1
 90
        1
176
     1
 40
0.0
176
     1
 90
        0
176
     1
290
     0
176
     1
290
     1
176
     1
290
     1
176
     1
290
     0
176
     1
290
     0
176
     1
290
     0
176
     1
290
     0
176
     1
290
     0
176
     1
290
     0
176
     1
 90
       50
176
     1
 40
0.0
176
     1
 40
1.0
176
     1
 90
        0
176
     1
 62
    18
420
        0
176
     1
 90
       50
176
     1
 90
        3
176
     1
 62
     5
420
      255
176
     1
290
     0
176
     1
 90
       50
176
     1
 90
       50
176
     1
 90
       50
176
     1
290
     0
176
     1
 90
       50
176
     1
 62
   256
176
     0
 40
1.0
176
     0
 90
        2
176
     1
  1
strokes_ogs.tif
176
     1
290
     0
176
     1
 40
1.0
176
     1
 40
1.0
176
     1
  0
VISUALSTYLE
  5
428
102
{ACAD_REACTORS
330
41F
102
}
330
41F
100
AcDbVisualStyle
  2
Realistic
 70
     8
177
     3
291
     0
 70
    58
 90
        2
176
     1
 90
        3
176
     1
 90
        0
176
     1
 90
        2
176
     1
 40
0.6
176
     1
 40
30.0
176
     1
 62
     7
176
     1
 90
        0
176
     1
 90
        0
176
     1
 62
     7
176
     1
 62
   257
176
     1
 90
        1
176
     1
 90
        1
176
     1
 40
1.0
176
     1
 90
        8
176
     1
 62
   257
176
     1
 40
1.0
176
     1
 90
        1
176
     1
 90
        6
176
     1
 90
        2
176
     1
 62
     7
176
     1
 90
        3
176
     1
 90
        0
176
     1
 90
        0
176
     1
290
     0
176
     1
 90
       13
176
     1
 40
0.0
176
     1
 90
        0
176
     1
290
     0
176
     1
290
     1
176
     1
290
     1
176
     1
290
     0
176
     1
290
     0
176
     1
290
     0
176
     1
290
     0
176
     1
290
     0
176
     1
290
     0
176
     1
 90
       50
176
     1
 40
0.0
176
     1
 40
1.0
176
     1
 90
        0
176
     1
 62
    18
420
        0
176
     1
 90
       50
176
     1
 90
        3
176
     1
 62
     5
420
      255
176
     1
290
     0
176
     1
 90
       50
176
     1
 90
       50
176
     1
 90
       50
176
     1
290
     0
176
     1
 90
       50
176
     1
 62
   256
176
     0
 40
1.0
176
     0
 90
        2
176
     1
  1
strokes_ogs.tif
176
     1
290
     0
176
     1
 40
1.0
176
     1
 40
1.0
176
     1
  0
VISUALSTYLE
  5
437
102
{ACAD_REACTORS
330
41F
102
}
330
41F
100
AcDbVisualStyle
  2
Shaded
 70
    27
177
     3
291
     0
 70
    58
 90
        2
176
     1
 90
        2
176
     1
 90
        1
176
     1
 90
        2
176
     1
 40
0.6
176
     1
 40
30.0
176
     1
 62
     7
176
     1
 90
        0
176
     1
 90
        4
176
     1
 62
     7
176
     1
 62
   257
176
     1
 90
        1
176
     1
 90
        1
176
     1
 40
1.0
176
     1
 90
        8
176
     1
 62
   257
176
     1
 40
1.0
176
     1
 90
        1
176
     1
 90
        6
176
     1
 90
        2
176
     1
 62
     8
176
     1
 90
        3
176
     1
 90
        0
176
     1
 90
        0
176
     1
290
     0
176
     1
 90
        5
176
     1
 40
0.0
176
     1
 90
        0
176
     1
290
     0
176
     1
290
     1
176
     1
290
     1
176
     1
290
     0
176
     1
290
     0
176
     1
290
     0
176
     1
290
     0
176
     1
290
     0
176
     1
290
     0
176
     1
 90
       50
176
     1
 40
0.0
176
     1
 40
1.0
176
     1
 90
        0
176
     1
 62
    18
420
        0
176
     1
 90
       50
176
     1
 90
        3
176
     1
 62
     5
420
      255
176
     1
290
     0
176
     1
 90
       50
176
     1
 90
       50
176
     1
 90
       50
176
     1
290
     0
176
     1
 90
       50
176
     1
 62
   256
176
     0
 40
1.0
176
     0
 90
        2
176
     1
  1
strokes_ogs.tif
176
     1
290
     0
176
     1
 40
1.0
176
     1
 40
1.0
176
     1
  0
VISUALSTYLE
  5
436
102
{ACAD_REACTORS
330
41F
102
}
330
41F
100
AcDbVisualStyle
  2
Shaded with edges
 70
    26
177
     3
291
     0
 70
    58
 90
        2
176
     1
 90
        2
176
     1
 90
        1
176
     1
 90
        2
176
     1
 40
0.6
176
     1
 40
30.0
176
     1
 62
     7
176
     1
 90
        1
176
     1
 90
       10
176
     1
 62
     7
176
     1
 62
   257
176
     1
 90
        2
176
     1
 90
        1
176
     1
 40
1.0
176
     1
 90
        8
176
     1
 62
   257
176
     1
 40
1.0
176
     1
 90
        1
176
     1
 90
        6
176
     1
 90
        2
176
     1
 62
     7
176
     1
 90
        3
176
     1
 90
        0
176
     1
 90
        0
176
     1
290
     0
176
     1
 90
        5
176
     1
 40
0.0
176
     1
 90
        0
176
     1
290
     0
176
     1
290
     1
176
     1
290
     1
176
     1
290
     0
176
     1
290
     0
176
     1
290
     0
176
     1
290
     0
176
     1
290
     0
176
     1
290
     0
176
     1
 90
       50
176
     1
 40
0.0
176
     1
 40
1.0
176
     1
 90
        0
176
     1
 62
    18
420
        0
176
     1
 90
       50
176
     1
 90
        3
176
     1
 62
     5
420
      255
176
     1
290
     0
176
     1
 90
       50
176
     1
 90
       50
176
     1
 90
       50
176
     1
290
     0
176
     1
 90
       50
176
     1
 62
   256
176
     0
 40
1.0
176
     0
 90
        2
176
     1
  1
strokes_ogs.tif
176
     1
290
     0
176
     1
 40
1.0
176
     1
 40
1.0
176
     1
  0
VISUALSTYLE
  5
433
102
{ACAD_REACTORS
330
41F
102
}
330
41F
100
AcDbVisualStyle
  2
Shades of Gray
 70
    23
177
     3
291
     0
 70
    58
 90
        2
176
     1
 90
        2
176
     1
 90
        3
176
     1
 90
        0
176
     1
 40
0.6
176
     1
 40
30.0
176
     1
 62
     7
176
     1
 90
        2
176
     1
 90
        2
176
     1
 62
     7
176
     1
 62
     7
176
     1
 90
        1
176
     1
 90
        1
176
     1
 40
40.0
176
     1
 90
        8
176
     1
 62
     7
176
     1
 40
1.0
176
     1
 90
        1
176
     1
 90
        6
176
     1
 90
        2
176
     1
 62
     7
176
     1
 90
        3
176
     1
 90
        0
176
     1
 90
        0
176
     1
290
     0
176
     1
 90
        1
176
     1
 40
0.0
176
     1
 90
        0
176
     1
290
     0
176
     1
290
     1
176
     1
290
     1
176
     1
290
     0
176
     1
290
     0
176
     1
290
     0
176
     1
290
     0
176
     1
290
     0
176
     1
290
     0
176
     1
 90
       50
176
     1
 40
0.0
176
     1
 40
1.0
176
     1
 90
        0
176
     1
 62
    18
420
        0
176
     1
 90
       50
176
     1
 90
        3
176
     1
 62
     5
420
      255
176
     1
290
     0
176
     1
 90
       50
176
     1
 90
       50
176
     1
 90
       50
176
     1
290
     0
176
     1
 90
       50
176
     1
 62
   256
176
     0
 40
1.0
176
     0
 90
        2
176
     1
  1
strokes_ogs.tif
176
     1
290
     0
176
     1
 40
1.0
176
     1
 40
1.0
176
     1
  0
VISUALSTYLE
  5
434
102
{ACAD_REACTORS
330
41F
102
}
330
41F
100
AcDbVisualStyle
  2
Sketchy
 70
    24
177
     3
291
     0
 70
    58
 90
        1
176
     1
 90
        2
176
     1
 90
        2
176
     1
 90
        0
176
     1
 40
0.6
176
     1
 40
30.0
176
     1
 62
     7
176
     1
 90
        2
176
     1
 90
        2
176
     1
 62
     7
176
     1
 62
     7
176
     1
 90
        1
176
     1
 90
        1
176
     1
 40
40.0
176
     1
 90
       11
176
     1
 62
     7
176
     1
 40
1.0
176
     1
 90
        1
176
     1
 90
        6
176
     1
 90
        2
176
     1
 62
     7
176
     1
 90
        6
176
     1
 90
        0
176
     1
 90
        0
176
     1
290
     0
176
     1
 90
        1
176
     1
 40
0.0
176
     1
 90
        0
176
     1
290
     0
176
     1
290
     1
176
     1
290
     1
176
     1
290
     0
176
     1
290
     0
176
     1
290
     0
176
     1
290
     0
176
     1
290
     0
176
     1
290
     0
176
     1
 90
       50
176
     1
 40
0.0
176
     1
 40
1.0
176
     1
 90
        0
176
     1
 62
    18
420
        0
176
     1
 90
       50
176
     1
 90
        3
176
     1
 62
     5
420
      255
176
     1
290
     0
176
     1
 90
       50
176
     1
 90
       50
176
     1
 90
       50
176
     1
290
     0
176
     1
 90
       50
176
     1
 62
   256
176
     0
 40
1.0
176
     0
 90
        2
176
     1
  1
strokes_ogs.tif
176
     1
290
     0
176
     1
 40
1.0
176
     1
 40
1.0
176
     1
  0
VISUALSTYLE
  5
42C
102
{ACAD_REACTORS
330
41F
102
}
330
41F
100
AcDbVisualStyle
  2
Thicken
 70
    13
177
     3
291
     1
 70
    58
 90
        2
176
     1
 90
        2
176
     1
 90
        0
176
     1
 90
        0
176
     1
 40
0.6
176
     1
 40
30.0
176
     1
 62
     7
176
     1
 90
        1
176
     1
 90
        4
176
     1
 62
     7
176
     1
 62
   257
176
     1
 90
        1
176
     1
 90
        1
176
     1
 40
1.0
176
     1
 90
       12
176
     1
 62
     7
176
     1
 40
1.0
176
     1
 90
        1
176
     1
 90
        6
176
     1
 90
        2
176
     1
 62
     7
176
     1
 90
        5
176
     1
 90
        0
176
     1
 90
        0
176
     1
290
     0
176
     1
 90
        1
176
     1
 40
0.0
176
     1
 90
        0
176
     1
290
     0
176
     1
290
     1
176
     1
290
     1
176
     1
290
     0
176
     1
290
     0
176
     1
290
     0
176
     1
290
     0
176
     1
290
     0
176
     1
290
     0
176
     1
 90
       50
176
     1
 40
0.0
176
     1
 40
1.0
176
     1
 90
        0
176
     1
 62
    18
420
        0
176
     1
 90
       50
176
     1
 90
        3
176
     1
 62
     5
420
      255
176
     1
290
     0
176
     1
 90
       50
176
     1
 90
       50
176
     1
 90
       50
176
     1
290
     0
176
     1
 90
       50
176
     1
 62
   256
176
     0
 40
1.0
176
     0
 90
        2
176
     1
  1
strokes_ogs.tif
176
     1
290
     0
176
     1
 40
1.0
176
     1
 40
1.0
176
     1
  0
VISUALSTYLE
  5
425
102
{ACAD_REACTORS
330
41F
102
}
330
41F
100
AcDbVisualStyle
  2
Wireframe
 70
     5
177
     3
291
     0
 70
    58
 90
        0
176
     1
 90
        2
176
     1
 90
        0
176
     1
 90
        0
176
     1
 40
0.6
176
     1
 40
30.0
176
     1
 62
     7
176
     1
 90
        1
176
     1
 90
        4
176
     1
 62
     7
176
     1
 62
   257
176
     1
 90
        1
176
     1
 90
        1
176
     1
 40
1.0
176
     1
 90
        0
176
     1
 62
   257
176
     1
 40
1.0
176
     1
 90
        1
176
     1
 90
        6
176
     1
 90
        2
176
     1
 62
     7
176
     1
 90
        3
176
     1
 90
        0
176
     1
 90
        0
176
     1
290
     0
176
     1
 90
        1
176
     1
 40
0.0
176
     1
 90
        0
176
     1
290
     0
176
     1
290
     1
176
     1
290
     1
176
     1
290
     0
176
     1
290
     0
176
     1
290
     0
176
     1
290
     0
176
     1
290
     0
176
     1
290
     0
176
     1
 90
       50
176
     1
 40
0.0
176
     1
 40
1.0
176
     1
 90
        0
176
     1
 62
    18
420
        0
176
     1
 90
       50
176
     1
 90
        3
176
     1
 62
     5
420
      255
176
     1
290
     0
176
     1
 90
       50
176
     1
 90
       50
176
     1
 90
       50
176
     1
290
     0
176
     1
 90
       50
176
     1
 62
   256
176
     0
 40
1.0
176
     0
 90
        2
176
     1
  1
strokes_ogs.tif
176
     1
290
     0
176
     1
 40
1.0
176
     1
 40
1.0
176
     1
  0
VISUALSTYLE
  5
435
102
{ACAD_REACTORS
330
41F
102
}
330
41F
100
AcDbVisualStyle
  2
X-Ray
 70
    25
177
     3
291
     0
 70
    58
 90
        2
176
     1
 90
        2
176
     1
 90
        1
176
     1
 90
        1
176
     1
 40
0.5
176
     1
 40
30.0
176
     1
 62
     7
176
     1
 90
        1
176
     1
 90
        0
176
     1
 62
     7
176
     1
 62
   257
176
     1
 90
        1
176
     1
 90
        1
176
     1
 40
1.0
176
     1
 90
        8
176
     1
 62
     7
176
     1
 40
1.0
176
     1
 90
        1
176
     1
 90
        6
176
     1
 90
        2
176
     1
 62
     7
176
     1
 90
        3
176
     1
 90
        0
176
     1
 90
        0
176
     1
290
     0
176
     1
 90
       13
176
     1
 40
0.0
176
     1
 90
        0
176
     1
290
     0
176
     1
290
     1
176
     1
290
     1
176
     1
290
     0
176
     1
290
     0
176
     1
290
     0
176
     1
290
     0
176
     1
290
     0
176
     1
290
     0
176
     1
 90
       50
176
     1
 40
0.0
176
     1
 40
1.0
176
     1
 90
        0
176
     1
 62
    18
420
        0
176
     1
 90
       50
176
     1
 90
        3
176
     1
 62
     5
420
      255
176
     1
290
     0
176
     1
 90
       50
176
     1
 90
       50
176
     1
 90
       50
176
     1
290
     0
176
     1
 90
       50
176
     1
 62
   256
176
     0
 40
1.0
176
     0
 90
        2
176
     1
  1
strokes_ogs.tif
176
     1
290
     0
176
     1
 40
1.0
176
     1
 40
1.0
176
     1
  0
DICTIONARYVAR
  5
789
102
{ACAD_REACTORS
330
65E
102
}
330
65E
100
DictionaryVariables
280
     0
  1
1:1
  0
DICTIONARYVAR
  5
660
102
{ACAD_REACTORS
330
65E
102
}
330
65E
100
DictionaryVariables
280
     0
  1
Standard
  0
DICTIONARYVAR
  5
65F
102
{ACAD_REACTORS
330
65E
102
}
330
65E
100
DictionaryVariables
280
     0
  1
Standard
  0
DICTIONARYVAR
  5
664
102
{ACAD_REACTORS
330
65E
102
}
330
65E
100
DictionaryVariables
280
     0
  1
2
  0
DICTIONARYVAR
  5
665
102
{ACAD_REACTORS
330
65E
102
}
330
65E
100
DictionaryVariables
280
     0
  1
1
  0
DICTIONARYVAR
  5
661
102
{ACAD_REACTORS
330
65E
102
}
330
65E
100
DictionaryVariables
280
     0
  1
0
  0
DICTIONARY
  5
618
102
{ACAD_REACTORS
330
617
102
}
330
617
100
AcDbDictionary
281
     1
  0
DICTIONARY
  5
78A
330
43D
100
AcDbDictionary
280
     1
281
     1
  3
ACAD_ROUNDTRIP_2008_TABLESTYLE_CELLSTYLEMAP
360
78B
  0
CELLSTYLEMAP
  5
78B
102
{ACAD_REACTORS
330
78A
102
}
330
78A
100
AcDbCellStyleMap
 90
        3
300
CELLSTYLE
  1
TABLEFORMAT_BEGIN
 90
        5
170
     1
 91
        0
 92
    32768
 62
   257
 93
        1
300
CONTENTFORMAT
  1
CONTENTFORMAT_BEGIN
 90
        0
 91
        0
 92
        4
 93
        0
300

 40
0.0
140
1.0
 94
        5
 62
     0
340
11
144
0.25
309
CONTENTFORMAT_END
171
     1
301
MARGIN
  1
CELLMARGIN_BEGIN
 40
0.06
 40
0.06
 40
0.06
 40
0.06
 40
0.06
 40
0.06
309
CELLMARGIN_END
 94
        6
 95
        1
302
GRIDFORMAT
  1
GRIDFORMAT_BEGIN
 90
        0
 91
        1
 62
     0
 92
       -2
340
14
 93
        0
 40
0.045
309
GRIDFORMAT_END
 95
        2
302
GRIDFORMAT
  1
GRIDFORMAT_BEGIN
 90
        0
 91
        1
 62
     0
 92
       -2
340
14
 93
        0
 40
0.045
309
GRIDFORMAT_END
 95
        4
302
GRIDFORMAT
  1
GRIDFORMAT_BEGIN
 90
        0
 91
        1
 62
     0
 92
       -2
340
14
 93
        0
 40
0.045
309
GRIDFORMAT_END
 95
        8
302
GRIDFORMAT
  1
GRIDFORMAT_BEGIN
 90
        0
 91
        1
 62
     0
 92
       -2
340
14
 93
        0
 40
0.045
309
GRIDFORMAT_END
 95
       16
302
GRIDFORMAT
  1
GRIDFORMAT_BEGIN
 90
        0
 91
        1
 62
     0
 92
       -2
340
14
 93
        0
 40
0.045
309
GRIDFORMAT_END
 95
       32
302
GRIDFORMAT
  1
GRIDFORMAT_BEGIN
 90
        0
 91
        1
 62
     0
 92
       -2
340
14
 93
        0
 40
0.045
309
GRIDFORMAT_END
309
TABLEFORMAT_END
  1
CELLSTYLE_BEGIN
 90
        1
 91
        1
300
_TITLE
309
CELLSTYLE_END
300
CELLSTYLE
  1
TABLEFORMAT_BEGIN
 90
        5
170
     1
 91
        0
 92
        0
 62
   257
 93
        1
300
CONTENTFORMAT
  1
CONTENTFORMAT_BEGIN
 90
        0
 91
        0
 92
        4
 93
        0
300

 40
0.0
140
1.0
 94
        5
 62
     0
340
11
144
0.18
309
CONTENTFORMAT_END
171
     1
301
MARGIN
  1
CELLMARGIN_BEGIN
 40
0.06
 40
0.06
 40
0.06
 40
0.06
 40
0.06
 40
0.06
309
CELLMARGIN_END
 94
        6
 95
        1
302
GRIDFORMAT
  1
GRIDFORMAT_BEGIN
 90
        0
 91
        1
 62
     0
 92
       -2
340
14
 93
        0
 40
0.045
309
GRIDFORMAT_END
 95
        2
302
GRIDFORMAT
  1
GRIDFORMAT_BEGIN
 90
        0
 91
        1
 62
     0
 92
       -2
340
14
 93
        0
 40
0.045
309
GRIDFORMAT_END
 95
        4
302
GRIDFORMAT
  1
GRIDFORMAT_BEGIN
 90
        0
 91
        1
 62
     0
 92
       -2
340
14
 93
        0
 40
0.045
309
GRIDFORMAT_END
 95
        8
302
GRIDFORMAT
  1
GRIDFORMAT_BEGIN
 90
        0
 91
        1
 62
     0
 92
       -2
340
14
 93
        0
 40
0.045
309
GRIDFORMAT_END
 95
       16
302
GRIDFORMAT
  1
GRIDFORMAT_BEGIN
 90
        0
 91
        1
 62
     0
 92
       -2
340
14
 93
        0
 40
0.045
309
GRIDFORMAT_END
 95
       32
302
GRIDFORMAT
  1
GRIDFORMAT_BEGIN
 90
        0
 91
        1
 62
     0
 92
       -2
340
14
 93
        0
 40
0.045
309
GRIDFORMAT_END
309
TABLEFORMAT_END
  1
CELLSTYLE_BEGIN
 90
        2
 91
        1
300
_HEADER
309
CELLSTYLE_END
300
CELLSTYLE
  1
TABLEFORMAT_BEGIN
 90
        5
170
     1
 91
        0
 92
        0
 62
   257
 93
        1
300
CONTENTFORMAT
  1
CONTENTFORMAT_BEGIN
 90
        0
 91
        0
 92
        4
 93
        0
300

 40
0.0
140
1.0
 94
        2
 62
     0
340
11
144
0.18
309
CONTENTFORMAT_END
171
     1
301
MARGIN
  1
CELLMARGIN_BEGIN
 40
0.06
 40
0.06
 40
0.06
 40
0.06
 40
0.06
 40
0.06
309
CELLMARGIN_END
 94
        6
 95
        1
302
GRIDFORMAT
  1
GRIDFORMAT_BEGIN
 90
        0
 91
        1
 62
     0
 92
       -2
340
14
 93
        0
 40
0.045
309
GRIDFORMAT_END
 95
        2
302
GRIDFORMAT
  1
GRIDFORMAT_BEGIN
 90
        0
 91
        1
 62
     0
 92
       -2
340
14
 93
        0
 40
0.045
309
GRIDFORMAT_END
 95
        4
302
GRIDFORMAT
  1
GRIDFORMAT_BEGIN
 90
        0
 91
        1
 62
     0
 92
       -2
340
14
 93
        0
 40
0.045
309
GRIDFORMAT_END
 95
        8
302
GRIDFORMAT
  1
GRIDFORMAT_BEGIN
 90
        0
 91
        1
 62
     0
 92
       -2
340
14
 93
        0
 40
0.045
309
GRIDFORMAT_END
 95
       16
302
GRIDFORMAT
  1
GRIDFORMAT_BEGIN
 90
        0
 91
        1
 62
     0
 92
       -2
340
14
 93
        0
 40
0.045
309
GRIDFORMAT_END
 95
       32
302
GRIDFORMAT
  1
GRIDFORMAT_BEGIN
 90
        0
 91
        1
 62
     0
 92
       -2
340
14
 93
        0
 40
0.045
309
GRIDFORMAT_END
309
TABLEFORMAT_END
  1
CELLSTYLE_BEGIN
 90
        3
 91
        2
300
_DATA
309
CELLSTYLE_END
  0
ENDSEC
  0
EOF
