  0
SECTION
  2
HEADER
  9
$ACADVER
  1
AC1027
  9
$ACADMAINTVER
 70
     8
  9
$DWGCODEPAGE
  3
ANSI_932
  9
$REQUIREDVERSIONS
160
                 0
  9
$LASTSAVEDBY
  1
megumi.kubo
  9
$INSBASE
 10
0.0
 20
0.0
 30
0.0
  9
$EXTMIN
 10
62.209858049913
 20
49.925635152149
 30
0.0
  9
$EXTMAX
 10
465.995898096886
 20
271.06552701514
 30
0.0
  9
$LIMMIN
 10
0.0
 20
0.0
  9
$LIMMAX
 10
405.0
 20
284.0
  9
$ORTHOMODE
 70
     0
  9
$REGENMODE
 70
     1
  9
$FILLMODE
 70
     1
  9
$QTEXTMODE
 70
     0
  9
$MIRRTEXT
 70
     1
  9
$LTSCALE
 40
15.0
  9
$ATTMODE
 70
     1
  9
$TEXTSIZE
 40
8.0
  9
$TRACEWID
 40
0.05
  9
$TEXTSTYLE
  7
Standard
  9
$CLAYER
  8
CSLAYER1
  9
$CELTYPE
  6
ByLayer
  9
$CECOLOR
 62
   256
  9
$CELTSCALE
 40
1.0
  9
$DISPSILH
 70
     0
  9
$DIMSCALE
 40
1.0
  9
$DIMASZ
 40
2.5
  9
$DIMEXO
 40
0.0625
  9
$DIMDLI
 40
0.38
  9
$DIMRND
 40
0.0
  9
$DIMDLE
 40
0.0
  9
$DIMEXE
 40
0.18
  9
$DIMTP
 40
0.0
  9
$DIMTM
 40
0.0
  9
$DIMTXT
 40
6.0
  9
$DIMCEN
 40
0.09
  9
$DIMTSZ
 40
0.0
  9
$DIMTOL
 70
     0
  9
$DIMLIM
 70
     0
  9
$DIMTIH
 70
     1
  9
$DIMTOH
 70
     1
  9
$DIMSE1
 70
     0
  9
$DIMSE2
 70
     0
  9
$DIMTAD
 70
     3
  9
$DIMZIN
 70
    12
  9
$DIMBLK
  1
Open30
  9
$DIMASO
 70
     1
  9
$DIMSHO
 70
     1
  9
$DIMPOST
  1

  9
$DIMAPOST
  1

  9
$DIMALT
 70
     0
  9
$DIMALTD
 70
     2
  9
$DIMALTF
 40
25.4
  9
$DIMLFAC
 40
1.0
  9
$DIMTOFL
 70
     0
  9
$DIMTVP
 40
0.0
  9
$DIMTIX
 70
     0
  9
$DIMSOXD
 70
     0
  9
$DIMSAH
 70
     0
  9
$DIMBLK1
  1
Open30
  9
$DIMBLK2
  1
Open30
  9
$DIMSTYLE
  2
Standard
  9
$DIMCLRD
 70
     0
  9
$DIMCLRE
 70
     0
  9
$DIMCLRT
 70
     0
  9
$DIMTFAC
 40
1.0
  9
$DIMGAP
 40
0.18
  9
$DIMJUST
 70
     0
  9
$DIMSD1
 70
     0
  9
$DIMSD2
 70
     0
  9
$DIMTOLJ
 70
     1
  9
$DIMTZIN
 70
     0
  9
$DIMALTZ
 70
     0
  9
$DIMALTTZ
 70
     0
  9
$DIMUPT
 70
     0
  9
$DIMDEC
 70
     4
  9
$DIMTDEC
 70
     4
  9
$DIMALTU
 70
     2
  9
$DIMALTTD
 70
     2
  9
$DIMTXSTY
  7
FX_FONT
  9
$DIMAUNIT
 70
     0
  9
$DIMADEC
 70
     0
  9
$DIMALTRND
 40
0.0
  9
$DIMAZIN
 70
     2
  9
$DIMDSEP
 70
    46
  9
$DIMATFIT
 70
     3
  9
$DIMFRAC
 70
     0
  9
$DIMLDRBLK
  1
Open30
  9
$DIMLUNIT
 70
     2
  9
$DIMLWD
 70
    -2
  9
$DIMLWE
 70
    -2
  9
$DIMTMOVE
 70
     2
  9
$DIMFXL
 40
1.0
  9
$DIMFXLON
 70
     0
  9
$DIMJOGANG
 40
0.785398163397
  9
$DIMTFILL
 70
     0
  9
$DIMTFILLCLR
 70
     0
  9
$DIMARCSYM
 70
     0
  9
$DIMLTYPE
  6

  9
$DIMLTEX1
  6

  9
$DIMLTEX2
  6

  9
$DIMTXTDIRECTION
 70
     0
  9
$LUNITS
 70
     2
  9
$LUPREC
 70
     4
  9
$SKETCHINC
 40
0.1
  9
$FILLETRAD
 40
0.0
  9
$AUNITS
 70
     0
  9
$AUPREC
 70
     0
  9
$MENU
  1
ACAD
  9
$ELEVATION
 40
0.0
  9
$PELEVATION
 40
0.0
  9
$THICKNESS
 40
0.0
  9
$LIMCHECK
 70
     0
  9
$CHAMFERA
 40
0.0
  9
$CHAMFERB
 40
0.0
  9
$CHAMFERC
 40
0.0
  9
$CHAMFERD
 40
0.0
  9
$SKPOLY
 70
     0
  9
$TDCREATE
 40
2457847.0
  9
$TDUCREATE
 40
2457846.625
  9
$TDUPDATE
 40
2457875.61009838
  9
$TDUUPDATE
 40
2457875.23509838
  9
$TDINDWG
 40
0.0853885185
  9
$TDUSRTIMER
 40
0.0853885185
  9
$USRTIMER
 70
     1
  9
$ANGBASE
 50
0.0
  9
$ANGDIR
 70
     0
  9
$PDMODE
 70
     0
  9
$PDSIZE
 40
0.0
  9
$PLINEWID
 40
0.0
  9
$SPLFRAME
 70
     0
  9
$SPLINETYPE
 70
     6
  9
$SPLINESEGS
 70
     8
  9
$HANDSEED
  5
C52
  9
$SURFTAB1
 70
     6
  9
$SURFTAB2
 70
     6
  9
$SURFTYPE
 70
     6
  9
$SURFU
 70
     6
  9
$SURFV
 70
     6
  9
$UCSBASE
  2

  9
$UCSNAME
  2

  9
$UCSORG
 10
0.0
 20
0.0
 30
0.0
  9
$UCSXDIR
 10
1.0
 20
0.0
 30
0.0
  9
$UCSYDIR
 10
0.0
 20
1.0
 30
0.0
  9
$UCSORTHOREF
  2

  9
$UCSORTHOVIEW
 70
     0
  9
$UCSORGTOP
 10
0.0
 20
0.0
 30
0.0
  9
$UCSORGBOTTOM
 10
0.0
 20
0.0
 30
0.0
  9
$UCSORGLEFT
 10
0.0
 20
0.0
 30
0.0
  9
$UCSORGRIGHT
 10
0.0
 20
0.0
 30
0.0
  9
$UCSORGFRONT
 10
0.0
 20
0.0
 30
0.0
  9
$UCSORGBACK
 10
0.0
 20
0.0
 30
0.0
  9
$PUCSBASE
  2

  9
$PUCSNAME
  2

  9
$PUCSORG
 10
0.0
 20
0.0
 30
0.0
  9
$PUCSXDIR
 10
1.0
 20
0.0
 30
0.0
  9
$PUCSYDIR
 10
0.0
 20
1.0
 30
0.0
  9
$PUCSORTHOREF
  2

  9
$PUCSORTHOVIEW
 70
     0
  9
$PUCSORGTOP
 10
0.0
 20
0.0
 30
0.0
  9
$PUCSORGBOTTOM
 10
0.0
 20
0.0
 30
0.0
  9
$PUCSORGLEFT
 10
0.0
 20
0.0
 30
0.0
  9
$PUCSORGRIGHT
 10
0.0
 20
0.0
 30
0.0
  9
$PUCSORGFRONT
 10
0.0
 20
0.0
 30
0.0
  9
$PUCSORGBACK
 10
0.0
 20
0.0
 30
0.0
  9
$USERI1
 70
     0
  9
$USERI2
 70
     0
  9
$USERI3
 70
     0
  9
$USERI4
 70
     0
  9
$USERI5
 70
     0
  9
$USERR1
 40
0.0
  9
$USERR2
 40
0.0
  9
$USERR3
 40
0.0
  9
$USERR4
 40
0.0
  9
$USERR5
 40
0.0
  9
$WORLDVIEW
 70
     1
  9
$SHADEDGE
 70
     3
  9
$SHADEDIF
 70
    70
  9
$TILEMODE
 70
     1
  9
$MAXACTVP
 70
    64
  9
$PINSBASE
 10
0.0
 20
0.0
 30
0.0
  9
$PLIMCHECK
 70
     0
  9
$PEXTMIN
 10
1.000000000000E+20
 20
1.000000000000E+20
 30
1.000000000000E+20
  9
$PEXTMAX
 10
-1.000000000000E+20
 20
-1.000000000000E+20
 30
-1.000000000000E+20
  9
$PLIMMIN
 10
0.0
 20
0.0
  9
$PLIMMAX
 10
12.0
 20
9.0
  9
$UNITMODE
 70
     0
  9
$VISRETAIN
 70
     1
  9
$PLINEGEN
 70
     0
  9
$PSLTSCALE
 70
     1
  9
$TREEDEPTH
 70
  3020
  9
$CMLSTYLE
  2
Standard
  9
$CMLJUST
 70
     0
  9
$CMLSCALE
 40
1.0
  9
$PROXYGRAPHICS
 70
     1
  9
$MEASUREMENT
 70
     0
  9
$CELWEIGHT
370
    -1
  9
$ENDCAPS
280
     0
  9
$JOINSTYLE
280
     0
  9
$LWDISPLAY
290
     0
  9
$INSUNITS
 70
     0
  9
$HYPERLINKBASE
  1

  9
$STYLESHEET
  1

  9
$XEDIT
290
     1
  9
$CEPSNTYPE
380
     0
  9
$PSTYLEMODE
290
     1
  9
$FINGERPRINTGUID
  2
{633CD581-E5DA-4205-91BD-2DF000929D09}
  9
$VERSIONGUID
  2
{FAEB1C32-E019-11D5-929B-00C0DF256EC4}
  9
$EXTNAMES
290
     1
  9
$PSVPSCALE
 40
0.0
  9
$OLESTARTUP
290
     0
  9
$SORTENTS
280
   127
  9
$INDEXCTL
280
     0
  9
$HIDETEXT
280
     1
  9
$XCLIPFRAME
280
     2
  9
$HALOGAP
280
     0
  9
$OBSCOLOR
 70
   257
  9
$OBSLTYPE
280
     0
  9
$INTERSECTIONDISPLAY
280
     0
  9
$INTERSECTIONCOLOR
 70
   257
  9
$DIMASSOC
280
     2
  9
$PROJECTNAME
  1

  9
$CAMERADISPLAY
290
     0
  9
$LENSLENGTH
 40
50.0
  9
$CAMERAHEIGHT
 40
0.0
  9
$STEPSPERSEC
 40
2.0
  9
$STEPSIZE
 40
6.0
  9
$3DDWFPREC
 40
2.0
  9
$PSOLWIDTH
 40
0.25
  9
$PSOLHEIGHT
 40
4.0
  9
$LOFTANG1
 40
1.570796326795
  9
$LOFTANG2
 40
1.570796326795
  9
$LOFTMAG1
 40
0.0
  9
$LOFTMAG2
 40
0.0
  9
$LOFTPARAM
 70
     7
  9
$LOFTNORMALS
280
     1
  9
$LATITUDE
 40
37.795
  9
$LONGITUDE
 40
-122.394
  9
$NORTHDIRECTION
 40
0.0
  9
$TIMEZONE
 70
 -8000
  9
$LIGHTGLYPHDISPLAY
280
     1
  9
$TILEMODELIGHTSYNCH
280
     1
  9
$SOLIDHIST
280
     0
  9
$SHOWHIST
280
     1
  9
$DWFFRAME
280
     2
  9
$DGNFRAME
280
     2
  9
$REALWORLDSCALE
290
     1
  9
$INTERFERECOLOR
 62
   256
  9
$CSHADOW
280
     0
  9
$SHADOWPLANELOCATION
 40
0.0
  0
ENDSEC
  0
SECTION
  2
CLASSES
  0
CLASS
  1
ACDBDICTIONARYWDFLT
  2
AcDbDictionaryWithDefault
  3
ObjectDBX Classes
 90
        0
 91
        5
280
     0
281
     0
  0
CLASS
  1
SCALE
  2
AcDbScale
  3
ObjectDBX Classes
 90
     1153
 91
        5
280
     0
281
     0
  0
CLASS
  1
VISUALSTYLE
  2
AcDbVisualStyle
  3
ObjectDBX Classes
 90
     4095
 91
        5
280
     0
281
     0
  0
CLASS
  1
MATERIAL
  2
AcDbMaterial
  3
ObjectDBX Classes
 90
     1153
 91
        5
280
     0
281
     0
  0
CLASS
  1
TABLESTYLE
  2
AcDbTableStyle
  3
ObjectDBX Classes
 90
     4095
 91
        5
280
     0
281
     0
  0
CLASS
  1
MLEADERSTYLE
  2
AcDbMLeaderStyle
  3
ACDB_MLEADERSTYLE_CLASS
 90
     4095
 91
        5
280
     0
281
     0
  0
CLASS
  1
SUN
  2
AcDbSun
  3
SCENEOE
 90
     1153
 91
        5
280
     0
281
     0
  0
CLASS
  1
DICTIONARYVAR
  2
AcDbDictionaryVar
  3
ObjectDBX Classes
 90
        0
 91
        4
280
     0
281
     0
  0
CLASS
  1
DIMASSOC
  2
AcDbDimAssoc
  3
"AcDbDimAssoc|Product Desc:     AcDim ARX App For Dimension|Company:          Autodesk, Inc.|WEB Address:      www.autodesk.com"
 90
        0
 91
        4
280
     0
281
     0
  0
CLASS
  1
SORTENTSTABLE
  2
AcDbSortentsTable
  3
ObjectDBX Classes
 90
        0
 91
        4
280
     0
281
     0
  0
CLASS
  1
CELLSTYLEMAP
  2
AcDbCellStyleMap
  3
ObjectDBX Classes
 90
     1152
 91
        4
280
     0
281
     0
  0
CLASS
  1
XRECORD
  2
AcDbXrecord
  3
ObjectDBX Classes
 90
        0
 91
        1
280
     0
281
     0
  0
CLASS
  1
LWPOLYLINE
  2
AcDbPolyline
  3
ObjectDBX Classes
 90
        0
 91
        1
280
     0
281
     1
  0
CLASS
  1
HATCH
  2
AcDbHatch
  3
ObjectDBX Classes
 90
        0
 91
        1
280
     0
281
     1
  0
CLASS
  1
ACDBPLACEHOLDER
  2
AcDbPlaceHolder
  3
ObjectDBX Classes
 90
        0
 91
        1
280
     0
281
     0
  0
CLASS
  1
LAYOUT
  2
AcDbLayout
  3
ObjectDBX Classes
 90
        0
 91
        1
280
     0
281
     0
  0
CLASS
  1
RASTERVARIABLES
  2
AcDbRasterVariables
  3
ISM
 90
        0
 91
        4
280
     0
281
     0
  0
ENDSEC
  0
SECTION
  2
TABLES
  0
TABLE
  2
VPORT
  5
8
330
0
100
AcDbSymbolTable
 70
     1
  0
VPORT
  5
3B
330
8
100
AcDbSymbolTableRecord
100
AcDbViewportTableRecord
  2
*Active
 70
     0
 10
0.0
 20
0.0
 11
1.0
 21
1.0
 12
264.102878073399
 22
160.495581083645
 13
0.0
 23
0.0
 14
0.5
 24
0.5
 15
0.5
 25
0.5
 16
0.0
 26
0.0
 36
1.0
 17
0.0
 27
0.0
 37
0.0
 40
249.168050472593
 41
1.652947719689
 42
50.0
 43
0.0
 44
0.0
 50
0.0
 51
0.0
 71
    16
 72
   100
 73
     1
 74
     3
 75
     0
 76
     0
 77
     0
 78
     0
281
     0
 65
     1
110
0.0
120
0.0
130
0.0
111
1.0
121
0.0
131
0.0
112
0.0
122
1.0
132
0.0
 79
     0
146
0.0
 60
     3
 61
     5
292
     1
282
     1
141
0.0
142
0.0
 63
   256
361
4A8
  0
ENDTAB
  0
TABLE
  2
LTYPE
  5
5
330
0
100
AcDbSymbolTable
 70
    10
  0
LTYPE
  5
14
330
5
100
AcDbSymbolTableRecord
100
AcDbLinetypeTableRecord
  2
ByBlock
 70
     0
  3

 72
    65
 73
     0
 40
0.0
  0
LTYPE
  5
15
330
5
100
AcDbSymbolTableRecord
100
AcDbLinetypeTableRecord
  2
ByLayer
 70
     0
  3

 72
    65
 73
     0
 40
0.0
  0
LTYPE
  5
16
330
5
100
AcDbSymbolTableRecord
100
AcDbLinetypeTableRecord
  2
CONTINUOUS
 70
     0
  3
Solid line
 72
    65
 73
     0
 40
0.0
  0
LTYPE
  5
21
330
5
100
AcDbSymbolTableRecord
100
AcDbLinetypeTableRecord
  2
DASHED
 70
     0
  3
__ __ __ __ __ __ __ __ __ __ __ __ __ __ __
 72
    65
 73
     2
 40
0.75
 49
0.5
 74
     0
 49
-0.25
 74
     0
  0
LTYPE
  5
22
330
5
100
AcDbSymbolTableRecord
100
AcDbLinetypeTableRecord
  2
HIDDEN
 70
     0
  3
_ _ _ _ _ _ _ _ _ _ _ _ _ _ _ _ _ _ _ _ _ _ _
 72
    65
 73
     2
 40
0.375
 49
0.25
 74
     0
 49
-0.125
 74
     0
  0
LTYPE
  5
23
330
5
100
AcDbSymbolTableRecord
100
AcDbLinetypeTableRecord
  2
DOT
 70
     0
  3
...............................................
 72
    65
 73
     2
 40
0.25
 49
0.0
 74
     0
 49
-0.25
 74
     0
  0
LTYPE
  5
24
330
5
100
AcDbSymbolTableRecord
100
AcDbLinetypeTableRecord
  2
DASHDOT
 70
     0
  3
__ . __ . __ . __ . __ . __ . __ . __ . __ . __
 72
    65
 73
     4
 40
1.0
 49
0.5
 74
     0
 49
-0.25
 74
     0
 49
0.0
 74
     0
 49
-0.25
 74
     0
  0
LTYPE
  5
25
330
5
100
AcDbSymbolTableRecord
100
AcDbLinetypeTableRecord
  2
DIVIDE
 70
     0
  3
__ . . __ . . __ . . __ . . __ . . __ . . __
 72
    65
 73
     6
 40
1.25
 49
0.5
 74
     0
 49
-0.25
 74
     0
 49
0.0
 74
     0
 49
-0.25
 74
     0
 49
0.0
 74
     0
 49
-0.25
 74
     0
  0
LTYPE
  5
26
330
5
100
AcDbSymbolTableRecord
100
AcDbLinetypeTableRecord
  2
CENTER
 70
     0
  3
____ _ ____ _ ____ _ ____ _ ____ _ ____ _ ____ 
 72
    65
 73
     4
 40
2.0
 49
1.25
 74
     0
 49
-0.25
 74
     0
 49
0.25
 74
     0
 49
-0.25
 74
     0
  0
LTYPE
  5
27
330
5
100
AcDbSymbolTableRecord
100
AcDbLinetypeTableRecord
  2
PHANTOM
 70
     0
  3
______  __  __  ______  __  __  ______  __  __ 
 72
    65
 73
     6
 40
2.5
 49
1.25
 74
     0
 49
-0.25
 74
     0
 49
0.25
 74
     0
 49
-0.25
 74
     0
 49
0.25
 74
     0
 49
-0.25
 74
     0
  0
LTYPE
  5
28
330
5
100
AcDbSymbolTableRecord
100
AcDbLinetypeTableRecord
  2
BORDER
 70
     0
  3
__ __ . __ __ . __ __ . __ __ . __ __ . __ __ .
 72
    65
 73
     6
 40
1.75
 49
0.5
 74
     0
 49
-0.25
 74
     0
 49
0.5
 74
     0
 49
-0.25
 74
     0
 49
0.0
 74
     0
 49
-0.25
 74
     0
  0
LTYPE
  5
792
330
5
100
AcDbSymbolTableRecord
100
AcDbLinetypeTableRecord
  2
DYN_DIM
 70
     0
  3
Dashed dynamic dimension line
 72
    65
 73
     2
 40
2.944066785107
 49
0.841161938602
 74
     0
 49
-2.102904846505
 74
     0
  0
ENDTAB
  0
TABLE
  2
LAYER
  5
2
330
0
100
AcDbSymbolTable
 70
    18
  0
LAYER
  5
10
330
2
100
AcDbSymbolTableRecord
100
AcDbLayerTableRecord
  2
0
 70
     0
 62
     7
  6
CONTINUOUS
370
    -3
390
F
347
4A2
348
0
  0
LAYER
  5
29
330
2
100
AcDbSymbolTableRecord
100
AcDbLayerTableRecord
  2
CSLAYER1
 70
     0
 62
     7
  6
CONTINUOUS
370
    -3
390
F
347
4A2
348
0
  0
LAYER
  5
32
330
2
100
AcDbSymbolTableRecord
100
AcDbLayerTableRecord
  2
CSLAYER10
 70
     0
 62
     3
  6
CONTINUOUS
370
    -3
390
F
347
4A2
348
0
  0
LAYER
  5
793
330
2
100
AcDbSymbolTableRecord
100
AcDbLayerTableRecord
  2
Defpoints
 70
     0
 62
     7
  6
CONTINUOUS
290
     0
370
    -3
390
F
347
4A2
348
0
  0
ENDTAB
  0
TABLE
  2
STYLE
  5
3
330
0
100
AcDbSymbolTable
 70
     3
  0
STYLE
  5
11
330
3
100
AcDbSymbolTableRecord
100
AcDbTextStyleTableRecord
  2
Standard
 70
     0
 40
0.0
 41
1.0
 50
0.0
 71
     0
 42
8.0
  3
txt
  4
extfont.shx
  0
STYLE
  5
39
330
3
100
AcDbSymbolTableRecord
100
AcDbTextStyleTableRecord
  2
FX_FONT
 70
     0
 40
1.0
 41
1.0
 50
0.0
 71
     0
 42
1.0
  3
monotxt
  4
extfont.shx
  0
STYLE
  5
791
330
3
100
AcDbSymbolTableRecord
100
AcDbTextStyleTableRecord
  2
DYN_DIM
 70
     0
 40
0.0
 41
1.0
 50
0.0
 71
     0
 42
0.2
  3
txt
  4
extfont.shx
  0
ENDTAB
  0
TABLE
  2
VIEW
  5
6
330
0
100
AcDbSymbolTable
 70
     0
  0
ENDTAB
  0
TABLE
  2
UCS
  5
7
330
0
100
AcDbSymbolTable
 70
     0
  0
ENDTAB
  0
TABLE
  2
APPID
  5
9
330
0
100
AcDbSymbolTable
 70
     4
  0
APPID
  5
12
330
9
100
AcDbSymbolTableRecord
100
AcDbRegAppTableRecord
  2
ACAD
 70
     0
  0
APPID
  5
7C6
330
9
100
AcDbSymbolTableRecord
100
AcDbRegAppTableRecord
  2
ACAD_DSTYLE_DIMRADIAL_EXTENSION
 70
     0
  0
APPID
  5
851
330
9
100
AcDbSymbolTableRecord
100
AcDbRegAppTableRecord
  2
AcadAnnotative
 70
     0
  0
APPID
  5
AA7
330
9
100
AcDbSymbolTableRecord
100
AcDbRegAppTableRecord
  2
ACAD_MLEADERVER
 70
     0
  0
ENDTAB
  0
TABLE
  2
DIMSTYLE
  5
A
330
0
100
AcDbSymbolTable
 70
     1
100
AcDbDimStyleTable
  0
DIMSTYLE
105
3A
330
A
100
AcDbSymbolTableRecord
100
AcDbDimStyleTableRecord
  2
Standard
 70
     0
 41
2.5
 77
     3
 78
    12
 79
     2
140
6.0
147
0.18
178
     0
340
39
341
81A
342
81A
343
81A
344
81A
  0
ENDTAB
  0
TABLE
  2
BLOCK_RECORD
  5
1
330
0
100
AcDbSymbolTable
 70
    69
  0
BLOCK_RECORD
  5
1D
102
{ACAD_XDICTIONARY
360
852
102
}
330
1
100
AcDbSymbolTableRecord
100
AcDbBlockTableRecord
  2
*Model_Space
340
1E
 70
     0
280
     1
281
     0
  0
BLOCK_RECORD
  5
1B
330
1
100
AcDbSymbolTableRecord
100
AcDbBlockTableRecord
  2
*Paper_Space
340
1C
 70
     0
280
     1
281
     0
  0
BLOCK_RECORD
  5
167
330
1
100
AcDbSymbolTableRecord
100
AcDbBlockTableRecord
  2
FXDIM0000
340
0
 70
     0
280
     1
281
     0
  0
BLOCK_RECORD
  5
16F
330
1
100
AcDbSymbolTableRecord
100
AcDbBlockTableRecord
  2
FXDIM0001
340
0
 70
     0
280
     1
281
     0
  0
BLOCK_RECORD
  5
18D
330
1
100
AcDbSymbolTableRecord
100
AcDbBlockTableRecord
  2
FXDIM0002
340
0
 70
     0
280
     1
281
     0
  0
BLOCK_RECORD
  5
195
330
1
100
AcDbSymbolTableRecord
100
AcDbBlockTableRecord
  2
FXDIM0003
340
0
 70
     0
280
     1
281
     0
  0
BLOCK_RECORD
  5
19D
330
1
100
AcDbSymbolTableRecord
100
AcDbBlockTableRecord
  2
FXDIM0004
340
0
 70
     0
280
     1
281
     0
  0
BLOCK_RECORD
  5
1A5
330
1
100
AcDbSymbolTableRecord
100
AcDbBlockTableRecord
  2
FXDIM0005
340
0
 70
     0
280
     1
281
     0
  0
BLOCK_RECORD
  5
1AE
330
1
100
AcDbSymbolTableRecord
100
AcDbBlockTableRecord
  2
FXDIM0006
340
0
 70
     0
280
     1
281
     0
  0
BLOCK_RECORD
  5
1B6
330
1
100
AcDbSymbolTableRecord
100
AcDbBlockTableRecord
  2
FXDIM0007
340
0
 70
     0
280
     1
281
     0
  0
BLOCK_RECORD
  5
1EF
330
1
100
AcDbSymbolTableRecord
100
AcDbBlockTableRecord
  2
BLKF0000
340
0
 70
     0
280
     1
281
     0
  0
BLOCK_RECORD
  5
231
330
1
100
AcDbSymbolTableRecord
100
AcDbBlockTableRecord
  2
BLKF0001
340
0
 70
     0
280
     1
281
     0
  0
BLOCK_RECORD
  5
239
330
1
100
AcDbSymbolTableRecord
100
AcDbBlockTableRecord
  2
BLKF0002
340
0
 70
     0
280
     1
281
     0
  0
BLOCK_RECORD
  5
4A9
330
1
100
AcDbSymbolTableRecord
100
AcDbBlockTableRecord
  2
ACE01E8
340
0
 70
     0
280
     1
281
     0
  0
BLOCK_RECORD
  5
794
330
1
100
AcDbSymbolTableRecord
100
AcDbBlockTableRecord
  2
ACE00A8
340
0
 70
     0
280
     1
281
     0
  0
BLOCK_RECORD
  5
7D4
330
1
100
AcDbSymbolTableRecord
100
AcDbBlockTableRecord
  2
ACE00E8
340
0
 70
     0
280
     1
281
     0
  0
BLOCK_RECORD
  5
81A
330
1
100
AcDbSymbolTableRecord
100
AcDbBlockTableRecord
  2
_Open30
340
0
 70
     0
280
     1
281
     0
  0
BLOCK_RECORD
  5
826
330
1
100
AcDbSymbolTableRecord
100
AcDbBlockTableRecord
  2
ACE01F8
340
0
 70
     0
280
     1
281
     0
  0
BLOCK_RECORD
  5
8A8
102
{ACAD_XDICTIONARY
360
8CC
102
}
330
1
100
AcDbSymbolTableRecord
100
AcDbBlockTableRecord
  2
ACE0128
340
0
102
{BLKREFS
331
8FA
102
}
 70
     0
280
     1
281
     0
  0
BLOCK_RECORD
  5
8D4
102
{ACAD_XDICTIONARY
360
8F8
102
}
330
1
100
AcDbSymbolTableRecord
100
AcDbBlockTableRecord
  2
ACE00C8
340
0
 70
     0
280
     1
281
     0
  0
BLOCK_RECORD
  5
914
102
{ACAD_XDICTIONARY
360
938
102
}
330
1
100
AcDbSymbolTableRecord
100
AcDbBlockTableRecord
  2
ACE01C8
340
0
 70
     0
280
     1
281
     0
  0
BLOCK_RECORD
  5
946
102
{ACAD_XDICTIONARY
360
96A
102
}
330
1
100
AcDbSymbolTableRecord
100
AcDbBlockTableRecord
  2
ACE0168
340
0
 70
     0
280
     1
281
     0
  0
BLOCK_RECORD
  5
97D
102
{ACAD_XDICTIONARY
360
9A1
102
}
330
1
100
AcDbSymbolTableRecord
100
AcDbBlockTableRecord
  2
159C03D0
340
0
 70
     0
280
     1
281
     0
  0
BLOCK_RECORD
  5
9B2
102
{ACAD_XDICTIONARY
360
9D6
102
}
330
1
100
AcDbSymbolTableRecord
100
AcDbBlockTableRecord
  2
159C0150
340
0
 70
     0
280
     1
281
     0
  0
BLOCK_RECORD
  5
9E9
102
{ACAD_XDICTIONARY
360
A0E
102
}
330
1
100
AcDbSymbolTableRecord
100
AcDbBlockTableRecord
  2
ACE0108
340
0
 70
     0
280
     1
281
     0
  0
BLOCK_RECORD
  5
A20
102
{ACAD_XDICTIONARY
360
A44
102
}
330
1
100
AcDbSymbolTableRecord
100
AcDbBlockTableRecord
  2
159C03F0
340
0
 70
     0
280
     1
281
     0
  0
BLOCK_RECORD
  5
B20
330
1
100
AcDbSymbolTableRecord
100
AcDbBlockTableRecord
  2
_OPEN90
340
0
 70
     0
280
     1
281
     0
  0
ENDTAB
  0
ENDSEC
  0
SECTION
  2
BLOCKS
  0
BLOCK
  5
482
330
1D
100
AcDbEntity
  8
0
100
AcDbBlockBegin
  2
*Model_Space
 70
     0
 10
0.0
 20
0.0
 30
0.0
  3
*Model_Space
  1

  0
ENDBLK
  5
483
330
1D
100
AcDbEntity
  8
0
100
AcDbBlockEnd
  0
BLOCK
  5
484
330
1B
100
AcDbEntity
 67
     1
  8
0
100
AcDbBlockBegin
  2
*Paper_Space
 70
     0
 10
0.0
 20
0.0
 30
0.0
  3
*Paper_Space
  1

  0
ENDBLK
  5
485
330
1B
100
AcDbEntity
 67
     1
  8
0
100
AcDbBlockEnd
  0
BLOCK
  5
166
330
167
100
AcDbEntity
  8
CSLAYER1
100
AcDbBlockBegin
  2
FXDIM0000
 70
     0
 10
0.0
 20
0.0
 30
0.0
  3
FXDIM0000
  1

  0
LINE
  5
168
330
167
100
AcDbEntity
  8
CSLAYER1
  6
Continuous
 62
     7
100
AcDbLine
 10
141.40281
 20
245.920333
 30
0.0
 11
131.331763
 21
271.09795
 31
0.0
  0
CIRCLE
  5
169
330
167
100
AcDbEntity
  8
CSLAYER1
  6
Continuous
 62
     7
100
AcDbCircle
 10
141.40281
 20
245.920333
 30
0.0
 40
0.5
  0
CIRCLE
  5
16A
330
167
100
AcDbEntity
  8
CSLAYER1
  6
Continuous
 62
     7
100
AcDbCircle
 10
141.40281
 20
245.920333
 30
0.0
 40
0.25
  0
CIRCLE
  5
16B
330
167
100
AcDbEntity
  8
CSLAYER1
  6
Continuous
 62
     7
100
AcDbCircle
 10
129.47481
 20
275.740333
 30
0.0
 40
5.0
  0
TEXT
  5
16C
330
167
100
AcDbEntity
  8
CSLAYER1
 62
     7
100
AcDbText
 10
128.224808
 20
273.740326
 30
0.0
 40
4.0
  1
4
 41
0.75
  7
FX_FONT
 72
     5
 11
130.724808
 21
273.740326
 31
0.0
100
AcDbText
  0
ENDBLK
  5
16D
330
167
100
AcDbEntity
  8
0
100
AcDbBlockEnd
  0
BLOCK
  5
16E
330
16F
100
AcDbEntity
  8
CSLAYER1
100
AcDbBlockBegin
  2
FXDIM0001
 70
     0
 10
0.0
 20
0.0
 30
0.0
  3
FXDIM0001
  1

  0
LINE
  5
170
330
16F
100
AcDbEntity
  8
CSLAYER1
  6
Continuous
 62
     7
100
AcDbLine
 10
180.16881
 20
256.854333
 30
0.0
 11
176.471276
 21
270.904961
 31
0.0
  0
CIRCLE
  5
171
330
16F
100
AcDbEntity
  8
CSLAYER1
  6
Continuous
 62
     7
100
AcDbCircle
 10
180.16881
 20
256.854333
 30
0.0
 40
0.5
  0
CIRCLE
  5
172
330
16F
100
AcDbEntity
  8
CSLAYER1
  6
Continuous
 62
     7
100
AcDbCircle
 10
180.16881
 20
256.854333
 30
0.0
 40
0.25
  0
CIRCLE
  5
173
330
16F
100
AcDbEntity
  8
CSLAYER1
  6
Continuous
 62
     7
100
AcDbCircle
 10
175.19881
 20
275.740333
 30
0.0
 40
5.0
  0
TEXT
  5
174
330
16F
100
AcDbEntity
  8
CSLAYER1
 62
     7
100
AcDbText
 10
173.948807
 20
273.740326
 30
0.0
 40
4.0
  1
5
 41
0.75
  7
FX_FONT
 72
     5
 11
176.448807
 21
273.740326
 31
0.0
100
AcDbText
  0
ENDBLK
  5
175
330
16F
100
AcDbEntity
  8
0
100
AcDbBlockEnd
  0
BLOCK
  5
18C
330
18D
100
AcDbEntity
  8
CSLAYER1
100
AcDbBlockBegin
  2
FXDIM0002
 70
     0
 10
0.0
 20
0.0
 30
0.0
  3
FXDIM0002
  1

  0
LINE
  5
18E
330
18D
100
AcDbEntity
  8
CSLAYER1
  6
Continuous
 62
     7
100
AcDbLine
 10
75.012436
 20
165.664502
 30
0.0
 11
60.573607
 21
182.991098
 31
0.0
  0
CIRCLE
  5
18F
330
18D
100
AcDbEntity
  8
CSLAYER1
  6
Continuous
 62
     7
100
AcDbCircle
 10
75.012436
 20
165.664502
 30
0.0
 40
0.5
  0
CIRCLE
  5
190
330
18D
100
AcDbEntity
  8
CSLAYER1
  6
Continuous
 62
     7
100
AcDbCircle
 10
75.012436
 20
165.664502
 30
0.0
 40
0.25
  0
CIRCLE
  5
191
330
18D
100
AcDbEntity
  8
CSLAYER1
  6
Continuous
 62
     7
100
AcDbCircle
 10
57.372685
 20
186.832204
 30
0.0
 40
5.0
  0
TEXT
  5
192
330
18D
100
AcDbEntity
  8
CSLAYER1
 62
     7
100
AcDbText
 10
56.122688
 20
184.832199
 30
0.0
 40
4.0
  1
6
 41
0.75
  7
FX_FONT
 72
     5
 11
58.622688
 21
184.832199
 31
0.0
100
AcDbText
  0
ENDBLK
  5
193
330
18D
100
AcDbEntity
  8
0
100
AcDbBlockEnd
  0
BLOCK
  5
194
330
195
100
AcDbEntity
  8
CSLAYER1
100
AcDbBlockBegin
  2
FXDIM0003
 70
     0
 10
0.0
 20
0.0
 30
0.0
  3
FXDIM0003
  1

  0
LINE
  5
196
330
195
100
AcDbEntity
  8
CSLAYER1
  6
Continuous
 62
     7
100
AcDbLine
 10
332.282415
 20
249.321573
 30
0.0
 11
322.826229
 21
265.700167
 31
0.0
  0
CIRCLE
  5
197
330
195
100
AcDbEntity
  8
CSLAYER1
  6
Continuous
 62
     7
100
AcDbCircle
 10
332.282415
 20
249.321573
 30
0.0
 40
0.5
  0
CIRCLE
  5
198
330
195
100
AcDbEntity
  8
CSLAYER1
  6
Continuous
 62
     7
100
AcDbCircle
 10
332.282415
 20
249.321573
 30
0.0
 40
0.25
  0
CIRCLE
  5
199
330
195
100
AcDbEntity
  8
CSLAYER1
  6
Continuous
 62
     7
100
AcDbCircle
 10
320.274477
 20
270.0
 30
0.0
 40
5.0
  0
TEXT
  5
19A
330
195
100
AcDbEntity
  8
CSLAYER1
 62
     7
100
AcDbText
 10
319.024445
 20
267.999969
 30
0.0
 40
4.0
  1
1
 41
0.9375
  7
FX_FONT
 72
     5
 11
321.524445
 21
267.999969
 31
0.0
100
AcDbText
  0
ENDBLK
  5
19B
330
195
100
AcDbEntity
  8
0
100
AcDbBlockEnd
  0
BLOCK
  5
19C
330
19D
100
AcDbEntity
  8
CSLAYER1
100
AcDbBlockBegin
  2
FXDIM0004
 70
     0
 10
0.0
 20
0.0
 30
0.0
  3
FXDIM0004
  1

  0
LINE
  5
19E
330
19D
100
AcDbEntity
  8
CSLAYER1
  6
Continuous
 62
     7
100
AcDbLine
 10
299.438109
 20
235.404054
 30
0.0
 11
281.91813
 21
265.669873
 31
0.0
  0
CIRCLE
  5
19F
330
19D
100
AcDbEntity
  8
CSLAYER1
  6
Continuous
 62
     7
100
AcDbCircle
 10
299.438109
 20
235.404054
 30
0.0
 40
0.5
  0
CIRCLE
  5
1A0
330
19D
100
AcDbEntity
  8
CSLAYER1
  6
Continuous
 62
     7
100
AcDbCircle
 10
299.438109
 20
235.404054
 30
0.0
 40
0.25
  0
CIRCLE
  5
1A1
330
19D
100
AcDbEntity
  8
CSLAYER1
  6
Continuous
 62
     7
100
AcDbCircle
 10
279.41813
 20
270.0
 30
0.0
 40
5.0
  0
TEXT
  5
1A2
330
19D
100
AcDbEntity
  8
CSLAYER1
 62
     7
100
AcDbText
 10
278.168121
 20
267.999969
 30
0.0
 40
4.0
  1
2
 41
0.75
  7
FX_FONT
 72
     5
 11
280.668121
 21
267.999969
 31
0.0
100
AcDbText
  0
ENDBLK
  5
1A3
330
19D
100
AcDbEntity
  8
0
100
AcDbBlockEnd
  0
BLOCK
  5
1A4
330
1A5
100
AcDbEntity
  8
CSLAYER1
100
AcDbBlockBegin
  2
FXDIM0005
 70
     0
 10
0.0
 20
0.0
 30
0.0
  3
FXDIM0005
  1

  0
LINE
  5
1A6
330
1A5
100
AcDbEntity
  8
CSLAYER1
  6
Continuous
 62
     7
100
AcDbLine
 10
361.55
 20
250.818653
 30
0.0
 11
370.892305
 21
267.0
 31
0.0
  0
LINE
  5
1A7
330
1A5
100
AcDbEntity
  8
CSLAYER1
  6
Continuous
 62
     7
100
AcDbLine
 10
361.55
 20
250.818653
 30
0.0
 11
362.067638
 21
252.750505
 31
0.0
  0
LINE
  5
1A8
330
1A5
100
AcDbEntity
  8
CSLAYER1
  6
Continuous
 62
     7
100
AcDbLine
 10
361.55
 20
250.818653
 30
0.0
 11
362.964214
 21
252.232867
 31
0.0
  0
LINE
  5
1A9
330
1A5
100
AcDbEntity
  8
CSLAYER1
  6
Continuous
 62
     7
100
AcDbLine
 10
370.892305
 20
267.0
 30
0.0
 11
341.892305
 21
267.0
 31
0.0
  0
LINE
  5
1AA
330
1A5
100
AcDbEntity
  8
CSLAYER1
  6
Continuous
 62
     7
100
AcDbLine
 10
341.892305
 20
267.0
 30
0.0
 11
366.80342
 21
267.0
 31
0.0
  0
TEXT
  5
1AB
330
1A5
100
AcDbEntity
  8
CSLAYER1
 62
     7
100
AcDbText
 10
342.942749
 20
268.085358
 30
0.0
 40
4.0
  1
4-3.5mmネジ用穴
 41
0.595739559514
  7
FX_FONT
 72
     5
 11
370.442749
 21
268.085358
 31
0.0
100
AcDbText
  0
ENDBLK
  5
1AC
330
1A5
100
AcDbEntity
  8
0
100
AcDbBlockEnd
  0
BLOCK
  5
1AD
330
1AE
100
AcDbEntity
  8
CSLAYER1
100
AcDbBlockBegin
  2
FXDIM0006
 70
     0
 10
0.0
 20
0.0
 30
0.0
  3
FXDIM0006
  1

  0
LINE
  5
1AF
330
1AE
100
AcDbEntity
  8
CSLAYER1
  6
Continuous
 62
     7
100
AcDbLine
 10
236.474197
 20
245.281878
 30
0.0
 11
224.703182
 21
265.669873
 31
0.0
  0
CIRCLE
  5
1B0
330
1AE
100
AcDbEntity
  8
CSLAYER1
  6
Continuous
 62
     7
100
AcDbCircle
 10
236.474197
 20
245.281878
 30
0.0
 40
0.5
  0
CIRCLE
  5
1B1
330
1AE
100
AcDbEntity
  8
CSLAYER1
  6
Continuous
 62
     7
100
AcDbCircle
 10
236.474197
 20
245.281878
 30
0.0
 40
0.25
  0
CIRCLE
  5
1B2
330
1AE
100
AcDbEntity
  8
CSLAYER1
  6
Continuous
 62
     7
100
AcDbCircle
 10
222.203182
 20
270.0
 30
0.0
 40
5.0
  0
TEXT
  5
1B3
330
1AE
100
AcDbEntity
  8
CSLAYER1
 62
     7
100
AcDbText
 10
220.953186
 20
268.0
 30
0.0
 40
4.0
  1
3
 41
0.75
  7
FX_FONT
 72
     5
 11
223.453186
 21
268.0
 31
0.0
100
AcDbText
  0
ENDBLK
  5
1B4
330
1AE
100
AcDbEntity
  8
0
100
AcDbBlockEnd
  0
BLOCK
  5
1B5
330
1B6
100
AcDbEntity
  8
CSLAYER1
100
AcDbBlockBegin
  2
FXDIM0007
 70
     0
 10
0.0
 20
0.0
 30
0.0
  3
FXDIM0007
  1

  0
LINE
  5
1B7
330
1B6
100
AcDbEntity
  8
CSLAYER1
  6
Continuous
 62
     7
100
AcDbLine
 10
184.51854
 20
201.0
 30
0.0
 11
184.51854
 21
189.0
 31
0.0
  0
ENDBLK
  5
1B8
330
1B6
100
AcDbEntity
  8
0
100
AcDbBlockEnd
  0
BLOCK
  5
1EE
330
1EF
100
AcDbEntity
  8
CSLAYER1
100
AcDbBlockBegin
  2
BLKF0000
 70
     0
 10
0.0
 20
0.0
 30
0.0
  3
BLKF0000
  1

  0
LINE
  5
1F0
330
1EF
100
AcDbEntity
  8
CSLAYER1
  6
Continuous
 62
     7
100
AcDbLine
 10
331.041802
 20
100.523738
 30
0.0
 11
331.170043
 21
100.46049
 31
0.0
  0
LINE
  5
1F1
330
1EF
100
AcDbEntity
  8
CSLAYER1
  6
Continuous
 62
     7
100
AcDbLine
 10
331.170043
 20
100.46049
 30
0.0
 11
331.298268
 21
100.397187
 31
0.0
  0
LINE
  5
1F2
330
1EF
100
AcDbEntity
  8
CSLAYER1
  6
Continuous
 62
     7
100
AcDbLine
 10
331.298268
 20
100.397187
 30
0.0
 11
331.426462
 21
100.333774
 31
0.0
  0
LINE
  5
1F3
330
1EF
100
AcDbEntity
  8
CSLAYER1
  6
Continuous
 62
     7
100
AcDbLine
 10
331.426462
 20
100.333774
 30
0.0
 11
331.554607
 21
100.270196
 31
0.0
  0
LINE
  5
1F4
330
1EF
100
AcDbEntity
  8
CSLAYER1
  6
Continuous
 62
     7
100
AcDbLine
 10
331.554607
 20
100.270196
 30
0.0
 11
331.682689
 21
100.206399
 31
0.0
  0
LINE
  5
1F5
330
1EF
100
AcDbEntity
  8
CSLAYER1
  6
Continuous
 62
     7
100
AcDbLine
 10
331.682689
 20
100.206399
 30
0.0
 11
331.810691
 21
100.142327
 31
0.0
  0
LINE
  5
1F6
330
1EF
100
AcDbEntity
  8
CSLAYER1
  6
Continuous
 62
     7
100
AcDbLine
 10
331.810691
 20
100.142327
 30
0.0
 11
331.938598
 21
100.077926
 31
0.0
  0
LINE
  5
1F7
330
1EF
100
AcDbEntity
  8
CSLAYER1
  6
Continuous
 62
     7
100
AcDbLine
 10
331.938598
 20
100.077926
 30
0.0
 11
332.066393
 21
100.01314
 31
0.0
  0
LINE
  5
1F8
330
1EF
100
AcDbEntity
  8
CSLAYER1
  6
Continuous
 62
     7
100
AcDbLine
 10
332.066393
 20
100.01314
 30
0.0
 11
332.194061
 21
99.947916
 31
0.0
  0
LINE
  5
1F9
330
1EF
100
AcDbEntity
  8
CSLAYER1
  6
Continuous
 62
     7
100
AcDbLine
 10
332.194061
 20
99.947916
 30
0.0
 11
332.321585
 21
99.882197
 31
0.0
  0
LINE
  5
1FA
330
1EF
100
AcDbEntity
  8
CSLAYER1
  6
Continuous
 62
     7
100
AcDbLine
 10
332.321585
 20
99.882197
 30
0.0
 11
332.44895
 21
99.815929
 31
0.0
  0
LINE
  5
1FB
330
1EF
100
AcDbEntity
  8
CSLAYER1
  6
Continuous
 62
     7
100
AcDbLine
 10
332.44895
 20
99.815929
 30
0.0
 11
332.57614
 21
99.749058
 31
0.0
  0
LINE
  5
1FC
330
1EF
100
AcDbEntity
  8
CSLAYER1
  6
Continuous
 62
     7
100
AcDbLine
 10
332.57614
 20
99.749058
 30
0.0
 11
332.703139
 21
99.681528
 31
0.0
  0
LINE
  5
1FD
330
1EF
100
AcDbEntity
  8
CSLAYER1
  6
Continuous
 62
     7
100
AcDbLine
 10
332.703139
 20
99.681528
 30
0.0
 11
332.829931
 21
99.613284
 31
0.0
  0
LINE
  5
1FE
330
1EF
100
AcDbEntity
  8
CSLAYER1
  6
Continuous
 62
     7
100
AcDbLine
 10
332.829931
 20
99.613284
 30
0.0
 11
332.9565
 21
99.544271
 31
0.0
  0
LINE
  5
1FF
330
1EF
100
AcDbEntity
  8
CSLAYER1
  6
Continuous
 62
     7
100
AcDbLine
 10
332.9565
 20
99.544271
 30
0.0
 11
333.08283
 21
99.474435
 31
0.0
  0
LINE
  5
200
330
1EF
100
AcDbEntity
  8
CSLAYER1
  6
Continuous
 62
     7
100
AcDbLine
 10
333.08283
 20
99.474435
 30
0.0
 11
333.208905
 21
99.403721
 31
0.0
  0
LINE
  5
201
330
1EF
100
AcDbEntity
  8
CSLAYER1
  6
Continuous
 62
     7
100
AcDbLine
 10
333.208905
 20
99.403721
 30
0.0
 11
333.33471
 21
99.332074
 31
0.0
  0
LINE
  5
202
330
1EF
100
AcDbEntity
  8
CSLAYER1
  6
Continuous
 62
     7
100
AcDbLine
 10
333.33471
 20
99.332074
 30
0.0
 11
333.460227
 21
99.259438
 31
0.0
  0
LINE
  5
203
330
1EF
100
AcDbEntity
  8
CSLAYER1
  6
Continuous
 62
     7
100
AcDbLine
 10
333.460227
 20
99.259438
 30
0.0
 11
333.585443
 21
99.18576
 31
0.0
  0
LINE
  5
204
330
1EF
100
AcDbEntity
  8
CSLAYER1
  6
Continuous
 62
     7
100
AcDbLine
 10
333.585443
 20
99.18576
 30
0.0
 11
333.71034
 21
99.110983
 31
0.0
  0
LINE
  5
205
330
1EF
100
AcDbEntity
  8
CSLAYER1
  6
Continuous
 62
     7
100
AcDbLine
 10
333.71034
 20
99.110983
 30
0.0
 11
333.853748
 21
99.023525
 31
0.0
  0
LINE
  5
206
330
1EF
100
AcDbEntity
  8
CSLAYER1
  6
Continuous
 62
     7
100
AcDbLine
 10
333.853748
 20
99.023525
 30
0.0
 11
333.996805
 21
98.934869
 31
0.0
  0
LINE
  5
207
330
1EF
100
AcDbEntity
  8
CSLAYER1
  6
Continuous
 62
     7
100
AcDbLine
 10
333.996805
 20
98.934869
 30
0.0
 11
334.139604
 21
98.845347
 31
0.0
  0
LINE
  5
208
330
1EF
100
AcDbEntity
  8
CSLAYER1
  6
Continuous
 62
     7
100
AcDbLine
 10
334.139604
 20
98.845347
 30
0.0
 11
334.282237
 21
98.755288
 31
0.0
  0
LINE
  5
209
330
1EF
100
AcDbEntity
  8
CSLAYER1
  6
Continuous
 62
     7
100
AcDbLine
 10
334.282237
 20
98.755288
 30
0.0
 11
334.424797
 21
98.665024
 31
0.0
  0
LINE
  5
20A
330
1EF
100
AcDbEntity
  8
CSLAYER1
  6
Continuous
 62
     7
100
AcDbLine
 10
334.424797
 20
98.665024
 30
0.0
 11
334.567376
 21
98.574886
 31
0.0
  0
LINE
  5
20B
330
1EF
100
AcDbEntity
  8
CSLAYER1
  6
Continuous
 62
     7
100
AcDbLine
 10
334.567376
 20
98.574886
 30
0.0
 11
334.710067
 21
98.485203
 31
0.0
  0
LINE
  5
20C
330
1EF
100
AcDbEntity
  8
CSLAYER1
  6
Continuous
 62
     7
100
AcDbLine
 10
334.710067
 20
98.485203
 30
0.0
 11
334.852963
 21
98.396308
 31
0.0
  0
LINE
  5
20D
330
1EF
100
AcDbEntity
  8
CSLAYER1
  6
Continuous
 62
     7
100
AcDbLine
 10
334.852963
 20
98.396308
 30
0.0
 11
334.996155
 21
98.30853
 31
0.0
  0
LINE
  5
20E
330
1EF
100
AcDbEntity
  8
CSLAYER1
  6
Continuous
 62
     7
100
AcDbLine
 10
334.996155
 20
98.30853
 30
0.0
 11
335.139737
 21
98.222201
 31
0.0
  0
LINE
  5
20F
330
1EF
100
AcDbEntity
  8
CSLAYER1
  6
Continuous
 62
     7
100
AcDbLine
 10
335.139737
 20
98.222201
 30
0.0
 11
335.283801
 21
98.137651
 31
0.0
  0
LINE
  5
210
330
1EF
100
AcDbEntity
  8
CSLAYER1
  6
Continuous
 62
     7
100
AcDbLine
 10
335.283801
 20
98.137651
 30
0.0
 11
335.42844
 21
98.055211
 31
0.0
  0
LINE
  5
211
330
1EF
100
AcDbEntity
  8
CSLAYER1
  6
Continuous
 62
     7
100
AcDbLine
 10
335.42844
 20
98.055211
 30
0.0
 11
335.573745
 21
97.975212
 31
0.0
  0
LINE
  5
212
330
1EF
100
AcDbEntity
  8
CSLAYER1
  6
Continuous
 62
     7
100
AcDbLine
 10
335.573745
 20
97.975212
 30
0.0
 11
335.71981
 21
97.897984
 31
0.0
  0
LINE
  5
213
330
1EF
100
AcDbEntity
  8
CSLAYER1
  6
Continuous
 62
     7
100
AcDbLine
 10
335.71981
 20
97.897984
 30
0.0
 11
335.866728
 21
97.823858
 31
0.0
  0
LINE
  5
214
330
1EF
100
AcDbEntity
  8
CSLAYER1
  6
Continuous
 62
     7
100
AcDbLine
 10
335.866728
 20
97.823858
 30
0.0
 11
336.01459
 21
97.753165
 31
0.0
  0
LINE
  5
215
330
1EF
100
AcDbEntity
  8
CSLAYER1
  6
Continuous
 62
     7
100
AcDbLine
 10
336.01459
 20
97.753165
 30
0.0
 11
336.163489
 21
97.686235
 31
0.0
  0
LINE
  5
216
330
1EF
100
AcDbEntity
  8
CSLAYER1
  6
Continuous
 62
     7
100
AcDbLine
 10
336.163489
 20
97.686235
 30
0.0
 11
336.313518
 21
97.6234
 31
0.0
  0
LINE
  5
217
330
1EF
100
AcDbEntity
  8
CSLAYER1
  6
Continuous
 62
     7
100
AcDbLine
 10
336.313518
 20
97.6234
 30
0.0
 11
336.464769
 21
97.56499
 31
0.0
  0
LINE
  5
218
330
1EF
100
AcDbEntity
  8
CSLAYER1
  6
Continuous
 62
     7
100
AcDbLine
 10
336.464769
 20
97.56499
 30
0.0
 11
336.617335
 21
97.511336
 31
0.0
  0
LINE
  5
219
330
1EF
100
AcDbEntity
  8
CSLAYER1
  6
Continuous
 62
     7
100
AcDbLine
 10
336.617335
 20
97.511336
 30
0.0
 11
336.771309
 21
97.462769
 31
0.0
  0
LINE
  5
21A
330
1EF
100
AcDbEntity
  8
CSLAYER1
  6
Continuous
 62
     7
100
AcDbLine
 10
336.771309
 20
97.462769
 30
0.0
 11
336.9294
 21
97.418834
 31
0.0
  0
LINE
  5
21B
330
1EF
100
AcDbEntity
  8
CSLAYER1
  6
Continuous
 62
     7
100
AcDbLine
 10
336.9294
 20
97.418834
 30
0.0
 11
337.088967
 21
97.380235
 31
0.0
  0
LINE
  5
21C
330
1EF
100
AcDbEntity
  8
CSLAYER1
  6
Continuous
 62
     7
100
AcDbLine
 10
337.088967
 20
97.380235
 30
0.0
 11
337.249939
 21
97.346705
 31
0.0
  0
LINE
  5
21D
330
1EF
100
AcDbEntity
  8
CSLAYER1
  6
Continuous
 62
     7
100
AcDbLine
 10
337.249939
 20
97.346705
 30
0.0
 11
337.412239
 21
97.317977
 31
0.0
  0
LINE
  5
21E
330
1EF
100
AcDbEntity
  8
CSLAYER1
  6
Continuous
 62
     7
100
AcDbLine
 10
337.412239
 20
97.317977
 30
0.0
 11
337.575796
 21
97.293784
 31
0.0
  0
LINE
  5
21F
330
1EF
100
AcDbEntity
  8
CSLAYER1
  6
Continuous
 62
     7
100
AcDbLine
 10
337.575796
 20
97.293784
 30
0.0
 11
337.740534
 21
97.273859
 31
0.0
  0
LINE
  5
220
330
1EF
100
AcDbEntity
  8
CSLAYER1
  6
Continuous
 62
     7
100
AcDbLine
 10
337.740534
 20
97.273859
 30
0.0
 11
337.90638
 21
97.257937
 31
0.0
  0
LINE
  5
221
330
1EF
100
AcDbEntity
  8
CSLAYER1
  6
Continuous
 62
     7
100
AcDbLine
 10
337.90638
 20
97.257937
 30
0.0
 11
338.07326
 21
97.245749
 31
0.0
  0
LINE
  5
222
330
1EF
100
AcDbEntity
  8
CSLAYER1
  6
Continuous
 62
     7
100
AcDbLine
 10
338.07326
 20
97.245749
 30
0.0
 11
338.241101
 21
97.237029
 31
0.0
  0
LINE
  5
223
330
1EF
100
AcDbEntity
  8
CSLAYER1
  6
Continuous
 62
     7
100
AcDbLine
 10
338.241101
 20
97.237029
 30
0.0
 11
338.409828
 21
97.23151
 31
0.0
  0
LINE
  5
224
330
1EF
100
AcDbEntity
  8
CSLAYER1
  6
Continuous
 62
     7
100
AcDbLine
 10
338.409828
 20
97.23151
 30
0.0
 11
338.579367
 21
97.228926
 31
0.0
  0
LINE
  5
225
330
1EF
100
AcDbEntity
  8
CSLAYER1
  6
Continuous
 62
     7
100
AcDbLine
 10
338.579367
 20
97.228926
 30
0.0
 11
338.749645
 21
97.22901
 31
0.0
  0
LINE
  5
226
330
1EF
100
AcDbEntity
  8
CSLAYER1
  6
Continuous
 62
     7
100
AcDbLine
 10
338.749645
 20
97.22901
 30
0.0
 11
338.920588
 21
97.231495
 31
0.0
  0
LINE
  5
227
330
1EF
100
AcDbEntity
  8
CSLAYER1
  6
Continuous
 62
     7
100
AcDbLine
 10
338.920588
 20
97.231495
 30
0.0
 11
339.092121
 21
97.236114
 31
0.0
  0
LINE
  5
228
330
1EF
100
AcDbEntity
  8
CSLAYER1
  6
Continuous
 62
     7
100
AcDbLine
 10
339.092121
 20
97.236114
 30
0.0
 11
339.264172
 21
97.2426
 31
0.0
  0
LINE
  5
229
330
1EF
100
AcDbEntity
  8
CSLAYER1
  6
Continuous
 62
     7
100
AcDbLine
 10
339.264172
 20
97.2426
 30
0.0
 11
339.436665
 21
97.250688
 31
0.0
  0
LINE
  5
22A
330
1EF
100
AcDbEntity
  8
CSLAYER1
  6
Continuous
 62
     7
100
AcDbLine
 10
339.436665
 20
97.250688
 30
0.0
 11
339.609529
 21
97.260109
 31
0.0
  0
LINE
  5
22B
330
1EF
100
AcDbEntity
  8
CSLAYER1
  6
Continuous
 62
     7
100
AcDbLine
 10
339.609529
 20
97.260109
 30
0.0
 11
339.782687
 21
97.270597
 31
0.0
  0
LINE
  5
22C
330
1EF
100
AcDbEntity
  8
CSLAYER1
  6
Continuous
 62
     7
100
AcDbLine
 10
339.782687
 20
97.270597
 30
0.0
 11
339.956067
 21
97.281885
 31
0.0
  0
LINE
  5
22D
330
1EF
100
AcDbEntity
  8
CSLAYER1
  6
Continuous
 62
     7
100
AcDbLine
 10
339.956067
 20
97.281885
 30
0.0
 11
340.129595
 21
97.293707
 31
0.0
  0
LINE
  5
22E
330
1EF
100
AcDbEntity
  8
CSLAYER1
  6
Continuous
 62
     7
100
AcDbLine
 10
340.129595
 20
97.293707
 30
0.0
 11
340.303197
 21
97.305796
 31
0.0
  0
ENDBLK
  5
22F
330
1EF
100
AcDbEntity
  8
0
100
AcDbBlockEnd
  0
BLOCK
  5
230
330
231
100
AcDbEntity
  8
CSLAYER1
100
AcDbBlockBegin
  2
BLKF0001
 70
     0
 10
0.0
 20
0.0
 30
0.0
  3
BLKF0001
  1

  0
LINE
  5
232
330
231
100
AcDbEntity
  8
CSLAYER1
  6
Continuous
 62
     7
100
AcDbLine
 10
98.459844
 20
150.454179
 30
0.0
 11
109.669102
 21
176.976728
 31
0.0
  0
LINE
  5
233
330
231
100
AcDbEntity
  8
CSLAYER1
  6
Continuous
 62
     7
100
AcDbLine
 10
98.459844
 20
150.454179
 30
0.0
 11
98.735094
 21
152.435148
 31
0.0
  0
LINE
  5
234
330
231
100
AcDbEntity
  8
CSLAYER1
  6
Continuous
 62
     7
100
AcDbLine
 10
98.459844
 20
150.454179
 30
0.0
 11
99.688702
 21
152.032124
 31
0.0
  0
LINE
  5
235
330
231
100
AcDbEntity
  8
CSLAYER1
  6
Continuous
 62
     7
100
AcDbLine
 10
109.669102
 20
176.976728
 30
0.0
 11
79.669102
 21
176.976728
 31
0.0
  0
TEXT
  5
236
330
231
100
AcDbEntity
  8
CSLAYER1
 62
     7
100
AcDbText
 10
80.004875
 20
177.97673
 30
0.0
 40
4.0
  1
3-3.5mmネジ用穴
 41
0.595739559514
  7
FX_FONT
 72
     5
 11
107.504875
 21
177.97673
 31
0.0
100
AcDbText
  0
ENDBLK
  5
237
330
231
100
AcDbEntity
  8
0
100
AcDbBlockEnd
  0
BLOCK
  5
238
330
239
100
AcDbEntity
  8
CSLAYER1
100
AcDbBlockBegin
  2
BLKF0002
 70
     0
 10
0.0
 20
0.0
 30
0.0
  3
BLKF0002
  1

  0
LINE
  5
23A
330
239
100
AcDbEntity
  8
CSLAYER1
  6
Continuous
 62
     7
100
AcDbLine
 10
72.848283
 20
258.216486
 30
0.0
 11
90.989097
 21
270.292146
 31
0.0
  0
LINE
  5
23B
330
239
100
AcDbEntity
  8
CSLAYER1
  6
Continuous
 62
     7
100
AcDbLine
 10
72.848283
 20
258.216486
 30
0.0
 11
74.169592
 21
259.717866
 31
0.0
  0
LINE
  5
23C
330
239
100
AcDbEntity
  8
CSLAYER1
  6
Continuous
 62
     7
100
AcDbLine
 10
72.848283
 20
258.216486
 30
0.0
 11
74.74326
 21
258.856065
 31
0.0
  0
LINE
  5
23D
330
239
100
AcDbEntity
  8
CSLAYER1
  6
Continuous
 62
     7
100
AcDbLine
 10
90.989097
 20
270.292146
 30
0.0
 11
62.313881
 21
270.292146
 31
0.0
  0
TEXT
  5
23E
330
239
100
AcDbEntity
  8
CSLAYER1
 62
     7
100
AcDbText
 10
63.325119
 20
271.257202
 30
0.0
 40
4.0
  1
3-3.5mmネジ用穴
 41
0.595739559514
  7
FX_FONT
 72
     5
 11
90.825119
 21
271.257202
 31
0.0
100
AcDbText
  0
ENDBLK
  5
23F
330
239
100
AcDbEntity
  8
0
100
AcDbBlockEnd
  0
BLOCK
  5
5A9
330
4A9
100
AcDbEntity
  8
0
100
AcDbBlockBegin
  2
ACE01E8
 70
     0
 10
0.0
 20
0.0
 30
0.0
  3
ACE01E8
  1

  0
ARC
  5
4D0
330
4A9
100
AcDbEntity
  8
CSLAYER1
  6
Continuous
 62
     3
100
AcDbCircle
 10
56.407438
 20
39.5
 30
0.0
 40
4.0
100
AcDbArc
 50
235.411434
 51
64.588566
  0
ARC
  5
4D1
330
4A9
100
AcDbEntity
  8
CSLAYER1
  6
Continuous
 62
     3
100
AcDbCircle
 10
56.407438
 20
39.5
 30
0.0
 40
2.6
100
AcDbArc
 50
237.019275
 51
62.980725
  0
CIRCLE
  5
4D2
330
4A9
100
AcDbEntity
  8
CSLAYER1
  6
Continuous
 62
     3
100
AcDbCircle
 10
34.756803
 20
52.0
 30
0.0
 40
32.5
  0
CIRCLE
  5
4D3
330
4A9
100
AcDbEntity
  8
CSLAYER1
  6
Continuous
 62
     3
100
AcDbCircle
 10
34.756803
 20
52.0
 30
0.0
 40
30.0
  0
CIRCLE
  5
4D4
330
4A9
100
AcDbEntity
  8
CSLAYER1
  6
Continuous
 62
     3
100
AcDbCircle
 10
34.756803
 20
52.0
 30
0.0
 40
25.0
  0
CIRCLE
  5
4D5
330
4A9
100
AcDbEntity
  8
CSLAYER1
  6
Continuous
 62
     3
100
AcDbCircle
 10
34.756803
 20
52.0
 30
0.0
 40
20.0
  0
CIRCLE
  5
4D6
330
4A9
100
AcDbEntity
  8
CSLAYER1
  6
Continuous
 62
     3
100
AcDbCircle
 10
34.756803
 20
52.0
 30
0.0
 40
22.5
  0
LINE
  5
4D7
330
4A9
100
AcDbEntity
  8
CSLAYER1
  6
Continuous
 62
     3
100
AcDbLine
 10
30.756803
 20
60.062258
 30
0.0
 11
27.756803
 21
66.387495
 31
0.0
  0
ARC
  5
4D8
330
4A9
100
AcDbEntity
  8
CSLAYER1
  6
Continuous
 62
     3
100
AcDbCircle
 10
34.756803
 20
52.0
 30
0.0
 40
16.0
100
AcDbArc
 50
64.05552
 51
115.94448
  0
LINE
  5
4D9
330
4A9
100
AcDbEntity
  8
CSLAYER1
  6
Continuous
 62
     3
100
AcDbLine
 10
41.756803
 20
66.387495
 30
0.0
 11
38.756803
 21
60.062258
 31
0.0
  0
ARC
  5
4DA
330
4A9
100
AcDbEntity
  8
CSLAYER1
  6
Continuous
 62
     3
100
AcDbCircle
 10
34.756803
 20
52.0
 30
0.0
 40
9.0
100
AcDbArc
 50
63.6122
 51
116.3878
  0
ARC
  5
4DB
330
4A9
100
AcDbEntity
  8
CSLAYER1
  6
Continuous
 62
     3
100
AcDbCircle
 10
34.756803
 20
77.0
 30
0.0
 40
4.0
100
AcDbArc
 50
355.411434
 51
184.588566
  0
ARC
  5
4DC
330
4A9
100
AcDbEntity
  8
CSLAYER1
  6
Continuous
 62
     3
100
AcDbCircle
 10
34.756803
 20
77.0
 30
0.0
 40
2.6
100
AcDbArc
 50
357.019275
 51
182.980725
  0
ARC
  5
4DD
330
4A9
100
AcDbEntity
  8
CSLAYER1
  6
Continuous
 62
     3
100
AcDbCircle
 10
13.106168
 20
39.5
 30
0.0
 40
4.0
100
AcDbArc
 50
115.411434
 51
304.588566
  0
ARC
  5
4DE
330
4A9
100
AcDbEntity
  8
CSLAYER1
  6
Continuous
 62
     3
100
AcDbCircle
 10
13.106168
 20
39.5
 30
0.0
 40
2.6
100
AcDbArc
 50
117.019275
 51
302.980725
  0
LINE
  5
4DF
330
4A9
100
AcDbEntity
  8
CSLAYER1
  6
Continuous
 62
     3
100
AcDbLine
 10
216.275343
 20
42.0
 30
0.0
 11
216.275343
 21
62.0
 31
0.0
  0
ARC
  5
4E0
330
4A9
100
AcDbEntity
  8
CSLAYER1
  6
Continuous
 62
     3
100
AcDbCircle
 10
208.275343
 20
62.0
 30
0.0
 40
8.0
100
AcDbArc
 50
0.0
 51
90.0
  0
LINE
  5
4E1
330
4A9
100
AcDbEntity
  8
CSLAYER1
  6
Continuous
 62
     3
100
AcDbLine
 10
208.275343
 20
70.0
 30
0.0
 11
198.275343
 21
70.0
 31
0.0
  0
ARC
  5
4E2
330
4A9
100
AcDbEntity
  8
CSLAYER1
  6
Continuous
 62
     3
100
AcDbCircle
 10
198.275343
 20
68.0
 30
0.0
 40
2.0
100
AcDbArc
 50
90.0
 51
180.0
  0
LINE
  5
4E3
330
4A9
100
AcDbEntity
  8
CSLAYER1
  6
Continuous
 62
     3
100
AcDbLine
 10
196.275343
 20
68.0
 30
0.0
 11
196.275343
 21
66.0
 31
0.0
  0
ARC
  5
4E4
330
4A9
100
AcDbEntity
  8
CSLAYER1
  6
Continuous
 62
     3
100
AcDbCircle
 10
197.275343
 20
66.0
 30
0.0
 40
1.0
100
AcDbArc
 50
180.0
 51
270.0
  0
LINE
  5
4E5
330
4A9
100
AcDbEntity
  8
CSLAYER1
  6
Continuous
 62
     3
100
AcDbLine
 10
197.275343
 20
65.0
 30
0.0
 11
199.775343
 21
65.0
 31
0.0
  0
ARC
  5
4E6
330
4A9
100
AcDbEntity
  8
CSLAYER1
  6
Continuous
 62
     3
100
AcDbCircle
 10
199.775343
 20
63.5
 30
0.0
 40
1.5
100
AcDbArc
 50
0.0
 51
90.0
  0
LINE
  5
4E7
330
4A9
100
AcDbEntity
  8
CSLAYER1
  6
Continuous
 62
     3
100
AcDbLine
 10
201.275343
 20
63.5
 30
0.0
 11
201.275343
 21
58.0
 31
0.0
  0
ARC
  5
4E8
330
4A9
100
AcDbEntity
  8
CSLAYER1
  6
Continuous
 62
     3
100
AcDbCircle
 10
200.775343
 20
58.0
 30
0.0
 40
0.5
100
AcDbArc
 50
270.0
 51
0.0
  0
LINE
  5
4E9
330
4A9
100
AcDbEntity
  8
CSLAYER1
  6
Continuous
 62
     3
100
AcDbLine
 10
200.775343
 20
57.5
 30
0.0
 11
200.275343
 21
57.5
 31
0.0
  0
LINE
  5
4EA
330
4A9
100
AcDbEntity
  8
CSLAYER1
  6
Continuous
 62
     3
100
AcDbLine
 10
199.275343
 20
57.5
 30
0.0
 11
198.775343
 21
57.5
 31
0.0
  0
LINE
  5
4EB
330
4A9
100
AcDbEntity
  8
CSLAYER1
  6
Continuous
 62
     3
100
AcDbLine
 10
198.775343
 20
60.453723
 30
0.0
 11
198.775343
 21
43.453723
 31
0.0
  0
ARC
  5
4EC
330
4A9
100
AcDbEntity
  8
CSLAYER1
  6
Continuous
 62
     3
100
AcDbCircle
 10
197.275343
 20
43.453723
 30
0.0
 40
1.5
100
AcDbArc
 50
270.0
 51
0.0
  0
LINE
  5
4ED
330
4A9
100
AcDbEntity
  8
CSLAYER1
  6
Continuous
 62
     3
100
AcDbLine
 10
197.275343
 20
41.953723
 30
0.0
 11
190.475343
 21
41.953723
 31
0.0
  0
LINE
  5
4EE
330
4A9
100
AcDbEntity
  8
CSLAYER1
  6
Continuous
 62
     3
100
AcDbLine
 10
190.475343
 20
41.6
 30
0.0
 11
189.475343
 21
41.6
 31
0.0
  0
LINE
  5
4EF
330
4A9
100
AcDbEntity
  8
CSLAYER1
  6
Continuous
 62
     3
100
AcDbLine
 10
189.475343
 20
41.6
 30
0.0
 11
189.475343
 21
40.0
 31
0.0
  0
LINE
  5
4F0
330
4A9
100
AcDbEntity
  8
CSLAYER1
  6
Continuous
 62
     3
100
AcDbLine
 10
189.475343
 20
40.0
 30
0.0
 11
185.275343
 21
40.0
 31
0.0
  0
LINE
  5
4F1
330
4A9
100
AcDbEntity
  8
CSLAYER1
  6
Continuous
 62
     3
100
AcDbLine
 10
185.275343
 20
41.2
 30
0.0
 11
184.275343
 21
41.2
 31
0.0
  0
LINE
  5
4F2
330
4A9
100
AcDbEntity
  8
CSLAYER1
  6
Continuous
 62
     3
100
AcDbLine
 10
184.275343
 20
41.2
 30
0.0
 11
184.275343
 21
29.0
 31
0.0
  0
LINE
  5
4F3
330
4A9
100
AcDbEntity
  8
CSLAYER1
  6
Continuous
 62
     3
100
AcDbLine
 10
184.275343
 20
29.0
 30
0.0
 11
185.275343
 21
29.0
 31
0.0
  0
LINE
  5
4F4
330
4A9
100
AcDbEntity
  8
CSLAYER1
  6
Continuous
 62
     3
100
AcDbLine
 10
185.275343
 20
29.0
 30
0.0
 11
185.275343
 21
42.6
 31
0.0
  0
LINE
  5
4F5
330
4A9
100
AcDbEntity
  8
CSLAYER1
  6
Continuous
 62
     3
100
AcDbLine
 10
185.275343
 20
42.6
 30
0.0
 11
184.275343
 21
42.6
 31
0.0
  0
LINE
  5
4F6
330
4A9
100
AcDbEntity
  8
CSLAYER1
  6
Continuous
 62
     3
100
AcDbLine
 10
184.275343
 20
42.6
 30
0.0
 11
184.275343
 21
61.4
 31
0.0
  0
LINE
  5
4F7
330
4A9
100
AcDbEntity
  8
CSLAYER1
  6
Continuous
 62
     3
100
AcDbLine
 10
184.275343
 20
61.4
 30
0.0
 11
185.275343
 21
61.4
 31
0.0
  0
LINE
  5
4F8
330
4A9
100
AcDbEntity
  8
CSLAYER1
  6
Continuous
 62
     3
100
AcDbLine
 10
185.275343
 20
61.4
 30
0.0
 11
185.275343
 21
75.0
 31
0.0
  0
LINE
  5
4F9
330
4A9
100
AcDbEntity
  8
CSLAYER1
  6
Continuous
 62
     3
100
AcDbLine
 10
185.275343
 20
75.0
 30
0.0
 11
184.275343
 21
75.0
 31
0.0
  0
LINE
  5
4FA
330
4A9
100
AcDbEntity
  8
CSLAYER1
  6
Continuous
 62
     3
100
AcDbLine
 10
184.275343
 20
75.0
 30
0.0
 11
184.275343
 21
62.8
 31
0.0
  0
LINE
  5
4FB
330
4A9
100
AcDbEntity
  8
CSLAYER1
  6
Continuous
 62
     3
100
AcDbLine
 10
184.275343
 20
62.8
 30
0.0
 11
185.275343
 21
62.8
 31
0.0
  0
ARC
  5
4FC
330
4A9
100
AcDbEntity
  8
CSLAYER1
  6
Continuous
 62
     3
100
AcDbCircle
 10
185.275343
 20
63.5
 30
0.0
 40
1.0
100
AcDbArc
 50
224.427004
 51
270.0
  0
ARC
  5
4FD
330
4A9
100
AcDbEntity
  8
CSLAYER1
  6
Continuous
 62
     3
100
AcDbCircle
 10
185.275343
 20
61.4
 30
0.0
 40
1.0
100
AcDbArc
 50
90.0
 51
180.0
  0
LINE
  5
4FE
330
4A9
100
AcDbEntity
  8
CSLAYER1
  6
Continuous
 62
     3
100
AcDbLine
 10
185.275343
 20
64.0
 30
0.0
 11
189.475343
 21
64.0
 31
0.0
  0
LINE
  5
4FF
330
4A9
100
AcDbEntity
  8
CSLAYER1
  6
Continuous
 62
     3
100
AcDbLine
 10
189.475343
 20
64.0
 30
0.0
 11
189.475343
 21
62.4
 31
0.0
  0
LINE
  5
500
330
4A9
100
AcDbEntity
  8
CSLAYER1
  6
Continuous
 62
     3
100
AcDbLine
 10
189.475343
 20
62.4
 30
0.0
 11
190.475343
 21
62.4
 31
0.0
  0
LINE
  5
501
330
4A9
100
AcDbEntity
  8
CSLAYER1
  6
Continuous
 62
     3
100
AcDbLine
 10
190.475343
 20
62.4
 30
0.0
 11
190.475343
 21
41.6
 31
0.0
  0
LINE
  5
502
330
4A9
100
AcDbEntity
  8
CSLAYER1
  6
Continuous
 62
     3
100
AcDbLine
 10
189.775343
 20
41.5
 30
0.0
 11
189.775343
 21
40.5
 31
0.0
  0
LINE
  5
503
330
4A9
100
AcDbEntity
  8
CSLAYER1
  6
Continuous
 62
     3
100
AcDbLine
 10
189.475343
 20
40.5
 30
0.0
 11
199.275343
 21
40.5
 31
0.0
  0
ARC
  5
504
330
4A9
100
AcDbEntity
  8
CSLAYER1
  6
Continuous
 62
     3
100
AcDbCircle
 10
199.275343
 20
41.5
 30
0.0
 40
1.0
100
AcDbArc
 50
270.0
 51
0.0
  0
LINE
  5
505
330
4A9
100
AcDbEntity
  8
CSLAYER1
  6
Continuous
 62
     3
100
AcDbLine
 10
200.275343
 20
41.5
 30
0.0
 11
200.275343
 21
62.5
 31
0.0
  0
ARC
  5
506
330
4A9
100
AcDbEntity
  8
CSLAYER1
  6
Continuous
 62
     3
100
AcDbCircle
 10
199.275343
 20
62.5
 30
0.0
 40
1.0
100
AcDbArc
 50
0.0
 51
90.0
  0
LINE
  5
507
330
4A9
100
AcDbEntity
  8
CSLAYER1
  6
Continuous
 62
     3
100
AcDbLine
 10
199.275343
 20
63.5
 30
0.0
 11
189.475343
 21
63.5
 31
0.0
  0
LINE
  5
508
330
4A9
100
AcDbEntity
  8
CSLAYER1
  6
Continuous
 62
     3
100
AcDbLine
 10
189.775343
 20
63.5
 30
0.0
 11
189.775343
 21
62.5
 31
0.0
  0
LINE
  5
509
330
4A9
100
AcDbEntity
  8
CSLAYER1
  6
Continuous
 62
     3
100
AcDbLine
 10
189.475343
 20
62.5
 30
0.0
 11
199.275343
 21
62.5
 31
0.0
  0
LINE
  5
50A
330
4A9
100
AcDbEntity
  8
CSLAYER1
  6
Continuous
 62
     3
100
AcDbLine
 10
199.275343
 20
62.5
 30
0.0
 11
199.275343
 21
41.5
 31
0.0
  0
LINE
  5
50B
330
4A9
100
AcDbEntity
  8
CSLAYER1
  6
Continuous
 62
     3
100
AcDbLine
 10
199.275343
 20
41.5
 30
0.0
 11
189.475343
 21
41.5
 31
0.0
  0
LINE
  5
50C
330
4A9
100
AcDbEntity
  8
CSLAYER1
  6
Continuous
 62
     3
100
AcDbLine
 10
190.475343
 20
43.546277
 30
0.0
 11
197.275343
 21
43.546277
 31
0.0
  0
LINE
  5
50D
330
4A9
100
AcDbEntity
  8
CSLAYER1
  6
Continuous
 62
     3
100
AcDbLine
 10
198.775343
 20
46.5
 30
0.0
 11
199.275343
 21
46.5
 31
0.0
  0
LINE
  5
50E
330
4A9
100
AcDbEntity
  8
CSLAYER1
  6
Continuous
 62
     3
100
AcDbLine
 10
200.275343
 20
46.5
 30
0.0
 11
200.775343
 21
46.5
 31
0.0
  0
ARC
  5
50F
330
4A9
100
AcDbEntity
  8
CSLAYER1
  6
Continuous
 62
     3
100
AcDbCircle
 10
200.775343
 20
46.0
 30
0.0
 40
0.5
100
AcDbArc
 50
0.0
 51
90.0
  0
LINE
  5
510
330
4A9
100
AcDbEntity
  8
CSLAYER1
  6
Continuous
 62
     3
100
AcDbLine
 10
201.275343
 20
46.0
 30
0.0
 11
201.275343
 21
40.5
 31
0.0
  0
ARC
  5
511
330
4A9
100
AcDbEntity
  8
CSLAYER1
  6
Continuous
 62
     3
100
AcDbCircle
 10
199.775343
 20
40.5
 30
0.0
 40
1.5
100
AcDbArc
 50
270.0
 51
0.0
  0
LINE
  5
512
330
4A9
100
AcDbEntity
  8
CSLAYER1
  6
Continuous
 62
     3
100
AcDbLine
 10
199.775343
 20
39.0
 30
0.0
 11
197.275343
 21
39.0
 31
0.0
  0
ARC
  5
513
330
4A9
100
AcDbEntity
  8
CSLAYER1
  6
Continuous
 62
     3
100
AcDbCircle
 10
197.275343
 20
38.0
 30
0.0
 40
1.0
100
AcDbArc
 50
90.0
 51
180.0
  0
LINE
  5
514
330
4A9
100
AcDbEntity
  8
CSLAYER1
  6
Continuous
 62
     3
100
AcDbLine
 10
196.275343
 20
38.0
 30
0.0
 11
196.275343
 21
36.0
 31
0.0
  0
ARC
  5
515
330
4A9
100
AcDbEntity
  8
CSLAYER1
  6
Continuous
 62
     3
100
AcDbCircle
 10
198.275343
 20
36.0
 30
0.0
 40
2.0
100
AcDbArc
 50
180.0
 51
270.0
  0
LINE
  5
516
330
4A9
100
AcDbEntity
  8
CSLAYER1
  6
Continuous
 62
     3
100
AcDbLine
 10
198.275343
 20
34.0
 30
0.0
 11
208.275343
 21
34.0
 31
0.0
  0
ARC
  5
517
330
4A9
100
AcDbEntity
  8
CSLAYER1
  6
Continuous
 62
     3
100
AcDbCircle
 10
208.275343
 20
42.0
 30
0.0
 40
8.0
100
AcDbArc
 50
270.0
 51
0.0
  0
ARC
  5
518
330
4A9
100
AcDbEntity
  8
CSLAYER1
  6
Continuous
 62
     3
100
AcDbCircle
 10
197.275343
 20
60.453723
 30
0.0
 40
1.5
100
AcDbArc
 50
0.0
 51
90.0
  0
LINE
  5
519
330
4A9
100
AcDbEntity
  8
CSLAYER1
  6
Continuous
 62
     3
100
AcDbLine
 10
197.275343
 20
61.953723
 30
0.0
 11
190.475343
 21
61.953723
 31
0.0
  0
LINE
  5
51A
330
4A9
100
AcDbEntity
  8
CSLAYER1
  6
Continuous
 62
     3
100
AcDbLine
 10
190.475343
 20
60.453723
 30
0.0
 11
197.275343
 21
60.453723
 31
0.0
  0
LINE
  5
51B
330
4A9
100
AcDbEntity
  8
CSLAYER1
  6
Continuous
 62
     3
100
AcDbLine
 10
184.275343
 20
54.95
 30
0.0
 11
164.275343
 21
54.95
 31
0.0
  0
LINE
  5
51C
330
4A9
100
AcDbEntity
  8
CSLAYER1
  6
Continuous
 62
     3
100
AcDbLine
 10
164.275343
 20
49.05
 30
0.0
 11
184.275343
 21
49.05
 31
0.0
  0
ARC
  5
51D
330
4A9
100
AcDbEntity
  8
CSLAYER1
  6
Continuous
 62
     3
100
AcDbCircle
 10
185.275343
 20
42.6
 30
0.0
 40
1.0
100
AcDbArc
 50
180.0
 51
270.0
  0
ARC
  5
51E
330
4A9
100
AcDbEntity
  8
CSLAYER1
  6
Continuous
 62
     3
100
AcDbCircle
 10
185.275343
 20
40.5
 30
0.0
 40
1.0
100
AcDbArc
 50
90.0
 51
135.572996
  0
LINE
  5
51F
330
4A9
100
AcDbEntity
  8
CSLAYER1
  6
Continuous
 62
     3
100
AcDbLine
 10
164.275343
 20
19.5
 30
0.0
 11
156.775343
 21
19.5
 31
0.0
  0
ARC
  5
520
330
4A9
100
AcDbEntity
  8
CSLAYER1
  6
Continuous
 62
     3
100
AcDbCircle
 10
156.775343
 20
20.0
 30
0.0
 40
0.5
100
AcDbArc
 50
180.0
 51
270.0
  0
LINE
  5
521
330
4A9
100
AcDbEntity
  8
CSLAYER1
  6
Continuous
 62
     3
100
AcDbLine
 10
156.275343
 20
20.0
 30
0.0
 11
156.275343
 21
84.0
 31
0.0
  0
ARC
  5
522
330
4A9
100
AcDbEntity
  8
CSLAYER1
  6
Continuous
 62
     3
100
AcDbCircle
 10
156.775343
 20
84.0
 30
0.0
 40
0.5
100
AcDbArc
 50
90.0
 51
180.0
  0
LINE
  5
523
330
4A9
100
AcDbEntity
  8
CSLAYER1
  6
Continuous
 62
     3
100
AcDbLine
 10
156.775343
 20
84.5
 30
0.0
 11
164.275343
 21
84.5
 31
0.0
  0
LINE
  5
524
330
4A9
100
AcDbEntity
  8
CSLAYER1
  6
Continuous
 62
     3
100
AcDbLine
 10
164.275343
 20
84.5
 30
0.0
 11
164.275343
 21
19.5
 31
0.0
  0
ARC
  5
525
330
4A9
100
AcDbEntity
  8
CSLAYER1
  6
Continuous
 62
     3
100
AcDbCircle
 10
156.675343
 20
19.9
 30
0.0
 40
0.4
100
AcDbArc
 50
180.0
 51
270.0
  0
ARC
  5
526
330
4A9
100
AcDbEntity
  8
CSLAYER1
  6
Continuous
 62
     3
100
AcDbCircle
 10
156.275343
 20
22.4
 30
0.0
 40
0.4
100
AcDbArc
 50
187.751778999999
 51
270.0
  0
LINE
  5
527
330
4A9
100
AcDbEntity
  8
CSLAYER1
  6
Continuous
 62
     3
100
AcDbLine
 10
155.878998
 20
22.346047
 30
0.0
 11
154.150458
 21
35.044172
 31
0.0
  0
ARC
  5
528
330
4A9
100
AcDbEntity
  8
CSLAYER1
  6
Continuous
 62
     3
100
AcDbCircle
 10
147.214426
 20
34.1
 30
0.0
 40
7.0
100
AcDbArc
 50
7.751779
 51
90.0
  0
LINE
  5
529
330
4A9
100
AcDbEntity
  8
CSLAYER1
  6
Continuous
 62
     3
100
AcDbLine
 10
147.214426
 20
41.1
 30
0.0
 11
139.275343
 21
41.1
 31
0.0
  0
LINE
  5
52A
330
4A9
100
AcDbEntity
  8
CSLAYER1
  6
Continuous
 62
     3
100
AcDbLine
 10
139.275343
 20
62.9
 30
0.0
 11
147.214426
 21
62.9
 31
0.0
  0
ARC
  5
52B
330
4A9
100
AcDbEntity
  8
CSLAYER1
  6
Continuous
 62
     3
100
AcDbCircle
 10
147.214426
 20
69.9
 30
0.0
 40
7.0
100
AcDbArc
 50
270.0
 51
352.248221
  0
LINE
  5
52C
330
4A9
100
AcDbEntity
  8
CSLAYER1
  6
Continuous
 62
     3
100
AcDbLine
 10
154.150458
 20
68.955828
 30
0.0
 11
155.878998
 21
81.653953
 31
0.0
  0
ARC
  5
52D
330
4A9
100
AcDbEntity
  8
CSLAYER1
  6
Continuous
 62
     3
100
AcDbCircle
 10
156.275343
 20
81.6
 30
0.0
 40
0.4
100
AcDbArc
 50
90.0
 51
172.248221000001
  0
ARC
  5
52E
330
4A9
100
AcDbEntity
  8
CSLAYER1
  6
Continuous
 62
     3
100
AcDbCircle
 10
156.675343
 20
84.1
 30
0.0
 40
0.4
100
AcDbArc
 50
90.0
 51
180.0
  0
LINE
  5
52F
330
4A9
100
AcDbEntity
  8
CSLAYER10
  6
Continuous
 62
     3
100
AcDbLine
 10
139.275343
 20
72.638495
 30
0.0
 11
139.275343
 21
31.361505
 31
0.0
  0
ARC
  5
530
330
4A9
100
AcDbEntity
  8
CSLAYER1
  6
Continuous
 62
     3
100
AcDbCircle
 10
138.775343
 20
31.361505
 30
0.0
 40
0.5
100
AcDbArc
 50
288.135284999998
 51
0.0
  0
ARC
  5
531
330
4A9
100
AcDbEntity
  8
CSLAYER1
  6
Continuous
 62
     3
100
AcDbCircle
 10
114.030035
 20
106.912281
 30
0.0
 40
80.0
100
AcDbArc
 50
272.68336
 51
288.135285
  0
LINE
  5
532
330
4A9
100
AcDbEntity
  8
CSLAYER1
  6
Continuous
 62
     3
100
AcDbLine
 10
117.775343
 20
27.0
 30
0.0
 11
100.075343
 21
27.0
 31
0.0
  0
ARC
  5
533
330
4A9
100
AcDbEntity
  8
CSLAYER1
  6
Continuous
 62
     3
100
AcDbCircle
 10
100.075343
 20
27.8
 30
0.0
 40
0.8
100
AcDbArc
 50
180.0
 51
270.0
  0
LINE
  5
534
330
4A9
100
AcDbEntity
  8
CSLAYER1
  6
Continuous
 62
     3
100
AcDbLine
 10
99.275343
 20
27.8
 30
0.0
 11
99.275343
 21
76.2
 31
0.0
  0
ARC
  5
535
330
4A9
100
AcDbEntity
  8
CSLAYER1
  6
Continuous
 62
     3
100
AcDbCircle
 10
100.075343
 20
76.2
 30
0.0
 40
0.8
100
AcDbArc
 50
90.0
 51
180.0
  0
LINE
  5
536
330
4A9
100
AcDbEntity
  8
CSLAYER1
  6
Continuous
 62
     3
100
AcDbLine
 10
100.075343
 20
77.0
 30
0.0
 11
117.775343
 21
77.0
 31
0.0
  0
ARC
  5
537
330
4A9
100
AcDbEntity
  8
CSLAYER1
  6
Continuous
 62
     3
100
AcDbCircle
 10
114.030035
 20
-2.912281
 30
0.0
 40
80.0
100
AcDbArc
 50
71.864715
 51
87.31664
  0
ARC
  5
538
330
4A9
100
AcDbEntity
  8
CSLAYER1
  6
Continuous
 62
     3
100
AcDbCircle
 10
138.775343
 20
72.638495
 30
0.0
 40
0.5
100
AcDbArc
 50
0.0
 51
71.864715000002
  0
LINE
  5
539
330
4A9
100
AcDbEntity
  8
CSLAYER1
  6
Continuous
 62
     3
100
AcDbLine
 10
99.275343
 20
74.034841
 30
0.0
 11
97.402888
 21
72.292862
 31
0.0
  0
ARC
  5
53A
330
4A9
100
AcDbEntity
  8
CSLAYER1
  6
Continuous
 62
     3
100
AcDbCircle
 10
97.675343
 20
72.0
 30
0.0
 40
0.4
100
AcDbArc
 50
132.932595999998
 51
180.0
  0
LINE
  5
53B
330
4A9
100
AcDbEntity
  8
CSLAYER1
  6
Continuous
 62
     3
100
AcDbLine
 10
97.275343
 20
72.0
 30
0.0
 11
97.275343
 21
32.0
 31
0.0
  0
ARC
  5
53C
330
4A9
100
AcDbEntity
  8
CSLAYER1
  6
Continuous
 62
     3
100
AcDbCircle
 10
97.675343
 20
32.0
 30
0.0
 40
0.4
100
AcDbArc
 50
180.0
 51
227.067404000002
  0
LINE
  5
53D
330
4A9
100
AcDbEntity
  8
CSLAYER1
  6
Continuous
 62
     3
100
AcDbLine
 10
97.402888
 20
31.707138
 30
0.0
 11
99.275343
 21
29.965159
 31
0.0
  0
LINE
  5
53E
330
4A9
100
AcDbEntity
  8
CSLAYER1
  6
Continuous
 62
     7
100
AcDbLine
 10
34.756803
 20
16.040006
 30
0.0
 11
34.756803
 21
88.569484
 31
0.0
  0
LINE
  5
53F
330
4A9
100
AcDbEntity
  8
CSLAYER1
  6
Continuous
 62
     7
100
AcDbLine
 10
29.556803
 20
77.0
 30
0.0
 11
39.956803
 21
77.0
 31
0.0
  0
LINE
  5
540
330
4A9
100
AcDbEntity
  8
CSLAYER1
  6
Continuous
 62
     7
100
AcDbLine
 10
56.407438
 20
44.7
 30
0.0
 11
56.407438
 21
34.3
 31
0.0
  0
LINE
  5
541
330
4A9
100
AcDbEntity
  8
CSLAYER1
  6
Continuous
 62
     7
100
AcDbLine
 10
51.207438
 20
39.5
 30
0.0
 11
61.607438
 21
39.5
 31
0.0
  0
LINE
  5
542
330
4A9
100
AcDbEntity
  8
CSLAYER1
  6
Continuous
 62
     7
100
AcDbLine
 10
70.113414
 20
52.0
 30
0.0
 11
0.0
 21
52.0
 31
0.0
  0
LINE
  5
543
330
4A9
100
AcDbEntity
  8
CSLAYER1
  6
Continuous
 62
     7
100
AcDbLine
 10
7.906168
 20
39.5
 30
0.0
 11
18.306168
 21
39.5
 31
0.0
  0
LINE
  5
544
330
4A9
100
AcDbEntity
  8
CSLAYER1
  6
Continuous
 62
     7
100
AcDbLine
 10
13.106168
 20
34.3
 30
0.0
 11
13.106168
 21
44.7
 31
0.0
  0
LINE
  5
545
330
4A9
100
AcDbEntity
  8
CSLAYER1
  6
Continuous
 62
     7
100
AcDbLine
 10
92.238946
 20
52.0
 30
0.0
 11
220.863089
 21
52.0
 31
0.0
  0
LINE
  5
546
330
4A9
100
AcDbEntity
  8
CSLAYER1
  6
Continuous
 62
     7
100
AcDbLine
 10
190.339625
 20
69.0
 30
0.0
 11
178.506292
 21
69.0
 31
0.0
  0
LINE
  5
547
330
4A9
100
AcDbEntity
  8
CSLAYER1
  6
Continuous
 62
     7
100
AcDbLine
 10
164.275343
 20
54.95
 30
0.0
 11
184.275343
 21
49.05
 31
0.0
  0
LINE
  5
548
330
4A9
100
AcDbEntity
  8
CSLAYER1
  6
Continuous
 62
     7
100
AcDbLine
 10
184.275343
 20
54.95
 30
0.0
 11
164.275343
 21
49.05
 31
0.0
  0
LINE
  5
549
330
4A9
100
AcDbEntity
  8
CSLAYER1
  6
Continuous
 62
     7
100
AcDbLine
 10
178.506292
 20
35.0
 30
0.0
 11
190.339625
 21
35.0
 31
0.0
  0
LINE
  5
54A
330
4A9
100
AcDbEntity
  8
CSLAYER1
  6
DOT
 62
     3
100
AcDbLine
 10
164.275343
 20
54.95
 30
0.0
 11
164.275343
 21
49.05
 31
0.0
  0
TEXT
  5
54B
330
4A9
100
AcDbEntity
  8
CSLAYER1
 62
     7
100
AcDbText
 10
226.275358
 20
49.5
 30
0.0
 40
4.0
  1
36
 50
90.0
 41
0.681818181818
  7
FX_FONT
 72
     5
 11
226.275358
 21
54.5
 31
0.0
100
AcDbText
  0
LINE
  5
54C
330
4A9
100
AcDbEntity
  8
CSLAYER1
  6
Continuous
 62
     7
100
AcDbLine
 10
209.275343
 20
34.0
 30
0.0
 11
228.275343
 21
34.0
 31
0.0
  0
LINE
  5
54D
330
4A9
100
AcDbEntity
  8
CSLAYER1
  6
Continuous
 62
     7
100
AcDbLine
 10
209.275343
 20
70.0
 30
0.0
 11
228.275343
 21
70.0
 31
0.0
  0
LINE
  5
54E
330
4A9
100
AcDbEntity
  8
CSLAYER1
  6
Continuous
 62
     7
100
AcDbLine
 10
227.275343
 20
34.0
 30
0.0
 11
227.275343
 21
70.0
 31
0.0
  0
LINE
  5
54F
330
4A9
100
AcDbEntity
  8
CSLAYER1
  6
Continuous
 62
     7
100
AcDbLine
 10
227.275343
 20
34.0
 30
0.0
 11
226.757705
 21
35.931852
 31
0.0
  0
LINE
  5
550
330
4A9
100
AcDbEntity
  8
CSLAYER1
  6
Continuous
 62
     7
100
AcDbLine
 10
227.275343
 20
34.0
 30
0.0
 11
227.792981
 21
35.931852
 31
0.0
  0
LINE
  5
551
330
4A9
100
AcDbEntity
  8
CSLAYER1
  6
Continuous
 62
     7
100
AcDbLine
 10
227.275343
 20
70.0
 30
0.0
 11
226.757705
 21
68.068148
 31
0.0
  0
LINE
  5
552
330
4A9
100
AcDbEntity
  8
CSLAYER1
  6
Continuous
 62
     7
100
AcDbLine
 10
227.275343
 20
70.0
 30
0.0
 11
227.792981
 21
68.068148
 31
0.0
  0
TEXT
  5
553
330
4A9
100
AcDbEntity
  8
CSLAYER1
 62
     7
100
AcDbText
 10
187.775327
 20
10.999985
 30
0.0
 40
4.0
  1
12
 41
0.681818181818
  7
FX_FONT
 72
     5
 11
192.775327
 21
10.999985
 31
0.0
100
AcDbText
  0
LINE
  5
554
330
4A9
100
AcDbEntity
  8
CSLAYER1
  6
Continuous
 62
     7
100
AcDbLine
 10
196.275343
 20
35.0
 30
0.0
 11
196.275343
 21
9.0
 31
0.0
  0
LINE
  5
555
330
4A9
100
AcDbEntity
  8
CSLAYER1
  6
Continuous
 62
     7
100
AcDbLine
 10
184.275343
 20
10.0
 30
0.0
 11
196.275343
 21
10.0
 31
0.0
  0
LINE
  5
556
330
4A9
100
AcDbEntity
  8
CSLAYER1
  6
Continuous
 62
     7
100
AcDbLine
 10
184.275343
 20
10.0
 30
0.0
 11
186.207195
 21
10.517638
 31
0.0
  0
LINE
  5
557
330
4A9
100
AcDbEntity
  8
CSLAYER1
  6
Continuous
 62
     7
100
AcDbLine
 10
184.275343
 20
10.0
 30
0.0
 11
186.207195
 21
9.482362
 31
0.0
  0
LINE
  5
558
330
4A9
100
AcDbEntity
  8
CSLAYER1
  6
Continuous
 62
     7
100
AcDbLine
 10
196.275343
 20
10.0
 30
0.0
 11
194.343491
 21
10.517638
 31
0.0
  0
LINE
  5
559
330
4A9
100
AcDbEntity
  8
CSLAYER1
  6
Continuous
 62
     7
100
AcDbLine
 10
196.275343
 20
10.0
 30
0.0
 11
194.343491
 21
9.482362
 31
0.0
  0
TEXT
  5
55A
330
4A9
100
AcDbEntity
  8
CSLAYER1
 62
     7
100
AcDbText
 10
203.775327
 20
10.999985
 30
0.0
 40
4.0
  1
20
 41
0.705329153605
  7
FX_FONT
 72
     5
 11
208.775327
 21
10.999985
 31
0.0
100
AcDbText
  0
LINE
  5
55B
330
4A9
100
AcDbEntity
  8
CSLAYER1
  6
Continuous
 62
     7
100
AcDbLine
 10
216.275343
 20
41.0
 30
0.0
 11
216.275343
 21
0.0
 31
0.0
  0
LINE
  5
55C
330
4A9
100
AcDbEntity
  8
CSLAYER1
  6
Continuous
 62
     7
100
AcDbLine
 10
196.275343
 20
10.0
 30
0.0
 11
216.275343
 21
10.0
 31
0.0
  0
LINE
  5
55D
330
4A9
100
AcDbEntity
  8
CSLAYER1
  6
Continuous
 62
     7
100
AcDbLine
 10
196.275343
 20
10.0
 30
0.0
 11
198.207195
 21
10.517638
 31
0.0
  0
LINE
  5
55E
330
4A9
100
AcDbEntity
  8
CSLAYER1
  6
Continuous
 62
     7
100
AcDbLine
 10
196.275343
 20
10.0
 30
0.0
 11
198.207195
 21
9.482362
 31
0.0
  0
LINE
  5
55F
330
4A9
100
AcDbEntity
  8
CSLAYER1
  6
Continuous
 62
     7
100
AcDbLine
 10
216.275343
 20
10.0
 30
0.0
 11
214.343491
 21
10.517638
 31
0.0
  0
LINE
  5
560
330
4A9
100
AcDbEntity
  8
CSLAYER1
  6
Continuous
 62
     7
100
AcDbLine
 10
216.275343
 20
10.0
 30
0.0
 11
214.343491
 21
9.482362
 31
0.0
  0
TEXT
  5
561
330
4A9
100
AcDbEntity
  8
CSLAYER1
 62
     7
100
AcDbText
 10
197.775327
 20
2.0
 30
0.0
 40
4.0
  1
32
 41
0.681818181818
  7
FX_FONT
 72
     5
 11
202.775327
 21
2.0
 31
0.0
100
AcDbText
  0
LINE
  5
562
330
4A9
100
AcDbEntity
  8
CSLAYER1
  6
Continuous
 62
     7
100
AcDbLine
 10
184.275343
 20
1.0
 30
0.0
 11
216.275343
 21
1.0
 31
0.0
  0
LINE
  5
563
330
4A9
100
AcDbEntity
  8
CSLAYER1
  6
Continuous
 62
     7
100
AcDbLine
 10
184.275343
 20
1.0
 30
0.0
 11
186.207195
 21
1.517638
 31
0.0
  0
LINE
  5
564
330
4A9
100
AcDbEntity
  8
CSLAYER1
  6
Continuous
 62
     7
100
AcDbLine
 10
184.275343
 20
1.0
 30
0.0
 11
186.207195
 21
0.482362
 31
0.0
  0
LINE
  5
565
330
4A9
100
AcDbEntity
  8
CSLAYER1
  6
Continuous
 62
     7
100
AcDbLine
 10
216.275343
 20
1.0
 30
0.0
 11
214.343491
 21
1.517638
 31
0.0
  0
LINE
  5
566
330
4A9
100
AcDbEntity
  8
CSLAYER1
  6
Continuous
 62
     7
100
AcDbLine
 10
216.275343
 20
1.0
 30
0.0
 11
214.343491
 21
0.482362
 31
0.0
  0
TEXT
  5
567
330
4A9
100
AcDbEntity
  8
CSLAYER1
 62
     7
100
AcDbText
 10
171.775342
 20
2.0
 30
0.0
 40
4.0
  1
20
 41
0.705329153605
  7
FX_FONT
 72
     5
 11
176.775342
 21
2.0
 31
0.0
100
AcDbText
  0
LINE
  5
568
330
4A9
100
AcDbEntity
  8
CSLAYER1
  6
Continuous
 62
     7
100
AcDbLine
 10
164.275343
 20
1.0
 30
0.0
 11
184.275343
 21
1.0
 31
0.0
  0
LINE
  5
569
330
4A9
100
AcDbEntity
  8
CSLAYER1
  6
Continuous
 62
     7
100
AcDbLine
 10
164.275343
 20
1.0
 30
0.0
 11
166.207195
 21
1.517638
 31
0.0
  0
LINE
  5
56A
330
4A9
100
AcDbEntity
  8
CSLAYER1
  6
Continuous
 62
     7
100
AcDbLine
 10
164.275343
 20
1.0
 30
0.0
 11
166.207195
 21
0.482362
 31
0.0
  0
LINE
  5
56B
330
4A9
100
AcDbEntity
  8
CSLAYER1
  6
Continuous
 62
     7
100
AcDbLine
 10
184.275343
 20
1.0
 30
0.0
 11
182.343491
 21
1.517638
 31
0.0
  0
LINE
  5
56C
330
4A9
100
AcDbEntity
  8
CSLAYER1
  6
Continuous
 62
     7
100
AcDbLine
 10
184.275343
 20
1.0
 30
0.0
 11
182.343491
 21
0.482362
 31
0.0
  0
LINE
  5
56D
330
4A9
100
AcDbEntity
  8
CSLAYER1
  6
Continuous
 62
     7
100
AcDbLine
 10
164.275343
 20
18.5
 30
0.0
 11
164.275343
 21
0.0
 31
0.0
  0
LINE
  5
56E
330
4A9
100
AcDbEntity
  8
CSLAYER1
  6
Continuous
 62
     7
100
AcDbLine
 10
184.275343
 20
28.0
 30
0.0
 11
184.275343
 21
0.0
 31
0.0
  0
LINE
  5
56F
330
4A9
100
AcDbEntity
  8
CSLAYER1
  6
Continuous
 62
     7
100
AcDbLine
 10
121.159613
 20
65.920333
 30
0.0
 11
111.088566
 21
91.09795
 31
0.0
  0
CIRCLE
  5
570
330
4A9
100
AcDbEntity
  8
CSLAYER1
  6
Continuous
 62
     7
100
AcDbCircle
 10
121.159613
 20
65.920333
 30
0.0
 40
0.5
  0
CIRCLE
  5
571
330
4A9
100
AcDbEntity
  8
CSLAYER1
  6
Continuous
 62
     7
100
AcDbCircle
 10
121.159613
 20
65.920333
 30
0.0
 40
0.25
  0
CIRCLE
  5
572
330
4A9
100
AcDbEntity
  8
CSLAYER1
  6
Continuous
 62
     7
100
AcDbCircle
 10
109.231613
 20
95.740333
 30
0.0
 40
5.0
  0
TEXT
  5
573
330
4A9
100
AcDbEntity
  8
CSLAYER1
 62
     7
100
AcDbText
 10
107.981611
 20
93.740326
 30
0.0
 40
4.0
  1
4
 41
0.75
  7
FX_FONT
 72
     5
 11
110.481611
 21
93.740326
 31
0.0
100
AcDbText
  0
LINE
  5
574
330
4A9
100
AcDbEntity
  8
CSLAYER1
  6
Continuous
 62
     7
100
AcDbLine
 10
159.925613
 20
76.854333
 30
0.0
 11
156.228079
 21
90.904961
 31
0.0
  0
CIRCLE
  5
575
330
4A9
100
AcDbEntity
  8
CSLAYER1
  6
Continuous
 62
     7
100
AcDbCircle
 10
159.925613
 20
76.854333
 30
0.0
 40
0.5
  0
CIRCLE
  5
576
330
4A9
100
AcDbEntity
  8
CSLAYER1
  6
Continuous
 62
     7
100
AcDbCircle
 10
159.925613
 20
76.854333
 30
0.0
 40
0.25
  0
CIRCLE
  5
577
330
4A9
100
AcDbEntity
  8
CSLAYER1
  6
Continuous
 62
     7
100
AcDbCircle
 10
154.955613
 20
95.740333
 30
0.0
 40
5.0
  0
TEXT
  5
578
330
4A9
100
AcDbEntity
  8
CSLAYER1
 62
     7
100
AcDbText
 10
153.70561
 20
93.740326
 30
0.0
 40
4.0
  1
5
 41
0.75
  7
FX_FONT
 72
     5
 11
156.20561
 21
93.740326
 31
0.0
100
AcDbText
  0
LINE
  5
579
330
4A9
100
AcDbEntity
  8
CSLAYER1
  6
Continuous
 62
     7
100
AcDbLine
 10
206.231
 20
65.281878
 30
0.0
 11
194.459985
 21
85.669873
 31
0.0
  0
CIRCLE
  5
57A
330
4A9
100
AcDbEntity
  8
CSLAYER1
  6
Continuous
 62
     7
100
AcDbCircle
 10
206.231
 20
65.281878
 30
0.0
 40
0.5
  0
CIRCLE
  5
57B
330
4A9
100
AcDbEntity
  8
CSLAYER1
  6
Continuous
 62
     7
100
AcDbCircle
 10
206.231
 20
65.281878
 30
0.0
 40
0.25
  0
CIRCLE
  5
57C
330
4A9
100
AcDbEntity
  8
CSLAYER1
  6
Continuous
 62
     7
100
AcDbCircle
 10
191.959985
 20
90.0
 30
0.0
 40
5.0
  0
TEXT
  5
57D
330
4A9
100
AcDbEntity
  8
CSLAYER1
 62
     7
100
AcDbText
 10
190.709989
 20
88.0
 30
0.0
 40
4.0
  1
3
 41
0.75
  7
FX_FONT
 72
     5
 11
193.209989
 21
88.0
 31
0.0
100
AcDbText
  0
TEXT
  5
57E
330
4A9
100
AcDbEntity
  8
CSLAYER1
 62
     7
100
AcDbText
 10
115.775327
 20
11.0
 30
0.0
 40
4.0
  1
42
 41
0.681818181818
  7
FX_FONT
 72
     5
 11
120.775327
 21
11.0
 31
0.0
100
AcDbText
  0
LINE
  5
57F
330
4A9
100
AcDbEntity
  8
CSLAYER1
  6
Continuous
 62
     7
100
AcDbLine
 10
97.275343
 20
10.0
 30
0.0
 11
139.275343
 21
10.0
 31
0.0
  0
LINE
  5
580
330
4A9
100
AcDbEntity
  8
CSLAYER1
  6
Continuous
 62
     7
100
AcDbLine
 10
97.275343
 20
10.0
 30
0.0
 11
99.207195
 21
10.517638
 31
0.0
  0
LINE
  5
581
330
4A9
100
AcDbEntity
  8
CSLAYER1
  6
Continuous
 62
     7
100
AcDbLine
 10
97.275343
 20
10.0
 30
0.0
 11
99.207195
 21
9.482362
 31
0.0
  0
LINE
  5
582
330
4A9
100
AcDbEntity
  8
CSLAYER1
  6
Continuous
 62
     7
100
AcDbLine
 10
139.275343
 20
10.0
 30
0.0
 11
137.343491
 21
10.517638
 31
0.0
  0
LINE
  5
583
330
4A9
100
AcDbEntity
  8
CSLAYER1
  6
Continuous
 62
     7
100
AcDbLine
 10
139.275343
 20
10.0
 30
0.0
 11
137.343491
 21
9.482362
 31
0.0
  0
LINE
  5
584
330
4A9
100
AcDbEntity
  8
CSLAYER1
  6
Continuous
 62
     7
100
AcDbLine
 10
97.275343
 20
31.0
 30
0.0
 11
97.275343
 21
9.0
 31
0.0
  0
LINE
  5
585
330
4A9
100
AcDbEntity
  8
CSLAYER1
  6
Continuous
 62
     7
100
AcDbLine
 10
139.275343
 20
30.361505
 30
0.0
 11
139.275343
 21
9.0
 31
0.0
  0
TEXT
  5
586
330
4A9
100
AcDbEntity
  8
CSLAYER1
 62
     7
100
AcDbText
 10
149.275342
 20
11.0
 30
0.0
 40
4.0
  1
25
 41
0.681818181818
  7
FX_FONT
 72
     5
 11
154.275342
 21
11.0
 31
0.0
100
AcDbText
  0
LINE
  5
587
330
4A9
100
AcDbEntity
  8
CSLAYER1
  6
Continuous
 62
     7
100
AcDbLine
 10
139.275343
 20
10.0
 30
0.0
 11
164.275343
 21
10.0
 31
0.0
  0
LINE
  5
588
330
4A9
100
AcDbEntity
  8
CSLAYER1
  6
Continuous
 62
     7
100
AcDbLine
 10
139.275343
 20
10.0
 30
0.0
 11
141.207195
 21
10.517638
 31
0.0
  0
LINE
  5
589
330
4A9
100
AcDbEntity
  8
CSLAYER1
  6
Continuous
 62
     7
100
AcDbLine
 10
139.275343
 20
10.0
 30
0.0
 11
141.207195
 21
9.482362
 31
0.0
  0
LINE
  5
58A
330
4A9
100
AcDbEntity
  8
CSLAYER1
  6
Continuous
 62
     7
100
AcDbLine
 10
164.275343
 20
10.0
 30
0.0
 11
162.343491
 21
10.517638
 31
0.0
  0
LINE
  5
58B
330
4A9
100
AcDbEntity
  8
CSLAYER1
  6
Continuous
 62
     7
100
AcDbLine
 10
164.275343
 20
10.0
 30
0.0
 11
162.343491
 21
9.482362
 31
0.0
  0
TEXT
  5
58C
330
4A9
100
AcDbEntity
  8
CSLAYER1
 62
     7
100
AcDbText
 10
86.275342
 20
48.25
 30
0.0
 40
4.0
  1
%%c50
 50
90.0
 41
0.674662668666
  7
FX_FONT
 72
     5
 11
86.275342
 21
55.75
 31
0.0
100
AcDbText
  0
LINE
  5
58D
330
4A9
100
AcDbEntity
  8
CSLAYER1
  6
Continuous
 62
     7
100
AcDbLine
 10
87.275343
 20
27.0
 30
0.0
 11
87.275343
 21
77.0
 31
0.0
  0
LINE
  5
58E
330
4A9
100
AcDbEntity
  8
CSLAYER1
  6
Continuous
 62
     7
100
AcDbLine
 10
87.275343
 20
27.0
 30
0.0
 11
86.757705
 21
28.931852
 31
0.0
  0
LINE
  5
58F
330
4A9
100
AcDbEntity
  8
CSLAYER1
  6
Continuous
 62
     7
100
AcDbLine
 10
87.275343
 20
27.0
 30
0.0
 11
87.792981
 21
28.931852
 31
0.0
  0
LINE
  5
590
330
4A9
100
AcDbEntity
  8
CSLAYER1
  6
Continuous
 62
     7
100
AcDbLine
 10
87.275343
 20
77.0
 30
0.0
 11
86.757705
 21
75.068148
 31
0.0
  0
LINE
  5
591
330
4A9
100
AcDbEntity
  8
CSLAYER1
  6
Continuous
 62
     7
100
AcDbLine
 10
87.275343
 20
77.0
 30
0.0
 11
87.792981
 21
75.068148
 31
0.0
  0
LINE
  5
592
330
4A9
100
AcDbEntity
  8
CSLAYER1
  6
Continuous
 62
     7
100
AcDbLine
 10
99.075343
 20
27.0
 30
0.0
 11
86.275343
 21
27.0
 31
0.0
  0
LINE
  5
593
330
4A9
100
AcDbEntity
  8
CSLAYER1
  6
Continuous
 62
     7
100
AcDbLine
 10
99.075343
 20
77.0
 30
0.0
 11
86.275343
 21
77.0
 31
0.0
  0
TEXT
  5
594
330
4A9
100
AcDbEntity
  8
CSLAYER1
 62
     7
100
AcDbText
 10
128.275342
 20
2.0
 30
0.0
 40
4.0
  1
67
 41
0.679245283019
  7
FX_FONT
 72
     5
 11
133.275342
 21
2.0
 31
0.0
100
AcDbText
  0
LINE
  5
595
330
4A9
100
AcDbEntity
  8
CSLAYER1
  6
Continuous
 62
     7
100
AcDbLine
 10
164.275343
 20
1.0
 30
0.0
 11
97.275343
 21
1.0
 31
0.0
  0
LINE
  5
596
330
4A9
100
AcDbEntity
  8
CSLAYER1
  6
Continuous
 62
     7
100
AcDbLine
 10
164.275343
 20
1.0
 30
0.0
 11
162.343491
 21
1.517638
 31
0.0
  0
LINE
  5
597
330
4A9
100
AcDbEntity
  8
CSLAYER1
  6
Continuous
 62
     7
100
AcDbLine
 10
164.275343
 20
1.0
 30
0.0
 11
162.343491
 21
0.482362
 31
0.0
  0
LINE
  5
598
330
4A9
100
AcDbEntity
  8
CSLAYER1
  6
Continuous
 62
     7
100
AcDbLine
 10
97.275343
 20
1.0
 30
0.0
 11
99.207195
 21
1.517638
 31
0.0
  0
LINE
  5
599
330
4A9
100
AcDbEntity
  8
CSLAYER1
  6
Continuous
 62
     7
100
AcDbLine
 10
97.275343
 20
1.0
 30
0.0
 11
99.207195
 21
0.482362
 31
0.0
  0
LINE
  5
59A
330
4A9
100
AcDbEntity
  8
CSLAYER1
  6
Continuous
 62
     7
100
AcDbLine
 10
97.275343
 20
11.0
 30
0.0
 11
97.275343
 21
0.0
 31
0.0
  0
TEXT
  5
59B
330
4A9
100
AcDbEntity
  8
CSLAYER1
 62
     7
100
AcDbText
 10
76.275342
 20
48.25
 30
0.0
 40
4.0
  1
%%c65
 50
90.0
 41
0.660146699267
  7
FX_FONT
 72
     5
 11
76.275342
 21
55.75
 31
0.0
100
AcDbText
  0
LINE
  5
59C
330
4A9
100
AcDbEntity
  8
CSLAYER1
  6
Continuous
 62
     7
100
AcDbLine
 10
77.275343
 20
19.5
 30
0.0
 11
77.275343
 21
84.5
 31
0.0
  0
LINE
  5
59D
330
4A9
100
AcDbEntity
  8
CSLAYER1
  6
Continuous
 62
     7
100
AcDbLine
 10
77.275343
 20
19.5
 30
0.0
 11
76.757705
 21
21.431852
 31
0.0
  0
LINE
  5
59E
330
4A9
100
AcDbEntity
  8
CSLAYER1
  6
Continuous
 62
     7
100
AcDbLine
 10
77.275343
 20
19.5
 30
0.0
 11
77.792981
 21
21.431852
 31
0.0
  0
LINE
  5
59F
330
4A9
100
AcDbEntity
  8
CSLAYER1
  6
Continuous
 62
     7
100
AcDbLine
 10
77.275343
 20
84.5
 30
0.0
 11
76.757705
 21
82.568148
 31
0.0
  0
LINE
  5
5A0
330
4A9
100
AcDbEntity
  8
CSLAYER1
  6
Continuous
 62
     7
100
AcDbLine
 10
77.275343
 20
84.5
 30
0.0
 11
77.792981
 21
82.568148
 31
0.0
  0
LINE
  5
5A1
330
4A9
100
AcDbEntity
  8
CSLAYER1
  6
Continuous
 62
     7
100
AcDbLine
 10
155.675343
 20
19.5
 30
0.0
 11
76.275343
 21
19.5
 31
0.0
  0
LINE
  5
5A2
330
4A9
100
AcDbEntity
  8
CSLAYER1
  6
Continuous
 62
     7
100
AcDbLine
 10
155.675343
 20
84.5
 30
0.0
 11
76.275343
 21
84.5
 31
0.0
  0
LINE
  5
5A3
330
4A9
100
AcDbEntity
  8
CSLAYER1
  6
Continuous
 62
     7
100
AcDbLine
 10
37.536416
 20
79.876413
 30
0.0
 11
47.201191
 21
89.877762
 31
0.0
  0
LINE
  5
5A4
330
4A9
100
AcDbEntity
  8
CSLAYER1
  6
Continuous
 62
     7
100
AcDbLine
 10
37.536416
 20
79.876413
 30
0.0
 11
38.506631
 21
81.625322
 31
0.0
  0
LINE
  5
5A5
330
4A9
100
AcDbEntity
  8
CSLAYER1
  6
Continuous
 62
     7
100
AcDbLine
 10
37.536416
 20
79.876413
 30
0.0
 11
39.251101
 21
80.905905
 31
0.0
  0
LINE
  5
5A6
330
4A9
100
AcDbEntity
  8
CSLAYER1
  6
Continuous
 62
     7
100
AcDbLine
 10
47.201191
 20
89.877762
 30
0.0
 11
76.924922
 21
89.877762
 31
0.0
  0
LINE
  5
5A7
330
4A9
100
AcDbEntity
  8
CSLAYER1
  6
Continuous
 62
     7
100
AcDbLine
 10
76.924922
 20
89.877762
 30
0.0
 11
47.424922
 21
89.877762
 31
0.0
  0
TEXT
  5
5A8
330
4A9
100
AcDbEntity
  8
CSLAYER1
 62
     7
100
AcDbText
 10
48.424924
 20
90.877777
 30
0.0
 40
4.0
  1
3-3.8mmネジ用穴
 41
0.596098265896
  7
FX_FONT
 72
     5
 11
75.924924
 21
90.877777
 31
0.0
100
AcDbText
  0
ENDBLK
  5
5AA
330
4A9
100
AcDbEntity
  8
0
100
AcDbBlockEnd
  0
BLOCK
  5
7BA
330
794
100
AcDbEntity
  8
0
100
AcDbBlockBegin
  2
ACE00A8
 70
     0
 10
0.0
 20
0.0
 30
0.0
  3
ACE00A8
  1

  0
TEXT
  5
7B9
330
794
100
AcDbEntity
  8
CSLAYER10
100
AcDbText
 10
-0.323871643188
 20
0.0
 30
0.0
 40
4.0
  1
28～40
 41
0.485807464783
  7
FX_FONT
 72
     5
 11
9.338299045266
 21
0.0
 31
0.0
100
AcDbText
  0
ENDBLK
  5
7BB
330
794
100
AcDbEntity
  8
0
100
AcDbBlockEnd
  0
BLOCK
  5
7F8
330
7D4
100
AcDbEntity
  8
0
100
AcDbBlockBegin
  2
ACE00E8
 70
     0
 10
0.0
 20
0.0
 30
0.0
  3
ACE00E8
  1

  0
ARC
  5
7F7
330
7D4
100
AcDbEntity
  8
0
100
AcDbCircle
 10
-0.8523845
 20
4.516161587653
 30
0.0
 40
4.595897607827595
100
AcDbArc
 50
280.688324674579
 51
79.311675325421
  0
ENDBLK
  5
7F9
330
7D4
100
AcDbEntity
  8
0
100
AcDbBlockEnd
  0
BLOCK
  5
81B
330
81A
100
AcDbEntity
  8
0
100
AcDbBlockBegin
  2
_Open30
 70
     0
 10
0.0
 20
0.0
 30
0.0
  3
_Open30
  1

  0
LINE
  5
81D
330
81A
100
AcDbEntity
  8
0
  6
ByBlock
 62
     0
370
    -2
100
AcDbLine
 10
-1.0
 20
0.267949
 30
0.0
 11
0.0
 21
0.0
 31
0.0
  0
LINE
  5
81E
330
81A
100
AcDbEntity
  8
0
  6
ByBlock
 62
     0
370
    -2
100
AcDbLine
 10
0.0
 20
0.0
 30
0.0
 11
-1.0
 21
-0.267949
 31
0.0
  0
LINE
  5
81F
330
81A
100
AcDbEntity
  8
0
  6
ByBlock
 62
     0
370
    -2
100
AcDbLine
 10
0.0
 20
0.0
 30
0.0
 11
-1.0
 21
0.0
 31
0.0
  0
ENDBLK
  5
81C
330
81A
100
AcDbEntity
  8
0
100
AcDbBlockEnd
  0
BLOCK
  5
84C
330
826
100
AcDbEntity
  8
0
100
AcDbBlockBegin
  2
ACE01F8
 70
     0
 10
0.0
 20
0.0
 30
0.0
  3
ACE01F8
  1

  0
TEXT
  5
84B
330
826
100
AcDbEntity
  8
CSLAYER10
100
AcDbText
 10
-0.397398843931
 20
0.0
 30
0.0
 40
4.0
  1
3-3.8mmネジ用穴
 41
0.596098265896
  7
FX_FONT
 72
     5
 11
27.102601156069
 21
0.0
 31
0.0
100
AcDbText
  0
ENDBLK
  5
84D
330
826
100
AcDbEntity
  8
0
100
AcDbBlockEnd
  0
BLOCK
  5
8D1
330
8A8
100
AcDbEntity
  8
0
100
AcDbBlockBegin
  2
ACE0128
 70
     0
 10
0.0
 20
0.0
 30
0.0
  3
ACE0128
  1

  0
LINE
  5
8CE
330
8A8
100
AcDbEntity
  8
0
100
AcDbLine
 10
1.032737039518
 20
1.017538825312
 30
0.0
 11
5.967262960482
 21
5.982461174688
 31
0.0
  0
LINE
  5
8CF
330
8A8
100
AcDbEntity
  8
0
100
AcDbLine
 10
5.967262960482
 20
1.017538825312
 30
0.0
 11
1.032737039518
 21
5.982461174688
 31
0.0
  0
CIRCLE
  5
8D0
330
8A8
100
AcDbEntity
  8
CSLAYER1
100
AcDbCircle
 10
3.5
 20
3.5
 30
0.0
 40
3.5
  0
ENDBLK
  5
8D2
330
8A8
100
AcDbEntity
  8
0
100
AcDbBlockEnd
  0
BLOCK
  5
903
330
8D4
100
AcDbEntity
  8
0
100
AcDbBlockBegin
  2
ACE00C8
 70
     0
 10
0.0
 20
0.0
 30
0.0
  3
ACE00C8
  1

  0
INSERT
  5
8FA
330
8D4
100
AcDbEntity
  8
CSLAYER1
100
AcDbBlockReference
  2
ACE0128
 10
0.0
 20
0.0
 30
0.0
  0
ENDBLK
  5
904
330
8D4
100
AcDbEntity
  8
0
100
AcDbBlockEnd
  0
BLOCK
  5
93D
330
914
100
AcDbEntity
  8
0
100
AcDbBlockBegin
  2
ACE01C8
 70
     0
 10
0.0
 20
0.0
 30
0.0
  3
ACE01C8
  1

  0
CIRCLE
  5
93A
330
914
100
AcDbEntity
  8
CSLAYER1
100
AcDbCircle
 10
3.25
 20
3.25
 30
0.0
 40
3.25
  0
LINE
  5
93B
330
914
100
AcDbEntity
  8
CSLAYER1
100
AcDbLine
 10
0.951902961144
 20
0.951902961144
 30
0.0
 11
5.548097038856
 21
5.548097038856
 31
0.0
  0
LINE
  5
93C
330
914
100
AcDbEntity
  8
CSLAYER1
100
AcDbLine
 10
5.668006628827
 20
1.07842362719
 30
0.0
 11
0.831993371173
 21
5.42157637281
 31
0.0
  0
ENDBLK
  5
93E
330
914
100
AcDbEntity
  8
0
100
AcDbBlockEnd
  0
BLOCK
  5
96F
330
946
100
AcDbEntity
  8
0
100
AcDbBlockBegin
  2
ACE0168
 70
     0
 10
0.0
 20
0.0
 30
0.0
  3
ACE0168
  1

  0
CIRCLE
  5
96C
330
946
100
AcDbEntity
  8
CSLAYER1
100
AcDbCircle
 10
3.25
 20
3.25
 30
0.0
 40
3.25
  0
LINE
  5
96D
330
946
100
AcDbEntity
  8
CSLAYER1
100
AcDbLine
 10
1.298208134536
 20
1.298208134536
 30
0.0
 11
5.201791865464
 21
5.201791865464
 31
0.0
  0
LINE
  5
96E
330
946
100
AcDbEntity
  8
CSLAYER1
100
AcDbLine
 10
5.201791865464
 20
1.298208134536
 30
0.0
 11
1.298208134537
 21
5.201791865464
 31
0.0
  0
ENDBLK
  5
970
330
946
100
AcDbEntity
  8
0
100
AcDbBlockEnd
  0
BLOCK
  5
9A6
330
97D
100
AcDbEntity
  8
0
100
AcDbBlockBegin
  2
159C03D0
 70
     0
 10
0.0
 20
0.0
 30
0.0
  3
159C03D0
  1

  0
LINE
  5
9A3
330
97D
100
AcDbEntity
  8
0
100
AcDbLine
 10
1.546774218788
 20
1.534742447432
 30
0.0
 11
3.5
 21
3.5
 31
0.0
  0
LINE
  5
9A4
330
97D
100
AcDbEntity
  8
0
100
AcDbLine
 10
3.5
 20
3.5
 30
0.0
 11
1.479023012091
 21
5.533426103248
 31
0.0
  0
ARC
  5
9A5
330
97D
100
AcDbEntity
  8
CSLAYER1
100
AcDbCircle
 10
3.5
 20
3.5
 30
0.0
 40
3.5
100
AcDbArc
 50
115.986014221784
 51
304.013985995048
  0
ENDBLK
  5
9A7
330
97D
100
AcDbEntity
  8
0
100
AcDbBlockEnd
  0
BLOCK
  5
9DB
330
9B2
100
AcDbEntity
  8
0
100
AcDbBlockBegin
  2
159C0150
 70
     0
 10
0.0
 20
0.0
 30
0.0
  3
159C0150
  1

  0
CIRCLE
  5
9D8
330
9B2
100
AcDbEntity
  8
CSLAYER1
100
AcDbCircle
 10
3.25
 20
3.25
 30
0.0
 40
3.25
  0
LINE
  5
9D9
330
9B2
100
AcDbEntity
  8
CSLAYER1
100
AcDbLine
 10
1.66993489012
 20
1.66993489012
 30
0.0
 11
4.83006510988
 21
4.83006510988
 31
0.0
  0
LINE
  5
9DA
330
9B2
100
AcDbEntity
  8
CSLAYER1
100
AcDbLine
 10
1.66993489012
 20
4.83006510988
 30
0.0
 11
4.83006510988
 21
1.66993489012
 31
0.0
  0
ENDBLK
  5
9DC
330
9B2
100
AcDbEntity
  8
0
100
AcDbBlockEnd
  0
BLOCK
  5
A14
330
9E9
100
AcDbEntity
  8
0
100
AcDbBlockBegin
  2
ACE0108
 70
     0
 10
0.0
 20
0.0
 30
0.0
  3
ACE0108
  1

  0
LINE
  5
A10
330
9E9
100
AcDbEntity
  8
CSLAYER10
  6
Continuous
100
AcDbLine
 10
0.0
 20
3.25
 30
0.0
 11
7.685241023379
 21
3.25
 31
0.0
  0
CIRCLE
  5
A11
330
9E9
100
AcDbEntity
  8
CSLAYER1
100
AcDbCircle
 10
3.84262051169
 20
3.25
 30
0.0
 40
3.25
  0
LINE
  5
A12
330
9E9
100
AcDbEntity
  8
CSLAYER1
100
AcDbLine
 10
2.262555401809
 20
1.66993489012
 30
0.0
 11
5.42268562157
 21
4.83006510988
 31
0.0
  0
LINE
  5
A13
330
9E9
100
AcDbEntity
  8
CSLAYER1
100
AcDbLine
 10
2.262555401809
 20
4.83006510988
 30
0.0
 11
5.42268562157
 21
1.66993489012
 31
0.0
  0
ENDBLK
  5
A15
330
9E9
100
AcDbEntity
  8
0
100
AcDbBlockEnd
  0
BLOCK
  5
A47
330
A20
100
AcDbEntity
  8
0
100
AcDbBlockBegin
  2
159C03F0
 70
     0
 10
0.0
 20
0.0
 30
0.0
  3
159C03F0
  1

  0
SPLINE
  5
A46
330
A20
100
AcDbEntity
  8
CSLAYER1
100
AcDbSpline
210
0.0
220
0.0
230
1.0
 70
  1064
 71
     3
 72
     9
 73
     5
 74
     3
 42
0.000000001
 43
0.0000000001
 44
0.0
 12
1.0
 22
0.0
 32
0.0
 13
-0.9895890930501341
 23
-0.1439215998945711
 33
0.0
 40
0.0
 40
0.0
 40
0.0
 40
0.0
 40
4.100304866714182
 40
8.20060973342834
 40
8.20060973342834
 40
8.20060973342834
 40
8.20060973342834
 10
0.0
 20
6.499999999999972
 30
0.0
 10
1.366768288904727
 20
6.499999999999972
 30
0.0
 10
3.640346359834184
 20
3.151646260587809
 30
0.0
 10
1.352538991426905
 20
0.1967074788243326
 30
0.0
 10
0.0
 20
0.0
 30
0.0
 11
0.0
 21
6.499999999999972
 31
0.0
 11
2.5
 21
3.249999999999972
 31
0.0
 11
0.0
 21
0.0
 31
0.0
  0
ENDBLK
  5
A48
330
A20
100
AcDbEntity
  8
0
100
AcDbBlockEnd
  0
BLOCK
  5
B21
330
B20
100
AcDbEntity
  8
0
100
AcDbBlockBegin
  2
_OPEN90
 70
     0
 10
0.0
 20
0.0
 30
0.0
  3
_OPEN90
  1

  0
LINE
  5
B23
330
B20
100
AcDbEntity
  8
0
  6
ByBlock
 62
     0
370
    -2
100
AcDbLine
 10
-0.5
 20
0.5
 30
0.0
 11
0.0
 21
0.0
 31
0.0
  0
LINE
  5
B24
330
B20
100
AcDbEntity
  8
0
  6
ByBlock
 62
     0
370
    -2
100
AcDbLine
 10
0.0
 20
0.0
 30
0.0
 11
-0.5
 21
-0.5
 31
0.0
  0
LINE
  5
B25
330
B20
100
AcDbEntity
  8
0
  6
ByBlock
 62
     0
370
    -2
100
AcDbLine
 10
0.0
 20
0.0
 30
0.0
 11
-1.0
 21
0.0
 31
0.0
  0
ENDBLK
  5
B22
330
B20
100
AcDbEntity
  8
0
100
AcDbBlockEnd
  0
ENDSEC
  0
SECTION
  2
ENTITIES
  0
LINE
  5
25D
330
1D
100
AcDbEntity
  8
CSLAYER1
  6
Continuous
100
AcDbLine
 10
132.995898096886
 20
138.576612152149
 30
0.0
 11
174.995898096886
 21
138.576612152149
 31
0.0
  0
ARC
  5
25E
330
1D
100
AcDbEntity
  8
CSLAYER1
  6
Continuous
100
AcDbCircle
 10
174.995898096886
 20
133.576612152149
 30
0.0
 40
5.0
100
AcDbArc
 50
0.0
 51
90.0
  0
LINE
  5
25F
330
1D
100
AcDbEntity
  8
CSLAYER1
  6
Continuous
100
AcDbLine
 10
179.995898096886
 20
133.576612152149
 30
0.0
 11
179.995898096886
 21
98.576612152149
 31
0.0
  0
ARC
  5
260
330
1D
100
AcDbEntity
  8
CSLAYER1
  6
Continuous
100
AcDbCircle
 10
174.995898096886
 20
98.576612152149
 30
0.0
 40
5.0
100
AcDbArc
 50
270.0
 51
0.0
  0
LINE
  5
261
330
1D
100
AcDbEntity
  8
CSLAYER1
  6
Continuous
100
AcDbLine
 10
174.995898096886
 20
93.576612152149
 30
0.0
 11
132.995898096886
 21
93.576612152149
 31
0.0
  0
ARC
  5
262
330
1D
100
AcDbEntity
  8
CSLAYER1
  6
Continuous
100
AcDbCircle
 10
132.995898096886
 20
98.576612152149
 30
0.0
 40
5.0
100
AcDbArc
 50
180.0
 51
270.0
  0
LINE
  5
263
330
1D
100
AcDbEntity
  8
CSLAYER1
  6
Continuous
100
AcDbLine
 10
127.995898096886
 20
98.576612152149
 30
0.0
 11
127.995898096886
 21
133.576612152149
 31
0.0
  0
ARC
  5
264
330
1D
100
AcDbEntity
  8
CSLAYER1
  6
Continuous
100
AcDbCircle
 10
132.995898096886
 20
133.576612152149
 30
0.0
 40
5.0
100
AcDbArc
 50
90.0
 51
180.0
  0
LINE
  5
265
330
1D
100
AcDbEntity
  8
CSLAYER1
  6
Continuous
100
AcDbLine
 10
134.995898096886
 20
128.576612152149
 30
0.0
 11
142.995898096886
 21
128.576612152149
 31
0.0
  0
ARC
  5
266
330
1D
100
AcDbEntity
  8
CSLAYER1
  6
Continuous
100
AcDbCircle
 10
142.995898096886
 20
127.576612152149
 30
0.0
 40
1.0
100
AcDbArc
 50
0.0
 51
90.0
  0
LINE
  5
267
330
1D
100
AcDbEntity
  8
CSLAYER1
  6
Continuous
100
AcDbLine
 10
143.995898096886
 20
127.576612152149
 30
0.0
 11
143.995898096886
 21
104.576612152149
 31
0.0
  0
ARC
  5
268
330
1D
100
AcDbEntity
  8
CSLAYER1
  6
Continuous
100
AcDbCircle
 10
142.995898096886
 20
104.576612152149
 30
0.0
 40
1.0
100
AcDbArc
 50
270.0
 51
0.0
  0
LINE
  5
269
330
1D
100
AcDbEntity
  8
CSLAYER1
  6
Continuous
100
AcDbLine
 10
142.995898096886
 20
103.576612152149
 30
0.0
 11
134.995898096886
 21
103.576612152149
 31
0.0
  0
ARC
  5
26A
330
1D
100
AcDbEntity
  8
CSLAYER1
  6
Continuous
100
AcDbCircle
 10
134.995898096886
 20
104.576612152149
 30
0.0
 40
1.0
100
AcDbArc
 50
180.0
 51
270.0
  0
LINE
  5
26B
330
1D
100
AcDbEntity
  8
CSLAYER1
  6
Continuous
100
AcDbLine
 10
133.995898096886
 20
104.576612152149
 30
0.0
 11
133.995898096886
 21
127.576612152149
 31
0.0
  0
ARC
  5
26C
330
1D
100
AcDbEntity
  8
CSLAYER1
  6
Continuous
100
AcDbCircle
 10
134.995898096886
 20
127.576612152149
 30
0.0
 40
1.0
100
AcDbArc
 50
90.0
 51
180.0
  0
LINE
  5
279
330
1D
100
AcDbEntity
  8
CSLAYER1
  6
Continuous
100
AcDbLine
 10
406.978407096886
 20
59.616860152149
 30
0.0
 11
405.978407096886
 21
60.616860152149
 31
0.0
  0
LINE
  5
27A
330
1D
100
AcDbEntity
  8
CSLAYER1
  6
Continuous
100
AcDbLine
 10
405.978407096886
 20
60.616860152149
 30
0.0
 11
405.978407096886
 21
66.286831152149
 31
0.0
  0
LINE
  5
27B
330
1D
100
AcDbEntity
  8
CSLAYER1
  6
Continuous
100
AcDbLine
 10
405.978407096886
 20
68.620883152149
 30
0.0
 11
405.978407096886
 21
84.684039152149
 31
0.0
  0
LINE
  5
27C
330
1D
100
AcDbEntity
  8
CSLAYER1
  6
Continuous
100
AcDbLine
 10
410.978407096886
 20
84.684039152149
 30
0.0
 11
410.978407096886
 21
66.322361152149
 31
0.0
  0
LINE
  5
27D
330
1D
100
AcDbEntity
  8
CSLAYER1
  6
Continuous
100
AcDbLine
 10
410.978407096886
 20
64.326144152149
 30
0.0
 11
410.978407096886
 21
60.616860152149
 31
0.0
  0
LINE
  5
27E
330
1D
100
AcDbEntity
  8
CSLAYER1
  6
Continuous
100
AcDbLine
 10
410.978407096886
 20
60.616860152149
 30
0.0
 11
409.978407096886
 21
59.616860152149
 31
0.0
  0
LINE
  5
27F
330
1D
100
AcDbEntity
  8
CSLAYER1
  6
Continuous
100
AcDbLine
 10
409.978407096886
 20
59.616860152149
 30
0.0
 11
406.978407096886
 21
59.616860152149
 31
0.0
  0
LINE
  5
280
330
1D
100
AcDbEntity
  8
CSLAYER1
  6
Continuous
100
AcDbLine
 10
405.978407096886
 20
60.616860152149
 30
0.0
 11
410.978407096886
 21
60.616860152149
 31
0.0
  0
LINE
  5
281
330
1D
100
AcDbEntity
  8
CSLAYER1
  6
Continuous
100
AcDbLine
 10
415.495898096886
 20
96.116860152149
 30
0.0
 11
418.495898096886
 21
96.116860152149
 31
0.0
  0
LINE
  5
282
330
1D
100
AcDbEntity
  8
CSLAYER1
  6
Continuous
100
AcDbLine
 10
418.495898096886
 20
96.116860152149
 30
0.0
 11
418.495898096886
 21
116.116860152149
 31
0.0
  0
LINE
  5
283
330
1D
100
AcDbEntity
  8
CSLAYER1
  6
Continuous
100
AcDbLine
 10
418.495898096886
 20
116.116860152149
 30
0.0
 11
415.495898096886
 21
116.116860152149
 31
0.0
  0
LINE
  5
284
330
1D
100
AcDbEntity
  8
CSLAYER1
  6
Continuous
100
AcDbLine
 10
415.495898096886
 20
116.116860152149
 30
0.0
 11
415.495898096886
 21
96.116860152149
 31
0.0
  0
LINE
  5
285
330
1D
100
AcDbEntity
  8
CSLAYER1
  6
Continuous
100
AcDbLine
 10
415.495898096886
 20
100.616860152149
 30
0.0
 11
373.495898096886
 21
100.616860152149
 31
0.0
  0
LINE
  5
286
330
1D
100
AcDbEntity
  8
CSLAYER1
  6
Continuous
100
AcDbLine
 10
373.495898096886
 20
100.616860152149
 30
0.0
 11
373.495898096886
 21
89.616860152149
 31
0.0
  0
LINE
  5
287
330
1D
100
AcDbEntity
  8
CSLAYER1
  6
Continuous
100
AcDbLine
 10
373.495898096886
 20
89.616860152149
 30
0.0
 11
374.995898096886
 21
89.616860152149
 31
0.0
  0
LINE
  5
288
330
1D
100
AcDbEntity
  8
CSLAYER1
  6
Continuous
100
AcDbLine
 10
374.995898096886
 20
89.616860152149
 30
0.0
 11
374.995898096886
 21
85.616860152149
 31
0.0
  0
LINE
  5
289
330
1D
100
AcDbEntity
  8
CSLAYER1
  6
Continuous
100
AcDbLine
 10
374.745898096886
 20
85.616860152149
 30
0.0
 11
374.745898096886
 21
89.616860152149
 31
0.0
  0
LINE
  5
28A
330
1D
100
AcDbEntity
  8
CSLAYER1
  6
Continuous
100
AcDbLine
 10
373.745898096886
 20
89.616860152149
 30
0.0
 11
373.745898096886
 21
85.616860152149
 31
0.0
  0
LINE
  5
28B
330
1D
100
AcDbEntity
  8
CSLAYER1
  6
Continuous
100
AcDbLine
 10
373.495898096886
 20
85.616860152149
 30
0.0
 11
373.495898096886
 21
84.616860152149
 31
0.0
  0
LINE
  5
28C
330
1D
100
AcDbEntity
  8
CSLAYER1
  6
Continuous
100
AcDbLine
 10
373.495898096886
 20
84.616860152149
 30
0.0
 11
442.995898096886
 21
84.616860152149
 31
0.0
  0
LINE
  5
28D
330
1D
100
AcDbEntity
  8
CSLAYER1
  6
Continuous
100
AcDbLine
 10
442.995898096886
 20
84.616860152149
 30
0.0
 11
442.995898096886
 21
99.116860152149
 31
0.0
  0
ARC
  5
28E
330
1D
100
AcDbEntity
  8
CSLAYER1
  6
Continuous
100
AcDbCircle
 10
441.495898096886
 20
99.116860152149
 30
0.0
 40
1.5
100
AcDbArc
 50
0.0
 51
90.0
  0
LINE
  5
28F
330
1D
100
AcDbEntity
  8
CSLAYER1
  6
Continuous
100
AcDbLine
 10
441.495898096886
 20
100.616860152149
 30
0.0
 11
418.495898096886
 21
100.616860152149
 31
0.0
  0
LINE
  5
290
330
1D
100
AcDbEntity
  8
CSLAYER1
  6
Continuous
100
AcDbLine
 10
442.995898096886
 20
90.316860152149
 30
0.0
 11
443.995898096886
 21
90.316860152149
 31
0.0
  0
ARC
  5
291
330
1D
100
AcDbEntity
  8
CSLAYER1
  6
Continuous
100
AcDbCircle
 10
443.995898096886
 20
89.316860152149
 30
0.0
 40
1.0
100
AcDbArc
 50
0.0
 51
90.0
  0
LINE
  5
292
330
1D
100
AcDbEntity
  8
CSLAYER1
  6
Continuous
100
AcDbLine
 10
444.995898096886
 20
89.316860152149
 30
0.0
 11
444.995898096886
 21
84.616860152149
 31
0.0
  0
LINE
  5
293
330
1D
100
AcDbEntity
  8
CSLAYER1
  6
Continuous
100
AcDbLine
 10
444.995898096886
 20
84.616860152149
 30
0.0
 11
443.995898096886
 21
84.616860152149
 31
0.0
  0
LINE
  5
294
330
1D
100
AcDbEntity
  8
CSLAYER1
  6
Continuous
100
AcDbLine
 10
443.995898096886
 20
84.616860152149
 30
0.0
 11
443.995898096886
 21
89.316860152149
 31
0.0
  0
LINE
  5
295
330
1D
100
AcDbEntity
  8
CSLAYER1
  6
Continuous
100
AcDbLine
 10
443.995898096886
 20
89.316860152149
 30
0.0
 11
442.995898096886
 21
89.316860152149
 31
0.0
  0
LINE
  5
296
330
1D
100
AcDbEntity
  8
CSLAYER1
  6
Continuous
100
AcDbLine
 10
442.995898096886
 20
85.616860152149
 30
0.0
 11
373.495898096886
 21
85.616860152149
 31
0.0
  0
LINE
  5
297
330
1D
100
AcDbEntity
  8
CSLAYER1
  6
Continuous
100
AcDbLine
 10
373.495898096886
 20
91.116860152149
 30
0.0
 11
370.495898096886
 21
91.116860152149
 31
0.0
  0
LINE
  5
298
330
1D
100
AcDbEntity
  8
CSLAYER1
  6
Continuous
100
AcDbLine
 10
370.495898096886
 20
91.116860152149
 30
0.0
 11
370.495898096886
 21
97.616860152149
 31
0.0
  0
ARC
  5
299
330
1D
100
AcDbEntity
  8
CSLAYER1
  6
Continuous
100
AcDbCircle
 10
371.995898096886
 20
97.616860152149
 30
0.0
 40
1.5
100
AcDbArc
 50
90.0
 51
180.0
  0
LINE
  5
29A
330
1D
100
AcDbEntity
  8
CSLAYER1
  6
Continuous
100
AcDbLine
 10
371.995898096886
 20
99.116860152149
 30
0.0
 11
373.495898096886
 21
99.116860152149
 31
0.0
  0
ARC
  5
29B
330
1D
100
AcDbEntity
  8
CSLAYER1
  6
Continuous
100
AcDbCircle
 10
377.495898096886
 20
182.076612152149
 30
0.0
 40
4.0
100
AcDbArc
 50
180.0
 51
270.0
  0
LINE
  5
29C
330
1D
100
AcDbEntity
  8
CSLAYER1
  6
Continuous
100
AcDbLine
 10
373.495898096886
 20
182.076612152149
 30
0.0
 11
373.495898096886
 21
220.076612152149
 31
0.0
  0
ARC
  5
29D
330
1D
100
AcDbEntity
  8
CSLAYER1
  6
Continuous
100
AcDbCircle
 10
377.495898096886
 20
220.076612152149
 30
0.0
 40
4.0
100
AcDbArc
 50
90.0
 51
180.0
  0
LINE
  5
29E
330
1D
100
AcDbEntity
  8
CSLAYER1
  6
Continuous
100
AcDbLine
 10
377.495898096886
 20
224.076612152149
 30
0.0
 11
438.995898096886
 21
224.076612152149
 31
0.0
  0
ARC
  5
29F
330
1D
100
AcDbEntity
  8
CSLAYER1
  6
Continuous
100
AcDbCircle
 10
438.995898096886
 20
220.076612152149
 30
0.0
 40
4.0
100
AcDbArc
 50
0.0
 51
90.0
  0
LINE
  5
2A0
330
1D
100
AcDbEntity
  8
CSLAYER1
  6
Continuous
100
AcDbLine
 10
442.995898096886
 20
220.076612152149
 30
0.0
 11
442.995898096886
 21
182.076612152149
 31
0.0
  0
ARC
  5
2A1
330
1D
100
AcDbEntity
  8
CSLAYER1
  6
Continuous
100
AcDbCircle
 10
438.995898096886
 20
182.076612152149
 30
0.0
 40
4.0
100
AcDbArc
 50
270.0
 51
0.0
  0
LINE
  5
2A2
330
1D
100
AcDbEntity
  8
CSLAYER1
  6
Continuous
100
AcDbLine
 10
438.995898096886
 20
178.076612152149
 30
0.0
 11
377.495898096886
 21
178.076612152149
 31
0.0
  0
LINE
  5
2A4
330
1D
100
AcDbEntity
  8
CSLAYER1
  6
Continuous
100
AcDbLine
 10
395.495898096886
 20
195.076612152149
 30
0.0
 11
395.495898096886
 21
207.076612152149
 31
0.0
  0
LINE
  5
2A5
330
1D
100
AcDbEntity
  8
CSLAYER1
  6
Continuous
100
AcDbLine
 10
395.495898096886
 20
207.076612152149
 30
0.0
 11
415.495898096886
 21
207.076612152149
 31
0.0
  0
LINE
  5
2A6
330
1D
100
AcDbEntity
  8
CSLAYER1
  6
Continuous
100
AcDbLine
 10
415.495898096886
 20
212.576612152149
 30
0.0
 11
373.495898096886
 21
212.576612152149
 31
0.0
  0
LINE
  5
2A7
330
1D
100
AcDbEntity
  8
CSLAYER1
  6
Continuous
100
AcDbLine
 10
373.495898096886
 20
211.076612152149
 30
0.0
 11
370.495898096886
 21
211.076612152149
 31
0.0
  0
LINE
  5
2A8
330
1D
100
AcDbEntity
  8
CSLAYER1
  6
Continuous
100
AcDbLine
 10
370.495898096886
 20
211.076612152149
 30
0.0
 11
370.495898096886
 21
191.076612152149
 31
0.0
  0
LINE
  5
2A9
330
1D
100
AcDbEntity
  8
CSLAYER1
  6
Continuous
100
AcDbLine
 10
370.495898096886
 20
191.076612152149
 30
0.0
 11
373.495898096886
 21
191.076612152149
 31
0.0
  0
LINE
  5
2AA
330
1D
100
AcDbEntity
  8
CSLAYER1
  6
Continuous
100
AcDbLine
 10
373.495898096886
 20
189.576612152149
 30
0.0
 11
415.495898096886
 21
189.576612152149
 31
0.0
  0
LINE
  5
2AB
330
1D
100
AcDbEntity
  8
CSLAYER1
  6
Continuous
100
AcDbLine
 10
418.495898096886
 20
189.576612152149
 30
0.0
 11
442.995898096886
 21
189.576612152149
 31
0.0
  0
LINE
  5
2AC
330
1D
100
AcDbEntity
  8
CSLAYER1
  6
Continuous
100
AcDbLine
 10
443.995898096886
 20
190.576612152149
 30
0.0
 11
444.995898096886
 21
190.576612152149
 31
0.0
  0
LINE
  5
2AD
330
1D
100
AcDbEntity
  8
CSLAYER1
  6
Continuous
100
AcDbLine
 10
444.995898096886
 20
190.576612152149
 30
0.0
 11
444.995898096886
 21
211.576612152149
 31
0.0
  0
LINE
  5
2AE
330
1D
100
AcDbEntity
  8
CSLAYER1
  6
Continuous
100
AcDbLine
 10
444.995898096886
 20
211.576612152149
 30
0.0
 11
443.995898096886
 21
211.576612152149
 31
0.0
  0
LINE
  5
2AF
330
1D
100
AcDbEntity
  8
CSLAYER1
  6
Continuous
100
AcDbLine
 10
443.995898096886
 20
211.576612152149
 30
0.0
 11
443.995898096886
 21
210.476612152149
 31
0.0
  0
LINE
  5
2B0
330
1D
100
AcDbEntity
  8
CSLAYER1
  6
Continuous
100
AcDbLine
 10
442.995898096886
 20
210.476612152149
 30
0.0
 11
444.995898096886
 21
210.476612152149
 31
0.0
  0
LINE
  5
2B1
330
1D
100
AcDbEntity
  8
CSLAYER1
  6
Continuous
100
AcDbLine
 10
442.995898096886
 20
212.576612152149
 30
0.0
 11
418.495898096886
 21
212.576612152149
 31
0.0
  0
LINE
  5
2B2
330
1D
100
AcDbEntity
  8
CSLAYER1
  6
Continuous
100
AcDbLine
 10
418.495898096886
 20
219.076612152149
 30
0.0
 11
415.495898096886
 21
219.076612152149
 31
0.0
  0
LINE
  5
2B3
330
1D
100
AcDbEntity
  8
CSLAYER1
  6
Continuous
100
AcDbLine
 10
415.495898096886
 20
219.076612152149
 30
0.0
 11
415.495898096886
 21
183.076612152149
 31
0.0
  0
LINE
  5
2B4
330
1D
100
AcDbEntity
  8
CSLAYER1
  6
Continuous
100
AcDbLine
 10
415.495898096886
 20
183.076612152149
 30
0.0
 11
418.495898096886
 21
183.076612152149
 31
0.0
  0
LINE
  5
2B5
330
1D
100
AcDbEntity
  8
CSLAYER1
  6
Continuous
100
AcDbLine
 10
418.495898096886
 20
183.076612152149
 30
0.0
 11
418.495898096886
 21
219.076612152149
 31
0.0
  0
LINE
  5
2B7
330
1D
100
AcDbEntity
  8
CSLAYER1
  6
Continuous
100
AcDbLine
 10
411.495898096886
 20
202.576612152149
 30
0.0
 11
404.495898096886
 21
202.576612152149
 31
0.0
  0
LINE
  5
2B8
330
1D
100
AcDbEntity
  8
CSLAYER1
  6
Continuous
100
AcDbLine
 10
404.495898096886
 20
202.576612152149
 30
0.0
 11
404.495898096886
 21
205.076612152149
 31
0.0
  0
LINE
  5
2B9
330
1D
100
AcDbEntity
  8
CSLAYER1
  6
Continuous
100
AcDbLine
 10
404.495898096886
 20
205.076612152149
 30
0.0
 11
399.495898096886
 21
201.076612152149
 31
0.0
  0
LINE
  5
2BA
330
1D
100
AcDbEntity
  8
CSLAYER1
  6
Continuous
100
AcDbLine
 10
399.495898096886
 20
201.076612152149
 30
0.0
 11
404.495898096886
 21
197.076612152149
 31
0.0
  0
LINE
  5
2BB
330
1D
100
AcDbEntity
  8
CSLAYER1
  6
Continuous
100
AcDbLine
 10
404.495898096886
 20
197.076612152149
 30
0.0
 11
404.495898096886
 21
199.576612152149
 31
0.0
  0
LINE
  5
2BC
330
1D
100
AcDbEntity
  8
CSLAYER1
  6
Continuous
100
AcDbLine
 10
404.495898096886
 20
199.576612152149
 30
0.0
 11
411.495898096886
 21
199.576612152149
 31
0.0
  0
LINE
  5
2BD
330
1D
100
AcDbEntity
  8
CSLAYER1
  6
Continuous
100
AcDbLine
 10
411.495898096886
 20
199.576612152149
 30
0.0
 11
411.495898096886
 21
202.576612152149
 31
0.0
  0
LINE
  5
2BE
330
1D
100
AcDbEntity
  8
CSLAYER1
  6
Continuous
100
AcDbLine
 10
415.495898096886
 20
195.076612152149
 30
0.0
 11
395.495898096886
 21
195.076612152149
 31
0.0
  0
LINE
  5
2C1
330
1D
100
AcDbEntity
  8
CSLAYER1
  6
Continuous
100
AcDbLine
 10
442.995898096886
 20
191.676612152149
 30
0.0
 11
444.995898096886
 21
191.676612152149
 31
0.0
  0
LINE
  5
2C2
330
1D
100
AcDbEntity
  8
CSLAYER1
  6
Continuous
100
AcDbLine
 10
443.995898096886
 20
191.676612152149
 30
0.0
 11
443.995898096886
 21
190.576612152149
 31
0.0
  0
LINE
  5
317
330
1D
100
AcDbEntity
  8
CSLAYER1
  6
Continuous
100
AcDbLine
 10
225.011417096886
 20
138.576612152149
 30
0.0
 11
225.011417096886
 21
93.576612152149
 31
0.0
  0
LINE
  5
318
330
1D
100
AcDbEntity
  8
CSLAYER1
  6
Continuous
100
AcDbLine
 10
225.011417096886
 20
93.576612152149
 30
0.0
 11
226.511417096886
 21
93.576612152149
 31
0.0
  0
LINE
  5
319
330
1D
100
AcDbEntity
  8
CSLAYER1
  6
Continuous
100
AcDbLine
 10
226.511417096886
 20
93.576612152149
 30
0.0
 11
226.511417096886
 21
138.576612152149
 31
0.0
  0
LINE
  5
31A
330
1D
100
AcDbEntity
  8
CSLAYER1
  6
Continuous
100
AcDbLine
 10
226.511417096886
 20
138.576612152149
 30
0.0
 11
225.011417096886
 21
138.576612152149
 31
0.0
  0
LINE
  5
326
330
1D
100
AcDbEntity
  8
CSLAYER10
  6
Continuous
100
AcDbLine
 10
169.995898096886
 20
70.576612152149
 30
0.0
 11
169.995898096886
 21
120.626612152149
 31
0.0
  0
LINE
  5
327
330
1D
100
AcDbEntity
  8
CSLAYER10
  6
Continuous
100
AcDbLine
 10
159.995898096886
 20
127.526612152149
 30
0.0
 11
159.995898096886
 21
136.626612152149
 31
0.0
  0
LINE
  5
328
330
1D
100
AcDbEntity
  8
CSLAYER10
  6
Continuous
100
AcDbLine
 10
155.445898096886
 20
132.076612152149
 30
0.0
 11
191.995898096886
 21
132.076612152149
 31
0.0
  0
LINE
  5
329
330
1D
100
AcDbEntity
  8
CSLAYER10
  6
Continuous
100
AcDbLine
 10
182.091136096886
 20
116.076612152149
 30
0.0
 11
122.924469096886
 21
116.076612152149
 31
0.0
  0
LINE
  5
333
330
1D
100
AcDbEntity
  8
CSLAYER10
  6
Continuous
100
AcDbLine
 10
346.851060096886
 20
201.076612152149
 30
0.0
 11
449.695936096886
 21
201.076612152149
 31
0.0
  0
LINE
  5
334
330
1D
100
AcDbEntity
  8
CSLAYER10
  6
Continuous
100
AcDbLine
 10
433.495898096886
 20
213.851612152149
 30
0.0
 11
433.495898096886
 21
222.301612152149
 31
0.0
  0
LINE
  5
335
330
1D
100
AcDbEntity
  8
CSLAYER10
  6
Continuous
100
AcDbLine
 10
430.00217461183
 20
218.076612152149
 30
0.0
 11
436.989621581942
 21
218.076612152149
 31
0.0
  0
LINE
  5
336
330
1D
100
AcDbEntity
  8
CSLAYER10
  6
Continuous
100
AcDbLine
 10
433.495898096886
 20
187.966063357329
 30
0.0
 11
433.495898096886
 21
166.076612152149
 31
0.0
  0
LINE
  5
337
330
1D
100
AcDbEntity
  8
CSLAYER10
  6
Continuous
100
AcDbLine
 10
383.495898096886
 20
166.076612152149
 30
0.0
 11
383.495898096886
 21
188.081577296016
 31
0.0
  0
LINE
  5
338
330
1D
100
AcDbEntity
  8
CSLAYER10
  6
Continuous
100
AcDbLine
 10
379.653277585196
 20
184.076612152149
 30
0.0
 11
387.338518608576
 21
184.076612152149
 31
0.0
  0
LINE
  5
339
330
1D
100
AcDbEntity
  8
CSLAYER10
  6
PHANTOM
100
AcDbLine
 10
395.495898096886
 20
183.076612152149
 30
0.0
 11
395.495898096886
 21
195.076612152149
 31
0.0
  0
LINE
  5
33A
330
1D
100
AcDbEntity
  8
CSLAYER10
  6
PHANTOM
100
AcDbLine
 10
395.495898096886
 20
207.076612152149
 30
0.0
 11
395.495898096886
 21
219.076612152149
 31
0.0
  0
LINE
  5
33B
330
1D
100
AcDbEntity
  8
CSLAYER10
  6
PHANTOM
100
AcDbLine
 10
395.495898096886
 20
219.076612152149
 30
0.0
 11
398.495898096886
 21
219.076612152149
 31
0.0
  0
LINE
  5
33C
330
1D
100
AcDbEntity
  8
CSLAYER10
  6
PHANTOM
100
AcDbLine
 10
398.495898096886
 20
219.076612152149
 30
0.0
 11
398.495898096886
 21
183.076612152149
 31
0.0
  0
LINE
  5
33D
330
1D
100
AcDbEntity
  8
CSLAYER10
  6
PHANTOM
100
AcDbLine
 10
398.495898096886
 20
183.076612152149
 30
0.0
 11
395.495898096886
 21
183.076612152149
 31
0.0
  0
LINE
  5
33E
330
1D
100
AcDbEntity
  8
CSLAYER10
  6
Continuous
100
AcDbLine
 10
383.495898096886
 20
213.851612152149
 30
0.0
 11
383.495898096886
 21
222.301612152149
 31
0.0
  0
LINE
  5
33F
330
1D
100
AcDbEntity
  8
CSLAYER10
  6
Continuous
100
AcDbLine
 10
379.413030686314
 20
218.076612152149
 30
0.0
 11
387.578765507457
 21
218.076612152149
 31
0.0
  0
LINE
  5
340
330
1D
100
AcDbEntity
  8
CSLAYER10
  6
Continuous
100
AcDbLine
 10
429.697301042338
 20
184.076612152149
 30
0.0
 11
437.294495151433
 21
184.076612152149
 31
0.0
  0
LINE
  5
341
330
1D
100
AcDbEntity
  8
CSLAYER10
  6
PHANTOM
100
AcDbLine
 10
370.495898096886
 20
191.076612152149
 30
0.0
 11
350.495898096886
 21
191.076612152149
 31
0.0
  0
LINE
  5
342
330
1D
100
AcDbEntity
  8
CSLAYER10
  6
PHANTOM
100
AcDbLine
 10
350.495898096886
 20
191.076612152149
 30
0.0
 11
350.495898096886
 21
211.076612152149
 31
0.0
  0
LINE
  5
343
330
1D
100
AcDbEntity
  8
CSLAYER10
  6
PHANTOM
100
AcDbLine
 10
350.495898096886
 20
211.076612152149
 30
0.0
 11
370.495898096886
 21
211.076612152149
 31
0.0
  0
LINE
  5
348
330
1D
100
AcDbEntity
  8
CSLAYER10
  6
Continuous
100
AcDbLine
 10
233.463798096886
 20
132.076612152149
 30
0.0
 11
219.939988096886
 21
132.076612152149
 31
0.0
  0
LINE
  5
349
330
1D
100
AcDbEntity
  8
CSLAYER10
  6
Continuous
100
AcDbLine
 10
219.939988096886
 20
116.076612152149
 30
0.0
 11
233.463798096886
 21
116.076612152149
 31
0.0
  0
LINE
  5
34A
330
1D
100
AcDbEntity
  8
CSLAYER10
  6
Continuous
100
AcDbLine
 10
233.463798096886
 20
100.076612152149
 30
0.0
 11
219.939988096886
 21
100.076612152149
 31
0.0
  0
LINE
  5
34B
330
1D
100
AcDbEntity
  8
CSLAYER10
  6
Continuous
100
AcDbLine
 10
191.995898096886
 20
100.076612152149
 30
0.0
 11
155.445898096886
 21
100.076612152149
 31
0.0
  0
LINE
  5
34C
330
1D
100
AcDbEntity
  8
CSLAYER10
  6
Continuous
100
AcDbLine
 10
159.995898096886
 20
104.626612152149
 30
0.0
 11
159.995898096886
 21
70.576612152149
 31
0.0
  0
LINE
  5
370
330
1D
100
AcDbEntity
  8
CSLAYER10
  6
PHANTOM
100
AcDbLine
 10
398.495898096886
 20
96.116860152149
 30
0.0
 11
398.495898096886
 21
116.116860152149
 31
0.0
  0
LINE
  5
371
330
1D
100
AcDbEntity
  8
CSLAYER10
  6
PHANTOM
100
AcDbLine
 10
398.495898096886
 20
116.116860152149
 30
0.0
 11
395.495898096886
 21
116.116860152149
 31
0.0
  0
LINE
  5
372
330
1D
100
AcDbEntity
  8
CSLAYER10
  6
PHANTOM
100
AcDbLine
 10
395.495898096886
 20
116.116860152149
 30
0.0
 11
395.495898096886
 21
96.116860152149
 31
0.0
  0
LINE
  5
373
330
1D
100
AcDbEntity
  8
CSLAYER10
  6
PHANTOM
100
AcDbLine
 10
395.495898096886
 20
96.116860152149
 30
0.0
 11
398.495898096886
 21
96.116860152149
 31
0.0
  0
LINE
  5
374
330
1D
100
AcDbEntity
  8
CSLAYER10
  6
Continuous
100
AcDbLine
 10
405.978407096886
 20
84.684039152149
 30
0.0
 11
409.748787096886
 21
66.535554152149
 31
0.0
  0
LINE
  5
375
330
1D
100
AcDbEntity
  8
CSLAYER10
  6
Continuous
100
AcDbLine
 10
409.198461096886
 20
64.621643152149
 30
0.0
 11
409.422279096886
 21
64.559443152149
 31
0.0
  0
LINE
  5
376
330
1D
100
AcDbEntity
  8
CSLAYER10
  6
Continuous
100
AcDbLine
 10
409.422279096886
 20
64.559443152149
 30
0.0
 11
409.645715096886
 21
64.505394152149
 31
0.0
  0
LINE
  5
377
330
1D
100
AcDbEntity
  8
CSLAYER10
  6
Continuous
100
AcDbLine
 10
409.645715096886
 20
64.505394152149
 30
0.0
 11
409.867532096886
 21
64.459190152149
 31
0.0
  0
LINE
  5
378
330
1D
100
AcDbEntity
  8
CSLAYER10
  6
Continuous
100
AcDbLine
 10
409.867532096886
 20
64.459190152149
 30
0.0
 11
410.087450096886
 21
64.420263152149
 31
0.0
  0
LINE
  5
379
330
1D
100
AcDbEntity
  8
CSLAYER10
  6
Continuous
100
AcDbLine
 10
410.087450096886
 20
64.420263152149
 30
0.0
 11
410.305249096886
 21
64.388047152149
 31
0.0
  0
LINE
  5
37A
330
1D
100
AcDbEntity
  8
CSLAYER10
  6
Continuous
100
AcDbLine
 10
410.305249096886
 20
64.388047152149
 30
0.0
 11
410.520757096886
 21
64.361982152149
 31
0.0
  0
LINE
  5
37B
330
1D
100
AcDbEntity
  8
CSLAYER10
  6
Continuous
100
AcDbLine
 10
410.520757096886
 20
64.361982152149
 30
0.0
 11
410.733846096886
 21
64.341523152149
 31
0.0
  0
LINE
  5
37C
330
1D
100
AcDbEntity
  8
CSLAYER10
  6
Continuous
100
AcDbLine
 10
410.733846096886
 20
64.341523152149
 30
0.0
 11
410.944421096886
 21
64.326144152149
 31
0.0
  0
LINE
  5
37D
330
1D
100
AcDbEntity
  8
CSLAYER10
  6
Continuous
100
AcDbLine
 10
410.944421096886
 20
64.326144152149
 30
0.0
 11
411.152418096886
 21
64.315338152149
 31
0.0
  0
LINE
  5
37E
330
1D
100
AcDbEntity
  8
CSLAYER10
  6
Continuous
100
AcDbLine
 10
411.152418096886
 20
64.315338152149
 30
0.0
 11
411.357793096886
 21
64.308620152149
 31
0.0
  0
LINE
  5
37F
330
1D
100
AcDbEntity
  8
CSLAYER10
  6
Continuous
100
AcDbLine
 10
411.357793096886
 20
64.308620152149
 30
0.0
 11
411.560517096886
 21
64.305531152149
 31
0.0
  0
LINE
  5
380
330
1D
100
AcDbEntity
  8
CSLAYER10
  6
Continuous
100
AcDbLine
 10
411.560517096886
 20
64.305531152149
 30
0.0
 11
411.760570096886
 21
64.305629152149
 31
0.0
  0
LINE
  5
381
330
1D
100
AcDbEntity
  8
CSLAYER10
  6
Continuous
100
AcDbLine
 10
411.760570096886
 20
64.305629152149
 30
0.0
 11
411.957940096886
 21
64.308498152149
 31
0.0
  0
LINE
  5
382
330
1D
100
AcDbEntity
  8
CSLAYER10
  6
Continuous
100
AcDbLine
 10
411.957940096886
 20
64.308498152149
 30
0.0
 11
412.152613096886
 21
64.313740152149
 31
0.0
  0
LINE
  5
383
330
1D
100
AcDbEntity
  8
CSLAYER10
  6
Continuous
100
AcDbLine
 10
412.152613096886
 20
64.313740152149
 30
0.0
 11
412.344578096886
 21
64.320978152149
 31
0.0
  0
LINE
  5
384
330
1D
100
AcDbEntity
  8
CSLAYER10
  6
Continuous
100
AcDbLine
 10
412.344578096886
 20
64.320978152149
 30
0.0
 11
412.533817096886
 21
64.329850152149
 31
0.0
  0
LINE
  5
385
330
1D
100
AcDbEntity
  8
CSLAYER10
  6
Continuous
100
AcDbLine
 10
412.533817096886
 20
64.329850152149
 30
0.0
 11
412.720306096886
 21
64.340013152149
 31
0.0
  0
LINE
  5
386
330
1D
100
AcDbEntity
  8
CSLAYER10
  6
Continuous
100
AcDbLine
 10
412.720306096886
 20
64.340013152149
 30
0.0
 11
412.904015096886
 21
64.351141152149
 31
0.0
  0
LINE
  5
387
330
1D
100
AcDbEntity
  8
CSLAYER10
  6
Continuous
100
AcDbLine
 10
412.904015096886
 20
64.351141152149
 30
0.0
 11
413.084906096886
 21
64.362918152149
 31
0.0
  0
LINE
  5
388
330
1D
100
AcDbEntity
  8
CSLAYER10
  6
Continuous
100
AcDbLine
 10
413.084906096886
 20
64.362918152149
 30
0.0
 11
413.262930096886
 21
64.375047152149
 31
0.0
  0
LINE
  5
389
330
1D
100
AcDbEntity
  8
CSLAYER10
  6
Continuous
100
AcDbLine
 10
413.262930096886
 20
64.375047152149
 30
0.0
 11
413.438029096886
 21
64.387240152149
 31
0.0
  0
LINE
  5
38A
330
1D
100
AcDbEntity
  8
CSLAYER10
  6
Continuous
100
AcDbLine
 10
410.191438096886
 20
64.404881152149
 30
0.0
 11
410.978407096886
 21
60.616860152149
 31
0.0
  0
LINE
  5
38B
330
1D
100
AcDbEntity
  8
CSLAYER10
  6
Continuous
100
AcDbLine
 10
409.198461096886
 20
64.621643152149
 30
0.0
 11
408.980488096886
 21
64.690398152149
 31
0.0
  0
LINE
  5
38C
330
1D
100
AcDbEntity
  8
CSLAYER10
  6
Continuous
100
AcDbLine
 10
408.980488096886
 20
64.690398152149
 30
0.0
 11
408.768500096886
 21
64.764950152149
 31
0.0
  0
LINE
  5
38D
330
1D
100
AcDbEntity
  8
CSLAYER10
  6
Continuous
100
AcDbLine
 10
408.768500096886
 20
64.764950152149
 30
0.0
 11
408.562714096886
 21
64.844419152149
 31
0.0
  0
LINE
  5
38E
330
1D
100
AcDbEntity
  8
CSLAYER10
  6
Continuous
100
AcDbLine
 10
408.562714096886
 20
64.844419152149
 30
0.0
 11
408.362967096886
 21
64.928077152149
 31
0.0
  0
LINE
  5
38F
330
1D
100
AcDbEntity
  8
CSLAYER10
  6
Continuous
100
AcDbLine
 10
408.362967096886
 20
64.928077152149
 30
0.0
 11
408.169052096886
 21
65.015241152149
 31
0.0
  0
LINE
  5
390
330
1D
100
AcDbEntity
  8
CSLAYER10
  6
Continuous
100
AcDbLine
 10
408.169052096886
 20
65.015241152149
 30
0.0
 11
407.980733096886
 21
65.105276152149
 31
0.0
  0
LINE
  5
391
330
1D
100
AcDbEntity
  8
CSLAYER10
  6
Continuous
100
AcDbLine
 10
407.980733096886
 20
65.105276152149
 30
0.0
 11
407.797758096886
 21
65.197595152149
 31
0.0
  0
LINE
  5
392
330
1D
100
AcDbEntity
  8
CSLAYER10
  6
Continuous
100
AcDbLine
 10
407.797758096886
 20
65.197595152149
 30
0.0
 11
407.619868096886
 21
65.291650152149
 31
0.0
  0
LINE
  5
393
330
1D
100
AcDbEntity
  8
CSLAYER10
  6
Continuous
100
AcDbLine
 10
407.619868096886
 20
65.291650152149
 30
0.0
 11
407.446803096886
 21
65.386932152149
 31
0.0
  0
LINE
  5
394
330
1D
100
AcDbEntity
  8
CSLAYER10
  6
Continuous
100
AcDbLine
 10
407.446803096886
 20
65.386932152149
 30
0.0
 11
407.278314096886
 21
65.482966152149
 31
0.0
  0
LINE
  5
395
330
1D
100
AcDbEntity
  8
CSLAYER10
  6
Continuous
100
AcDbLine
 10
407.278314096886
 20
65.482966152149
 30
0.0
 11
407.114162096886
 21
65.579306152149
 31
0.0
  0
LINE
  5
396
330
1D
100
AcDbEntity
  8
CSLAYER10
  6
Continuous
100
AcDbLine
 10
407.114162096886
 20
65.579306152149
 30
0.0
 11
406.954124096886
 21
65.675530152149
 31
0.0
  0
LINE
  5
397
330
1D
100
AcDbEntity
  8
CSLAYER10
  6
Continuous
100
AcDbLine
 10
406.954124096886
 20
65.675530152149
 30
0.0
 11
406.797998096886
 21
65.771236152149
 31
0.0
  0
LINE
  5
398
330
1D
100
AcDbEntity
  8
CSLAYER10
  6
Continuous
100
AcDbLine
 10
406.797998096886
 20
65.771236152149
 30
0.0
 11
406.645601096886
 21
65.866042152149
 31
0.0
  0
LINE
  5
399
330
1D
100
AcDbEntity
  8
CSLAYER10
  6
Continuous
100
AcDbLine
 10
406.645601096886
 20
65.866042152149
 30
0.0
 11
406.496773096886
 21
65.959581152149
 31
0.0
  0
LINE
  5
39A
330
1D
100
AcDbEntity
  8
CSLAYER10
  6
Continuous
100
AcDbLine
 10
406.496773096886
 20
65.959581152149
 30
0.0
 11
406.351377096886
 21
66.051500152149
 31
0.0
  0
LINE
  5
39B
330
1D
100
AcDbEntity
  8
CSLAYER10
  6
Continuous
100
AcDbLine
 10
406.351377096886
 20
66.051500152149
 30
0.0
 11
406.209299096886
 21
66.141459152149
 31
0.0
  0
LINE
  5
39C
330
1D
100
AcDbEntity
  8
CSLAYER10
  6
Continuous
100
AcDbLine
 10
406.209299096886
 20
66.141459152149
 30
0.0
 11
406.070449096886
 21
66.229128152149
 31
0.0
  0
LINE
  5
39D
330
1D
100
AcDbEntity
  8
CSLAYER10
  6
Continuous
100
AcDbLine
 10
406.070449096886
 20
66.229128152149
 30
0.0
 11
405.934762096886
 21
66.314193152149
 31
0.0
  0
LINE
  5
39E
330
1D
100
AcDbEntity
  8
CSLAYER10
  6
Continuous
100
AcDbLine
 10
405.934762096886
 20
66.314193152149
 30
0.0
 11
405.802193096886
 21
66.396349152149
 31
0.0
  0
LINE
  5
39F
330
1D
100
AcDbEntity
  8
CSLAYER10
  6
Continuous
100
AcDbLine
 10
405.802193096886
 20
66.396349152149
 30
0.0
 11
405.671871096886
 21
66.475826152149
 31
0.0
  0
LINE
  5
3A0
330
1D
100
AcDbEntity
  8
CSLAYER10
  6
Continuous
100
AcDbLine
 10
405.671871096886
 20
66.475826152149
 30
0.0
 11
405.560511096886
 21
66.542498152149
 31
0.0
  0
LINE
  5
3A1
330
1D
100
AcDbEntity
  8
CSLAYER10
  6
Continuous
100
AcDbLine
 10
405.560511096886
 20
66.542498152149
 30
0.0
 11
405.448109096886
 21
66.608637152149
 31
0.0
  0
LINE
  5
3A2
330
1D
100
AcDbEntity
  8
CSLAYER10
  6
Continuous
100
AcDbLine
 10
405.448109096886
 20
66.608637152149
 30
0.0
 11
405.334844096886
 21
66.674182152149
 31
0.0
  0
LINE
  5
3A3
330
1D
100
AcDbEntity
  8
CSLAYER10
  6
Continuous
100
AcDbLine
 10
405.334844096886
 20
66.674182152149
 30
0.0
 11
405.220715096886
 21
66.739180152149
 31
0.0
  0
LINE
  5
3A4
330
1D
100
AcDbEntity
  8
CSLAYER10
  6
Continuous
100
AcDbLine
 10
405.220715096886
 20
66.739180152149
 30
0.0
 11
405.105723096886
 21
66.803678152149
 31
0.0
  0
LINE
  5
3A5
330
1D
100
AcDbEntity
  8
CSLAYER10
  6
Continuous
100
AcDbLine
 10
405.105723096886
 20
66.803678152149
 30
0.0
 11
404.989870096886
 21
66.867722152149
 31
0.0
  0
LINE
  5
3A6
330
1D
100
AcDbEntity
  8
CSLAYER10
  6
Continuous
100
AcDbLine
 10
404.989870096886
 20
66.867722152149
 30
0.0
 11
404.873159096886
 21
66.931360152149
 31
0.0
  0
LINE
  5
3A7
330
1D
100
AcDbEntity
  8
CSLAYER10
  6
Continuous
100
AcDbLine
 10
404.873159096886
 20
66.931360152149
 30
0.0
 11
404.755594096886
 21
66.994637152149
 31
0.0
  0
LINE
  5
3A8
330
1D
100
AcDbEntity
  8
CSLAYER10
  6
Continuous
100
AcDbLine
 10
404.755594096886
 20
66.994637152149
 30
0.0
 11
404.637180096886
 21
67.057603152149
 31
0.0
  0
LINE
  5
3A9
330
1D
100
AcDbEntity
  8
CSLAYER10
  6
Continuous
100
AcDbLine
 10
404.637180096886
 20
67.057603152149
 30
0.0
 11
404.517923096886
 21
67.120303152149
 31
0.0
  0
LINE
  5
3AA
330
1D
100
AcDbEntity
  8
CSLAYER10
  6
Continuous
100
AcDbLine
 10
404.517923096886
 20
67.120303152149
 30
0.0
 11
404.397830096886
 21
67.182787152149
 31
0.0
  0
LINE
  5
3AB
330
1D
100
AcDbEntity
  8
CSLAYER10
  6
Continuous
100
AcDbLine
 10
404.397830096886
 20
67.182787152149
 30
0.0
 11
404.276908096886
 21
67.245103152149
 31
0.0
  0
LINE
  5
3AC
330
1D
100
AcDbEntity
  8
CSLAYER10
  6
Continuous
100
AcDbLine
 10
404.276908096886
 20
67.245103152149
 30
0.0
 11
404.155167096886
 21
67.307300152149
 31
0.0
  0
LINE
  5
3AD
330
1D
100
AcDbEntity
  8
CSLAYER10
  6
Continuous
100
AcDbLine
 10
404.155167096886
 20
67.307300152149
 30
0.0
 11
404.032616096886
 21
67.369427152149
 31
0.0
  0
LINE
  5
3AE
330
1D
100
AcDbEntity
  8
CSLAYER10
  6
Continuous
100
AcDbLine
 10
404.032616096886
 20
67.369427152149
 30
0.0
 11
403.909265096886
 21
67.431534152149
 31
0.0
  0
LINE
  5
3AF
330
1D
100
AcDbEntity
  8
CSLAYER10
  6
Continuous
100
AcDbLine
 10
403.909265096886
 20
67.431534152149
 30
0.0
 11
403.785126096886
 21
67.493672152149
 31
0.0
  0
LINE
  5
3B0
330
1D
100
AcDbEntity
  8
CSLAYER10
  6
Continuous
100
AcDbLine
 10
403.785126096886
 20
67.493672152149
 30
0.0
 11
403.660210096886
 21
67.555893152149
 31
0.0
  0
LINE
  5
3B1
330
1D
100
AcDbEntity
  8
CSLAYER10
  6
Continuous
100
AcDbLine
 10
403.660210096886
 20
67.555893152149
 30
0.0
 11
403.534530096886
 21
67.618247152149
 31
0.0
  0
LINE
  5
3B2
330
1D
100
AcDbEntity
  8
CSLAYER10
  6
Continuous
100
AcDbLine
 10
403.534530096886
 20
67.618247152149
 30
0.0
 11
403.408100096886
 21
67.680788152149
 31
0.0
  0
LINE
  5
3B3
330
1D
100
AcDbEntity
  8
CSLAYER10
  6
Continuous
100
AcDbLine
 10
407.454192096886
 20
67.720459152149
 30
0.0
 11
410.978407096886
 21
84.684039152149
 31
0.0
  0
LINE
  5
3B4
330
1D
100
AcDbEntity
  8
CSLAYER10
  6
Continuous
100
AcDbLine
 10
407.021001096886
 20
65.635319152149
 30
0.0
 11
405.978407096886
 21
60.616860152149
 31
0.0
  0
LINE
  5
3B5
330
1D
100
AcDbEntity
  8
CSLAYER10
  6
Continuous
100
AcDbLine
 10
383.495898096886
 20
78.987540152149
 30
0.0
 11
383.495898096886
 21
91.145445152149
 31
0.0
  0
LINE
  5
3B6
330
1D
100
AcDbEntity
  8
CSLAYER10
  6
Continuous
100
AcDbLine
 10
433.495898096886
 20
91.537635152149
 30
0.0
 11
433.495898096886
 21
78.595349152149
 31
0.0
  0
LINE
  5
3B7
330
1D
100
AcDbEntity
  8
CSLAYER10
  6
PHANTOM
100
AcDbLine
 10
370.495898096886
 20
91.116860152149
 30
0.0
 11
350.495898096886
 21
91.116860152149
 31
0.0
  0
LINE
  5
3B8
330
1D
100
AcDbEntity
  8
CSLAYER10
  6
PHANTOM
100
AcDbLine
 10
350.495898096886
 20
91.116860152149
 30
0.0
 11
350.495898096886
 21
97.616860152149
 31
0.0
  0
ARC
  5
3B9
330
1D
100
AcDbEntity
  8
CSLAYER10
  6
PHANTOM
100
AcDbCircle
 10
351.995898096886
 20
97.616860152149
 30
0.0
 40
1.5
100
AcDbArc
 50
90.0
 51
180.0
  0
LINE
  5
3BA
330
1D
100
AcDbEntity
  8
CSLAYER10
  6
PHANTOM
100
AcDbLine
 10
351.995898096886
 20
99.116860152149
 30
0.0
 11
371.995898096886
 21
99.116860152149
 31
0.0
  0
TEXT
  5
3CA
330
1D
100
AcDbEntity
  8
CSLAYER10
100
AcDbText
 10
355.65
 20
13.281871
 30
0.0
 40
2.7
  1
 
 41
1.666666666667
  7
FX_FONT
 72
     5
 11
358.35
 21
13.281871
 31
0.0
100
AcDbText
  0
TEXT
  5
3E4
330
1D
100
AcDbEntity
  8
CSLAYER10
100
AcDbText
 10
399.301379096886
 20
137.007185152149
 30
0.0
 40
4.0
  1
スライド
 41
0.671641791045
  7
FX_FONT
 72
     5
 11
411.301379096886
 21
137.007185152149
 31
0.0
100
AcDbText
  0
CIRCLE
  5
5AE
330
1D
100
AcDbEntity
  8
CSLAYER1
  6
Continuous
100
AcDbCircle
 10
128.870065673642
 20
201.076612152149
 30
0.0
 40
32.5
  0
CIRCLE
  5
5AF
330
1D
100
AcDbEntity
  8
CSLAYER1
  6
Continuous
100
AcDbCircle
 10
128.870065673642
 20
201.076612152149
 30
0.0
 40
30.0
  0
CIRCLE
  5
5B0
330
1D
100
AcDbEntity
  8
CSLAYER1
  6
Continuous
100
AcDbCircle
 10
128.870065673642
 20
201.076612152149
 30
0.0
 40
25.0
  0
CIRCLE
  5
5B1
330
1D
100
AcDbEntity
  8
CSLAYER1
  6
Continuous
100
AcDbCircle
 10
128.870065673642
 20
201.076612152149
 30
0.0
 40
20.0
  0
CIRCLE
  5
5B2
330
1D
100
AcDbEntity
  8
CSLAYER1
  6
Continuous
100
AcDbCircle
 10
128.870065673642
 20
201.076612152149
 30
0.0
 40
22.5
  0
LINE
  5
5B3
330
1D
100
AcDbEntity
  8
CSLAYER1
  6
Continuous
100
AcDbLine
 10
124.870065673642
 20
209.138870152149
 30
0.0
 11
121.870065673642
 21
215.464107152149
 31
0.0
  0
ARC
  5
5B4
330
1D
100
AcDbEntity
  8
CSLAYER1
  6
Continuous
100
AcDbCircle
 10
128.870065673642
 20
201.076612152149
 30
0.0
 40
16.0
100
AcDbArc
 50
64.05552
 51
115.94448
  0
LINE
  5
5B5
330
1D
100
AcDbEntity
  8
CSLAYER1
  6
Continuous
100
AcDbLine
 10
135.870065673642
 20
215.464107152149
 30
0.0
 11
132.870065673642
 21
209.138870152149
 31
0.0
  0
ARC
  5
5B6
330
1D
100
AcDbEntity
  8
CSLAYER1
  6
Continuous
100
AcDbCircle
 10
128.870065673642
 20
201.076612152149
 30
0.0
 40
9.0
100
AcDbArc
 50
63.6122
 51
116.3878
  0
LINE
  5
5BB
330
1D
100
AcDbEntity
  8
CSLAYER1
  6
Continuous
100
AcDbLine
 10
318.388605673642
 20
191.076612152149
 30
0.0
 11
318.388605673642
 21
211.076612152149
 31
0.0
  0
ARC
  5
5BC
330
1D
100
AcDbEntity
  8
CSLAYER1
  6
Continuous
100
AcDbCircle
 10
310.388605673642
 20
211.076612152149
 30
0.0
 40
8.0
100
AcDbArc
 50
0.0
 51
90.0
  0
LINE
  5
5BD
330
1D
100
AcDbEntity
  8
CSLAYER1
  6
Continuous
100
AcDbLine
 10
310.388605673642
 20
219.076612152149
 30
0.0
 11
300.388605673642
 21
219.076612152149
 31
0.0
  0
ARC
  5
5BE
330
1D
100
AcDbEntity
  8
CSLAYER1
  6
Continuous
100
AcDbCircle
 10
300.388605673642
 20
217.076612152149
 30
0.0
 40
2.0
100
AcDbArc
 50
90.0
 51
180.0
  0
LINE
  5
5BF
330
1D
100
AcDbEntity
  8
CSLAYER1
  6
Continuous
100
AcDbLine
 10
298.388605673642
 20
217.076612152149
 30
0.0
 11
298.388605673642
 21
215.076612152149
 31
0.0
  0
ARC
  5
5C0
330
1D
100
AcDbEntity
  8
CSLAYER1
  6
Continuous
100
AcDbCircle
 10
299.388605673642
 20
215.076612152149
 30
0.0
 40
1.0
100
AcDbArc
 50
180.0
 51
270.0
  0
LINE
  5
5C1
330
1D
100
AcDbEntity
  8
CSLAYER1
  6
Continuous
100
AcDbLine
 10
299.388605673642
 20
214.076612152149
 30
0.0
 11
301.888605673642
 21
214.076612152149
 31
0.0
  0
ARC
  5
5C2
330
1D
100
AcDbEntity
  8
CSLAYER1
  6
Continuous
100
AcDbCircle
 10
301.888605673642
 20
212.576612152149
 30
0.0
 40
1.5
100
AcDbArc
 50
0.0
 51
90.0
  0
LINE
  5
5C3
330
1D
100
AcDbEntity
  8
CSLAYER1
  6
Continuous
100
AcDbLine
 10
303.388605673642
 20
212.576612152149
 30
0.0
 11
303.388605673642
 21
207.076612152149
 31
0.0
  0
ARC
  5
5C4
330
1D
100
AcDbEntity
  8
CSLAYER1
  6
Continuous
100
AcDbCircle
 10
302.888605673642
 20
207.076612152149
 30
0.0
 40
0.5
100
AcDbArc
 50
270.0
 51
0.0
  0
LINE
  5
5C5
330
1D
100
AcDbEntity
  8
CSLAYER1
  6
Continuous
100
AcDbLine
 10
302.888605673642
 20
206.576612152149
 30
0.0
 11
302.388605673642
 21
206.576612152149
 31
0.0
  0
LINE
  5
5C6
330
1D
100
AcDbEntity
  8
CSLAYER1
  6
Continuous
100
AcDbLine
 10
301.388605673642
 20
206.576612152149
 30
0.0
 11
300.888605673642
 21
206.576612152149
 31
0.0
  0
LINE
  5
5C7
330
1D
100
AcDbEntity
  8
CSLAYER1
  6
Continuous
100
AcDbLine
 10
300.888605673642
 20
209.530335152149
 30
0.0
 11
300.888605673642
 21
192.530335152149
 31
0.0
  0
ARC
  5
5C8
330
1D
100
AcDbEntity
  8
CSLAYER1
  6
Continuous
100
AcDbCircle
 10
299.388605673642
 20
192.530335152149
 30
0.0
 40
1.5
100
AcDbArc
 50
270.0
 51
0.0
  0
LINE
  5
5C9
330
1D
100
AcDbEntity
  8
CSLAYER1
  6
Continuous
100
AcDbLine
 10
299.388605673642
 20
191.030335152149
 30
0.0
 11
292.588605673642
 21
191.030335152149
 31
0.0
  0
LINE
  5
5CA
330
1D
100
AcDbEntity
  8
CSLAYER1
  6
Continuous
100
AcDbLine
 10
292.588605673642
 20
190.676612152149
 30
0.0
 11
291.588605673642
 21
190.676612152149
 31
0.0
  0
LINE
  5
5CB
330
1D
100
AcDbEntity
  8
CSLAYER1
  6
Continuous
100
AcDbLine
 10
291.588605673642
 20
190.676612152149
 30
0.0
 11
291.588605673642
 21
189.076612152149
 31
0.0
  0
LINE
  5
5CC
330
1D
100
AcDbEntity
  8
CSLAYER1
  6
Continuous
100
AcDbLine
 10
291.588605673642
 20
189.076612152149
 30
0.0
 11
287.388605673642
 21
189.076612152149
 31
0.0
  0
LINE
  5
5CD
330
1D
100
AcDbEntity
  8
CSLAYER1
  6
Continuous
100
AcDbLine
 10
287.388605673642
 20
190.276612152149
 30
0.0
 11
286.388605673642
 21
190.276612152149
 31
0.0
  0
LINE
  5
5CE
330
1D
100
AcDbEntity
  8
CSLAYER1
  6
Continuous
100
AcDbLine
 10
286.388605673642
 20
190.276612152149
 30
0.0
 11
286.388605673642
 21
178.076612152149
 31
0.0
  0
LINE
  5
5CF
330
1D
100
AcDbEntity
  8
CSLAYER1
  6
Continuous
100
AcDbLine
 10
286.388605673642
 20
178.076612152149
 30
0.0
 11
287.388605673642
 21
178.076612152149
 31
0.0
  0
LINE
  5
5D0
330
1D
100
AcDbEntity
  8
CSLAYER1
  6
Continuous
100
AcDbLine
 10
287.388605673642
 20
178.076612152149
 30
0.0
 11
287.388605673642
 21
191.676612152149
 31
0.0
  0
LINE
  5
5D1
330
1D
100
AcDbEntity
  8
CSLAYER1
  6
Continuous
100
AcDbLine
 10
287.388605673642
 20
191.676612152149
 30
0.0
 11
286.388605673642
 21
191.676612152149
 31
0.0
  0
LINE
  5
5D2
330
1D
100
AcDbEntity
  8
CSLAYER1
  6
Continuous
100
AcDbLine
 10
286.388605673642
 20
191.676612152149
 30
0.0
 11
286.388605673642
 21
210.476612152149
 31
0.0
  0
LINE
  5
5D3
330
1D
100
AcDbEntity
  8
CSLAYER1
  6
Continuous
100
AcDbLine
 10
286.388605673642
 20
210.476612152149
 30
0.0
 11
287.388605673642
 21
210.476612152149
 31
0.0
  0
LINE
  5
5D4
330
1D
100
AcDbEntity
  8
CSLAYER1
  6
Continuous
100
AcDbLine
 10
287.388605673642
 20
210.476612152149
 30
0.0
 11
287.388605673642
 21
224.076612152149
 31
0.0
  0
LINE
  5
5D5
330
1D
100
AcDbEntity
  8
CSLAYER1
  6
Continuous
100
AcDbLine
 10
287.388605673642
 20
224.076612152149
 30
0.0
 11
286.388605673642
 21
224.076612152149
 31
0.0
  0
LINE
  5
5D6
330
1D
100
AcDbEntity
  8
CSLAYER1
  6
Continuous
100
AcDbLine
 10
286.388605673642
 20
224.076612152149
 30
0.0
 11
286.388605673642
 21
211.876612152149
 31
0.0
  0
LINE
  5
5D7
330
1D
100
AcDbEntity
  8
CSLAYER1
  6
Continuous
100
AcDbLine
 10
286.388605673642
 20
211.876612152149
 30
0.0
 11
287.388605673642
 21
211.876612152149
 31
0.0
  0
ARC
  5
5D8
330
1D
100
AcDbEntity
  8
CSLAYER1
  6
Continuous
100
AcDbCircle
 10
287.388605673642
 20
212.576612152149
 30
0.0
 40
1.0
100
AcDbArc
 50
224.427003999999
 51
270.0
  0
ARC
  5
5D9
330
1D
100
AcDbEntity
  8
CSLAYER1
  6
Continuous
100
AcDbCircle
 10
287.388605673642
 20
210.476612152149
 30
0.0
 40
1.0
100
AcDbArc
 50
90.0
 51
180.0
  0
LINE
  5
5DA
330
1D
100
AcDbEntity
  8
CSLAYER1
  6
Continuous
100
AcDbLine
 10
287.388605673642
 20
213.076612152149
 30
0.0
 11
291.588605673642
 21
213.076612152149
 31
0.0
  0
LINE
  5
5DB
330
1D
100
AcDbEntity
  8
CSLAYER1
  6
Continuous
100
AcDbLine
 10
291.588605673642
 20
213.076612152149
 30
0.0
 11
291.588605673642
 21
211.476612152149
 31
0.0
  0
LINE
  5
5DC
330
1D
100
AcDbEntity
  8
CSLAYER1
  6
Continuous
100
AcDbLine
 10
291.588605673642
 20
211.476612152149
 30
0.0
 11
292.588605673642
 21
211.476612152149
 31
0.0
  0
LINE
  5
5DD
330
1D
100
AcDbEntity
  8
CSLAYER1
  6
Continuous
100
AcDbLine
 10
292.588605673642
 20
211.476612152149
 30
0.0
 11
292.588605673642
 21
190.676612152149
 31
0.0
  0
LINE
  5
5DE
330
1D
100
AcDbEntity
  8
CSLAYER1
  6
Continuous
100
AcDbLine
 10
291.888605673642
 20
190.576612152149
 30
0.0
 11
291.888605673642
 21
189.576612152149
 31
0.0
  0
LINE
  5
5DF
330
1D
100
AcDbEntity
  8
CSLAYER1
  6
Continuous
100
AcDbLine
 10
291.588605673642
 20
189.576612152149
 30
0.0
 11
301.388605673642
 21
189.576612152149
 31
0.0
  0
ARC
  5
5E0
330
1D
100
AcDbEntity
  8
CSLAYER1
  6
Continuous
100
AcDbCircle
 10
301.388605673642
 20
190.576612152149
 30
0.0
 40
1.0
100
AcDbArc
 50
270.0
 51
0.0
  0
LINE
  5
5E1
330
1D
100
AcDbEntity
  8
CSLAYER1
  6
Continuous
100
AcDbLine
 10
302.388605673642
 20
190.576612152149
 30
0.0
 11
302.388605673642
 21
211.576612152149
 31
0.0
  0
ARC
  5
5E2
330
1D
100
AcDbEntity
  8
CSLAYER1
  6
Continuous
100
AcDbCircle
 10
301.388605673642
 20
211.576612152149
 30
0.0
 40
1.0
100
AcDbArc
 50
0.0
 51
90.0
  0
LINE
  5
5E3
330
1D
100
AcDbEntity
  8
CSLAYER1
  6
Continuous
100
AcDbLine
 10
301.388605673642
 20
212.576612152149
 30
0.0
 11
291.588605673642
 21
212.576612152149
 31
0.0
  0
LINE
  5
5E4
330
1D
100
AcDbEntity
  8
CSLAYER1
  6
Continuous
100
AcDbLine
 10
291.888605673642
 20
212.576612152149
 30
0.0
 11
291.888605673642
 21
211.576612152149
 31
0.0
  0
LINE
  5
5E5
330
1D
100
AcDbEntity
  8
CSLAYER1
  6
Continuous
100
AcDbLine
 10
291.588605673642
 20
211.576612152149
 30
0.0
 11
301.388605673642
 21
211.576612152149
 31
0.0
  0
LINE
  5
5E6
330
1D
100
AcDbEntity
  8
CSLAYER1
  6
Continuous
100
AcDbLine
 10
301.388605673642
 20
211.576612152149
 30
0.0
 11
301.388605673642
 21
190.576612152149
 31
0.0
  0
LINE
  5
5E7
330
1D
100
AcDbEntity
  8
CSLAYER1
  6
Continuous
100
AcDbLine
 10
301.388605673642
 20
190.576612152149
 30
0.0
 11
291.588605673642
 21
190.576612152149
 31
0.0
  0
LINE
  5
5E8
330
1D
100
AcDbEntity
  8
CSLAYER1
  6
Continuous
100
AcDbLine
 10
292.588605673642
 20
192.622889152149
 30
0.0
 11
299.388605673642
 21
192.622889152149
 31
0.0
  0
LINE
  5
5E9
330
1D
100
AcDbEntity
  8
CSLAYER1
  6
Continuous
100
AcDbLine
 10
300.888605673642
 20
195.576612152149
 30
0.0
 11
301.388605673642
 21
195.576612152149
 31
0.0
  0
LINE
  5
5EA
330
1D
100
AcDbEntity
  8
CSLAYER1
  6
Continuous
100
AcDbLine
 10
302.388605673642
 20
195.576612152149
 30
0.0
 11
302.888605673642
 21
195.576612152149
 31
0.0
  0
ARC
  5
5EB
330
1D
100
AcDbEntity
  8
CSLAYER1
  6
Continuous
100
AcDbCircle
 10
302.888605673642
 20
195.076612152149
 30
0.0
 40
0.5
100
AcDbArc
 50
0.0
 51
90.0
  0
LINE
  5
5EC
330
1D
100
AcDbEntity
  8
CSLAYER1
  6
Continuous
100
AcDbLine
 10
303.388605673642
 20
195.076612152149
 30
0.0
 11
303.388605673642
 21
189.576612152149
 31
0.0
  0
ARC
  5
5ED
330
1D
100
AcDbEntity
  8
CSLAYER1
  6
Continuous
100
AcDbCircle
 10
301.888605673642
 20
189.576612152149
 30
0.0
 40
1.5
100
AcDbArc
 50
270.0
 51
0.0
  0
LINE
  5
5EE
330
1D
100
AcDbEntity
  8
CSLAYER1
  6
Continuous
100
AcDbLine
 10
301.888605673642
 20
188.076612152149
 30
0.0
 11
299.388605673642
 21
188.076612152149
 31
0.0
  0
ARC
  5
5EF
330
1D
100
AcDbEntity
  8
CSLAYER1
  6
Continuous
100
AcDbCircle
 10
299.388605673642
 20
187.076612152149
 30
0.0
 40
1.0
100
AcDbArc
 50
90.0
 51
180.0
  0
LINE
  5
5F0
330
1D
100
AcDbEntity
  8
CSLAYER1
  6
Continuous
100
AcDbLine
 10
298.388605673642
 20
187.076612152149
 30
0.0
 11
298.388605673642
 21
185.076612152149
 31
0.0
  0
ARC
  5
5F1
330
1D
100
AcDbEntity
  8
CSLAYER1
  6
Continuous
100
AcDbCircle
 10
300.388605673642
 20
185.076612152149
 30
0.0
 40
2.0
100
AcDbArc
 50
180.0
 51
270.0
  0
LINE
  5
5F2
330
1D
100
AcDbEntity
  8
CSLAYER1
  6
Continuous
100
AcDbLine
 10
300.388605673642
 20
183.076612152149
 30
0.0
 11
310.388605673642
 21
183.076612152149
 31
0.0
  0
ARC
  5
5F3
330
1D
100
AcDbEntity
  8
CSLAYER1
  6
Continuous
100
AcDbCircle
 10
310.388605673642
 20
191.076612152149
 30
0.0
 40
8.0
100
AcDbArc
 50
270.0
 51
0.0
  0
ARC
  5
5F4
330
1D
100
AcDbEntity
  8
CSLAYER1
  6
Continuous
100
AcDbCircle
 10
299.388605673642
 20
209.530335152149
 30
0.0
 40
1.5
100
AcDbArc
 50
0.0
 51
90.0
  0
LINE
  5
5F5
330
1D
100
AcDbEntity
  8
CSLAYER1
  6
Continuous
100
AcDbLine
 10
299.388605673642
 20
211.030335152149
 30
0.0
 11
292.588605673642
 21
211.030335152149
 31
0.0
  0
LINE
  5
5F6
330
1D
100
AcDbEntity
  8
CSLAYER1
  6
Continuous
100
AcDbLine
 10
292.588605673642
 20
209.530335152149
 30
0.0
 11
299.388605673642
 21
209.530335152149
 31
0.0
  0
LINE
  5
5F7
330
1D
100
AcDbEntity
  8
CSLAYER1
  6
Continuous
100
AcDbLine
 10
286.388605673642
 20
204.026612152149
 30
0.0
 11
258.388605673642
 21
204.026612152149
 31
0.0
  0
LINE
  5
5F8
330
1D
100
AcDbEntity
  8
CSLAYER1
  6
Continuous
100
AcDbLine
 10
258.388605673642
 20
198.126612152149
 30
0.0
 11
286.388605673642
 21
198.126612152149
 31
0.0
  0
ARC
  5
5F9
330
1D
100
AcDbEntity
  8
CSLAYER1
  6
Continuous
100
AcDbCircle
 10
287.388605673642
 20
191.676612152149
 30
0.0
 40
1.0
100
AcDbArc
 50
180.0
 51
270.0
  0
ARC
  5
5FA
330
1D
100
AcDbEntity
  8
CSLAYER1
  6
Continuous
100
AcDbCircle
 10
287.388605673642
 20
189.576612152149
 30
0.0
 40
1.0
100
AcDbArc
 50
90.0
 51
135.572996000001
  0
LINE
  5
5FB
330
1D
100
AcDbEntity
  8
CSLAYER1
  6
Continuous
100
AcDbLine
 10
258.388605673642
 20
168.576612152149
 30
0.0
 11
250.888605673642
 21
168.576612152149
 31
0.0
  0
ARC
  5
5FC
330
1D
100
AcDbEntity
  8
CSLAYER1
  6
Continuous
100
AcDbCircle
 10
250.888605673642
 20
169.076612152149
 30
0.0
 40
0.5
100
AcDbArc
 50
180.0
 51
270.0
  0
LINE
  5
5FD
330
1D
100
AcDbEntity
  8
CSLAYER1
  6
Continuous
100
AcDbLine
 10
250.388605673642
 20
169.076612152149
 30
0.0
 11
250.388605673642
 21
233.076612152149
 31
0.0
  0
ARC
  5
5FE
330
1D
100
AcDbEntity
  8
CSLAYER1
  6
Continuous
100
AcDbCircle
 10
250.888605673642
 20
233.076612152149
 30
0.0
 40
0.5
100
AcDbArc
 50
90.0
 51
180.0
  0
LINE
  5
5FF
330
1D
100
AcDbEntity
  8
CSLAYER1
  6
Continuous
100
AcDbLine
 10
250.888605673642
 20
233.576612152149
 30
0.0
 11
258.388605673642
 21
233.576612152149
 31
0.0
  0
LINE
  5
600
330
1D
100
AcDbEntity
  8
CSLAYER1
  6
Continuous
100
AcDbLine
 10
258.388605673642
 20
233.576612152149
 30
0.0
 11
258.388605673642
 21
168.576612152149
 31
0.0
  0
ARC
  5
601
330
1D
100
AcDbEntity
  8
CSLAYER1
  6
Continuous
100
AcDbCircle
 10
250.788605673642
 20
168.976612152149
 30
0.0
 40
0.4
100
AcDbArc
 50
180.0
 51
270.0
  0
ARC
  5
602
330
1D
100
AcDbEntity
  8
CSLAYER1
  6
Continuous
100
AcDbCircle
 10
250.388605673642
 20
171.476612152149
 30
0.0
 40
0.4
100
AcDbArc
 50
187.751778999991
 51
270.0
  0
LINE
  5
603
330
1D
100
AcDbEntity
  8
CSLAYER1
  6
Continuous
100
AcDbLine
 10
249.992260673642
 20
171.422659152149
 30
0.0
 11
248.263720673642
 21
184.120784152149
 31
0.0
  0
ARC
  5
604
330
1D
100
AcDbEntity
  8
CSLAYER1
  6
Continuous
100
AcDbCircle
 10
241.327688673642
 20
183.176612152149
 30
0.0
 40
7.0
100
AcDbArc
 50
7.751779
 51
90.0
  0
LINE
  5
605
330
1D
100
AcDbEntity
  8
CSLAYER1
  6
Continuous
100
AcDbLine
 10
241.327688673642
 20
190.176612152149
 30
0.0
 11
233.388605673642
 21
190.176612152149
 31
0.0
  0
LINE
  5
606
330
1D
100
AcDbEntity
  8
CSLAYER1
  6
Continuous
100
AcDbLine
 10
233.388605673642
 20
211.976612152149
 30
0.0
 11
241.327688673642
 21
211.976612152149
 31
0.0
  0
ARC
  5
607
330
1D
100
AcDbEntity
  8
CSLAYER1
  6
Continuous
100
AcDbCircle
 10
241.327688673642
 20
218.976612152149
 30
0.0
 40
7.0
100
AcDbArc
 50
270.0
 51
352.248221
  0
LINE
  5
608
330
1D
100
AcDbEntity
  8
CSLAYER1
  6
Continuous
100
AcDbLine
 10
248.263720673642
 20
218.032440152149
 30
0.0
 11
249.992260673642
 21
230.730565152149
 31
0.0
  0
ARC
  5
609
330
1D
100
AcDbEntity
  8
CSLAYER1
  6
Continuous
100
AcDbCircle
 10
250.388605673642
 20
230.676612152149
 30
0.0
 40
0.4
100
AcDbArc
 50
90.0
 51
172.248221000001
  0
ARC
  5
60A
330
1D
100
AcDbEntity
  8
CSLAYER1
  6
Continuous
100
AcDbCircle
 10
250.788605673642
 20
233.176612152149
 30
0.0
 40
0.4
100
AcDbArc
 50
90.0
 51
180.0
  0
LINE
  5
60B
330
1D
100
AcDbEntity
  8
CSLAYER1
  6
Continuous
100
AcDbLine
 10
233.388605673642
 20
221.715107152149
 30
0.0
 11
233.388605673642
 21
180.438117152149
 31
0.0
  0
ARC
  5
60C
330
1D
100
AcDbEntity
  8
CSLAYER1
  6
Continuous
100
AcDbCircle
 10
232.888605673642
 20
180.438117152149
 30
0.0
 40
0.5
100
AcDbArc
 50
288.135284999998
 51
0.0
  0
ARC
  5
60D
330
1D
100
AcDbEntity
  8
CSLAYER1
  6
Continuous
100
AcDbCircle
 10
208.143297673642
 20
255.988893152149
 30
0.0
 40
80.0
100
AcDbArc
 50
272.68336
 51
288.135285
  0
LINE
  5
60E
330
1D
100
AcDbEntity
  8
CSLAYER1
  6
Continuous
100
AcDbLine
 10
211.888605673642
 20
176.076612152149
 30
0.0
 11
194.188605673642
 21
176.076612152149
 31
0.0
  0
ARC
  5
60F
330
1D
100
AcDbEntity
  8
CSLAYER1
  6
Continuous
100
AcDbCircle
 10
194.188605673642
 20
176.876612152149
 30
0.0
 40
0.8
100
AcDbArc
 50
180.0
 51
270.0
  0
LINE
  5
610
330
1D
100
AcDbEntity
  8
CSLAYER1
  6
Continuous
100
AcDbLine
 10
193.388605673642
 20
176.876612152149
 30
0.0
 11
193.388605673642
 21
225.276612152149
 31
0.0
  0
ARC
  5
611
330
1D
100
AcDbEntity
  8
CSLAYER1
  6
Continuous
100
AcDbCircle
 10
194.188605673642
 20
225.276612152149
 30
0.0
 40
0.8
100
AcDbArc
 50
90.0
 51
180.0
  0
LINE
  5
612
330
1D
100
AcDbEntity
  8
CSLAYER1
  6
Continuous
100
AcDbLine
 10
194.188605673642
 20
226.076612152149
 30
0.0
 11
211.888605673642
 21
226.076612152149
 31
0.0
  0
ARC
  5
613
330
1D
100
AcDbEntity
  8
CSLAYER1
  6
Continuous
100
AcDbCircle
 10
208.143297673642
 20
146.164331152149
 30
0.0
 40
80.0
100
AcDbArc
 50
71.864715
 51
87.31664
  0
ARC
  5
614
330
1D
100
AcDbEntity
  8
CSLAYER1
  6
Continuous
100
AcDbCircle
 10
232.888605673642
 20
221.715107152149
 30
0.0
 40
0.5
100
AcDbArc
 50
0.0
 51
71.864715000002
  0
LINE
  5
615
330
1D
100
AcDbEntity
  8
CSLAYER1
  6
Continuous
100
AcDbLine
 10
193.388605673642
 20
223.111453152149
 30
0.0
 11
191.516150673642
 21
221.369474152149
 31
0.0
  0
ARC
  5
616
330
1D
100
AcDbEntity
  8
CSLAYER1
  6
Continuous
100
AcDbCircle
 10
191.788605673642
 20
221.076612152149
 30
0.0
 40
0.4
100
AcDbArc
 50
132.932595999998
 51
180.0
  0
LINE
  5
617
330
1D
100
AcDbEntity
  8
CSLAYER1
  6
Continuous
100
AcDbLine
 10
191.388605673642
 20
221.076612152149
 30
0.0
 11
191.388605673642
 21
181.076612152149
 31
0.0
  0
ARC
  5
618
330
1D
100
AcDbEntity
  8
CSLAYER1
  6
Continuous
100
AcDbCircle
 10
191.788605673642
 20
181.076612152149
 30
0.0
 40
0.4
100
AcDbArc
 50
180.0
 51
227.067404000002
  0
LINE
  5
619
330
1D
100
AcDbEntity
  8
CSLAYER1
  6
Continuous
100
AcDbLine
 10
191.516150673642
 20
180.783750152149
 30
0.0
 11
193.388605673642
 21
179.041771152149
 31
0.0
  0
LINE
  5
61A
330
1D
100
AcDbEntity
  8
CSLAYER10
  6
Continuous
100
AcDbLine
 10
128.870065673642
 20
165.116618152149
 30
0.0
 11
128.870065673642
 21
237.646096152149
 31
0.0
  0
LINE
  5
61B
330
1D
100
AcDbEntity
  8
CSLAYER10
  6
Continuous
100
AcDbLine
 10
123.670065673642
 20
226.076612152149
 30
0.0
 11
134.070065673642
 21
226.076612152149
 31
0.0
  0
LINE
  5
61C
330
1D
100
AcDbEntity
  8
CSLAYER10
  6
Continuous
100
AcDbLine
 10
150.520700673642
 20
193.776612152149
 30
0.0
 11
150.520700673642
 21
183.376612152149
 31
0.0
  0
LINE
  5
61D
330
1D
100
AcDbEntity
  8
CSLAYER10
  6
Continuous
100
AcDbLine
 10
145.320700673642
 20
188.576612152149
 30
0.0
 11
155.720700673642
 21
188.576612152149
 31
0.0
  0
LINE
  5
61E
330
1D
100
AcDbEntity
  8
CSLAYER10
  6
Continuous
100
AcDbLine
 10
163.926772673642
 20
201.076612152149
 30
0.0
 11
93.813358673642
 21
201.076612152149
 31
0.0
  0
LINE
  5
61F
330
1D
100
AcDbEntity
  8
CSLAYER10
  6
Continuous
100
AcDbLine
 10
102.019430673642
 20
188.576612152149
 30
0.0
 11
112.419430673642
 21
188.576612152149
 31
0.0
  0
LINE
  5
620
330
1D
100
AcDbEntity
  8
CSLAYER10
  6
Continuous
100
AcDbLine
 10
107.219430673642
 20
183.376612152149
 30
0.0
 11
107.219430673642
 21
193.776612152149
 31
0.0
  0
LINE
  5
621
330
1D
100
AcDbEntity
  8
CSLAYER10
  6
Continuous
100
AcDbLine
 10
194.352208673642
 20
201.076612152149
 30
0.0
 11
322.976351673642
 21
201.076612152149
 31
0.0
  0
LINE
  5
622
330
1D
100
AcDbEntity
  8
CSLAYER10
  6
Continuous
100
AcDbLine
 10
292.452887673642
 20
218.076612152149
 30
0.0
 11
280.619554673642
 21
218.076612152149
 31
0.0
  0
LINE
  5
623
330
1D
100
AcDbEntity
  8
CSLAYER10
  6
Continuous
100
AcDbLine
 10
258.388605673642
 20
204.026612152149
 30
0.0
 11
286.388605673642
 21
198.126612152149
 31
0.0
  0
LINE
  5
624
330
1D
100
AcDbEntity
  8
CSLAYER10
  6
Continuous
100
AcDbLine
 10
286.388605673642
 20
204.026612152149
 30
0.0
 11
258.388605673642
 21
198.126612152149
 31
0.0
  0
LINE
  5
625
330
1D
100
AcDbEntity
  8
CSLAYER10
  6
Continuous
100
AcDbLine
 10
280.619554673642
 20
184.076612152149
 30
0.0
 11
292.452887673642
 21
184.076612152149
 31
0.0
  0
LINE
  5
626
330
1D
100
AcDbEntity
  8
CSLAYER1
  6
DOT
100
AcDbLine
 10
258.388605673642
 20
204.026612152149
 30
0.0
 11
258.388605673642
 21
198.126612152149
 31
0.0
  0
TEXT
  5
627
330
1D
100
AcDbEntity
  8
CSLAYER10
100
AcDbText
 10
328.388620673642
 20
198.576612152149
 30
0.0
 40
4.0
  1
36
 50
90.0
 41
0.681818181818
  7
FX_FONT
 72
     5
 11
328.388620673642
 21
203.576612152149
 31
0.0
100
AcDbText
  0
LINE
  5
628
330
1D
100
AcDbEntity
  8
CSLAYER10
  6
Continuous
100
AcDbLine
 10
311.388605673642
 20
183.076612152149
 30
0.0
 11
330.388605673642
 21
183.076612152149
 31
0.0
  0
LINE
  5
629
330
1D
100
AcDbEntity
  8
CSLAYER10
  6
Continuous
100
AcDbLine
 10
311.388605673642
 20
219.076612152149
 30
0.0
 11
330.388605673642
 21
219.076612152149
 31
0.0
  0
LINE
  5
62A
330
1D
100
AcDbEntity
  8
CSLAYER10
  6
Continuous
100
AcDbLine
 10
329.388605673642
 20
183.076612152149
 30
0.0
 11
329.388605673642
 21
219.076612152149
 31
0.0
  0
LINE
  5
62B
330
1D
100
AcDbEntity
  8
CSLAYER10
  6
Continuous
100
AcDbLine
 10
329.388605673642
 20
183.076612152149
 30
0.0
 11
328.870967673642
 21
185.008464152149
 31
0.0
  0
LINE
  5
62C
330
1D
100
AcDbEntity
  8
CSLAYER10
  6
Continuous
100
AcDbLine
 10
329.388605673642
 20
183.076612152149
 30
0.0
 11
329.906243673642
 21
185.008464152149
 31
0.0
  0
LINE
  5
62D
330
1D
100
AcDbEntity
  8
CSLAYER10
  6
Continuous
100
AcDbLine
 10
329.388605673642
 20
219.076612152149
 30
0.0
 11
328.870967673642
 21
217.144760152149
 31
0.0
  0
LINE
  5
62E
330
1D
100
AcDbEntity
  8
CSLAYER10
  6
Continuous
100
AcDbLine
 10
329.388605673642
 20
219.076612152149
 30
0.0
 11
329.906243673642
 21
217.144760152149
 31
0.0
  0
TEXT
  5
62F
330
1D
100
AcDbEntity
  8
CSLAYER10
100
AcDbText
 10
289.888589673642
 20
160.076597152149
 30
0.0
 40
4.0
  1
12
 41
0.681818181818
  7
FX_FONT
 72
     5
 11
294.888589673642
 21
160.076597152149
 31
0.0
100
AcDbText
  0
LINE
  5
630
330
1D
100
AcDbEntity
  8
CSLAYER10
  6
Continuous
100
AcDbLine
 10
298.388605673642
 20
184.076612152149
 30
0.0
 11
298.388605673642
 21
158.076612152149
 31
0.0
  0
LINE
  5
631
330
1D
100
AcDbEntity
  8
CSLAYER10
  6
Continuous
100
AcDbLine
 10
286.388605673642
 20
159.076612152149
 30
0.0
 11
318.388605673642
 21
159.076612152149
 31
0.0
  0
LINE
  5
632
330
1D
100
AcDbEntity
  8
CSLAYER10
  6
Continuous
100
AcDbLine
 10
286.388605673642
 20
159.076612152149
 30
0.0
 11
288.320457673642
 21
159.594250152149
 31
0.0
  0
LINE
  5
633
330
1D
100
AcDbEntity
  8
CSLAYER10
  6
Continuous
100
AcDbLine
 10
286.388605673642
 20
159.076612152149
 30
0.0
 11
288.320457673642
 21
158.558974152149
 31
0.0
  0
LINE
  5
634
330
1D
100
AcDbEntity
  8
CSLAYER10
  6
Continuous
100
AcDbLine
 10
300.320457673642
 20
158.558974152149
 30
0.0
 11
296.456753673642
 21
159.594250152149
 31
0.0
  0
LINE
  5
635
330
1D
100
AcDbEntity
  8
CSLAYER10
  6
Continuous
100
AcDbLine
 10
300.320457673642
 20
159.594250152149
 30
0.0
 11
296.456753673642
 21
158.558974152149
 31
0.0
  0
TEXT
  5
636
330
1D
100
AcDbEntity
  8
CSLAYER10
100
AcDbText
 10
305.888589673642
 20
160.076597152149
 30
0.0
 40
4.0
  1
20
 41
0.705329153605
  7
FX_FONT
 72
     5
 11
310.888589673642
 21
160.076597152149
 31
0.0
100
AcDbText
  0
LINE
  5
637
330
1D
100
AcDbEntity
  8
CSLAYER10
  6
Continuous
100
AcDbLine
 10
318.388605673642
 20
190.076612152149
 30
0.0
 11
318.388605673642
 21
149.076612152149
 31
0.0
  0
LINE
  5
63B
330
1D
100
AcDbEntity
  8
CSLAYER10
  6
Continuous
100
AcDbLine
 10
318.388605673642
 20
159.076612152149
 30
0.0
 11
316.456753673642
 21
159.594250152149
 31
0.0
  0
LINE
  5
63C
330
1D
100
AcDbEntity
  8
CSLAYER10
  6
Continuous
100
AcDbLine
 10
318.388605673642
 20
159.076612152149
 30
0.0
 11
316.456753673642
 21
158.558974152149
 31
0.0
  0
TEXT
  5
63D
330
1D
100
AcDbEntity
  8
CSLAYER10
100
AcDbText
 10
299.888589673642
 20
151.076612152149
 30
0.0
 40
4.0
  1
32
 41
0.681818181818
  7
FX_FONT
 72
     5
 11
304.888589673642
 21
151.076612152149
 31
0.0
100
AcDbText
  0
LINE
  5
641
330
1D
100
AcDbEntity
  8
CSLAYER10
  6
Continuous
100
AcDbLine
 10
318.388605673642
 20
150.076612152149
 30
0.0
 11
316.456753673642
 21
150.594250152149
 31
0.0
  0
LINE
  5
642
330
1D
100
AcDbEntity
  8
CSLAYER10
  6
Continuous
100
AcDbLine
 10
318.388605673642
 20
150.076612152149
 30
0.0
 11
316.456753673642
 21
149.558974152149
 31
0.0
  0
TEXT
  5
643
330
1D
100
AcDbEntity
  8
CSLAYER10
100
AcDbText
 10
266.610923679073
 20
150.958294650355
 30
0.0
 40
4.0
  1
28～40
 41
0.572636186351
  7
FX_FONT
 72
     5
 11
278.000021163161
 21
150.958294650355
 31
0.0
100
AcDbText
  0
LINE
  5
647
330
1D
100
AcDbEntity
  8
CSLAYER10
  6
Continuous
100
AcDbLine
 10
288.320457673642
 20
149.558974152149
 30
0.0
 11
284.456753673642
 21
150.594250152149
 31
0.0
  0
LINE
  5
648
330
1D
100
AcDbEntity
  8
CSLAYER10
  6
Continuous
100
AcDbLine
 10
288.320457673642
 20
150.594250152149
 30
0.0
 11
284.456753673642
 21
149.558974152149
 31
0.0
  0
LINE
  5
649
330
1D
100
AcDbEntity
  8
CSLAYER10
  6
Continuous
100
AcDbLine
 10
258.388605673642
 20
167.576612152149
 30
0.0
 11
258.388605673642
 21
149.076612152149
 31
0.0
  0
LINE
  5
64A
330
1D
100
AcDbEntity
  8
CSLAYER10
  6
Continuous
100
AcDbLine
 10
286.388605673642
 20
177.076612152149
 30
0.0
 11
286.388605673642
 21
149.076612152149
 31
0.0
  0
TEXT
  5
65A
330
1D
100
AcDbEntity
  8
CSLAYER10
100
AcDbText
 10
209.888589673642
 20
160.076612152149
 30
0.0
 40
4.0
  1
42
 41
0.681818181818
  7
FX_FONT
 72
     5
 11
214.888589673642
 21
160.076612152149
 31
0.0
100
AcDbText
  0
LINE
  5
65B
330
1D
100
AcDbEntity
  8
CSLAYER10
  6
Continuous
100
AcDbLine
 10
191.388605673642
 20
159.076612152149
 30
0.0
 11
258.388605673642
 21
159.076612152149
 31
0.0
  0
LINE
  5
65C
330
1D
100
AcDbEntity
  8
CSLAYER10
  6
Continuous
100
AcDbLine
 10
191.388605673642
 20
159.076612152149
 30
0.0
 11
193.320457673642
 21
159.594250152149
 31
0.0
  0
LINE
  5
65D
330
1D
100
AcDbEntity
  8
CSLAYER10
  6
Continuous
100
AcDbLine
 10
191.388605673642
 20
159.076612152149
 30
0.0
 11
193.320457673642
 21
158.558974152149
 31
0.0
  0
LINE
  5
65E
330
1D
100
AcDbEntity
  8
CSLAYER10
  6
Continuous
100
AcDbLine
 10
235.320457673642
 20
158.558974152149
 30
0.0
 11
231.456753673642
 21
159.594250152149
 31
0.0
  0
LINE
  5
65F
330
1D
100
AcDbEntity
  8
CSLAYER10
  6
Continuous
100
AcDbLine
 10
235.320457673642
 20
159.594250152149
 30
0.0
 11
231.456753673642
 21
158.558974152149
 31
0.0
  0
LINE
  5
661
330
1D
100
AcDbEntity
  8
CSLAYER10
  6
Continuous
100
AcDbLine
 10
233.388605673642
 20
179.438117152149
 30
0.0
 11
233.388605673642
 21
158.076612152149
 31
0.0
  0
TEXT
  5
662
330
1D
100
AcDbEntity
  8
CSLAYER10
100
AcDbText
 10
243.388604673642
 20
160.076612152149
 30
0.0
 40
4.0
  1
25
 41
0.681818181818
  7
FX_FONT
 72
     5
 11
248.388604673642
 21
160.076612152149
 31
0.0
100
AcDbText
  0
LINE
  5
666
330
1D
100
AcDbEntity
  8
CSLAYER10
  6
Continuous
100
AcDbLine
 10
258.388605673642
 20
159.076612152149
 30
0.0
 11
256.456753673642
 21
159.594250152149
 31
0.0
  0
LINE
  5
667
330
1D
100
AcDbEntity
  8
CSLAYER10
  6
Continuous
100
AcDbLine
 10
258.388605673642
 20
159.076612152149
 30
0.0
 11
256.456753673642
 21
158.558974152149
 31
0.0
  0
TEXT
  5
668
330
1D
100
AcDbEntity
  8
CSLAYER10
100
AcDbText
 10
180.388604673642
 20
197.326612152149
 30
0.0
 40
4.0
  1
%%c50
 50
90.0
 41
0.674662668666
  7
FX_FONT
 72
     5
 11
180.388604673642
 21
204.826612152149
 31
0.0
100
AcDbText
  0
LINE
  5
669
330
1D
100
AcDbEntity
  8
CSLAYER10
  6
Continuous
100
AcDbLine
 10
181.388605673642
 20
176.076612152149
 30
0.0
 11
181.388605673642
 21
226.076612152149
 31
0.0
  0
LINE
  5
66A
330
1D
100
AcDbEntity
  8
CSLAYER10
  6
Continuous
100
AcDbLine
 10
181.388605673642
 20
176.076612152149
 30
0.0
 11
180.870967673642
 21
178.008464152149
 31
0.0
  0
LINE
  5
66B
330
1D
100
AcDbEntity
  8
CSLAYER10
  6
Continuous
100
AcDbLine
 10
181.388605673642
 20
176.076612152149
 30
0.0
 11
181.906243673642
 21
178.008464152149
 31
0.0
  0
LINE
  5
66C
330
1D
100
AcDbEntity
  8
CSLAYER10
  6
Continuous
100
AcDbLine
 10
181.388605673642
 20
226.076612152149
 30
0.0
 11
180.870967673642
 21
224.144760152149
 31
0.0
  0
LINE
  5
66D
330
1D
100
AcDbEntity
  8
CSLAYER10
  6
Continuous
100
AcDbLine
 10
181.388605673642
 20
226.076612152149
 30
0.0
 11
181.906243673642
 21
224.144760152149
 31
0.0
  0
LINE
  5
66E
330
1D
100
AcDbEntity
  8
CSLAYER10
  6
Continuous
100
AcDbLine
 10
193.188605673642
 20
176.076612152149
 30
0.0
 11
180.388605673642
 21
176.076612152149
 31
0.0
  0
LINE
  5
66F
330
1D
100
AcDbEntity
  8
CSLAYER10
  6
Continuous
100
AcDbLine
 10
193.188605673642
 20
226.076612152149
 30
0.0
 11
180.388605673642
 21
226.076612152149
 31
0.0
  0
TEXT
  5
670
330
1D
100
AcDbEntity
  8
CSLAYER10
100
AcDbText
 10
222.388604673642
 20
151.076612152149
 30
0.0
 40
4.0
  1
67
 41
0.679245283019
  7
FX_FONT
 72
     5
 11
227.388604673642
 21
151.076612152149
 31
0.0
100
AcDbText
  0
LINE
  5
671
330
1D
100
AcDbEntity
  8
CSLAYER10
  6
Continuous
100
AcDbLine
 10
318.388605673642
 20
150.076612152149
 30
0.0
 11
191.388605673642
 21
150.076612152149
 31
0.0
  0
LINE
  5
672
330
1D
100
AcDbEntity
  8
CSLAYER10
  6
Continuous
100
AcDbLine
 10
260.320457673642
 20
149.558974152149
 30
0.0
 11
256.456753673642
 21
150.594250152149
 31
0.0
  0
LINE
  5
673
330
1D
100
AcDbEntity
  8
CSLAYER10
  6
Continuous
100
AcDbLine
 10
260.320457673642
 20
150.594250152149
 30
0.0
 11
256.456753673642
 21
149.558974152149
 31
0.0
  0
LINE
  5
674
330
1D
100
AcDbEntity
  8
CSLAYER10
  6
Continuous
100
AcDbLine
 10
191.388605673642
 20
150.076612152149
 30
0.0
 11
193.320457673642
 21
150.594250152149
 31
0.0
  0
LINE
  5
675
330
1D
100
AcDbEntity
  8
CSLAYER10
  6
Continuous
100
AcDbLine
 10
191.388605673642
 20
150.076612152149
 30
0.0
 11
193.320457673642
 21
149.558974152149
 31
0.0
  0
LINE
  5
676
330
1D
100
AcDbEntity
  8
CSLAYER10
  6
Continuous
100
AcDbLine
 10
191.388605673642
 20
180.076612152149
 30
0.0
 11
191.388605673642
 21
149.076612152149
 31
0.0
  0
TEXT
  5
677
330
1D
100
AcDbEntity
  8
CSLAYER10
100
AcDbText
 10
170.388604673642
 20
197.326612152149
 30
0.0
 40
4.0
  1
%%c65
 50
90.0
 41
0.660146699267
  7
FX_FONT
 72
     5
 11
170.388604673642
 21
204.826612152149
 31
0.0
100
AcDbText
  0
LINE
  5
678
330
1D
100
AcDbEntity
  8
CSLAYER10
  6
Continuous
100
AcDbLine
 10
171.388605673642
 20
168.576612152149
 30
0.0
 11
171.388605673642
 21
233.576612152149
 31
0.0
  0
LINE
  5
679
330
1D
100
AcDbEntity
  8
CSLAYER10
  6
Continuous
100
AcDbLine
 10
171.388605673642
 20
168.576612152149
 30
0.0
 11
170.870967673642
 21
170.508464152149
 31
0.0
  0
LINE
  5
67A
330
1D
100
AcDbEntity
  8
CSLAYER10
  6
Continuous
100
AcDbLine
 10
171.388605673642
 20
168.576612152149
 30
0.0
 11
171.906243673642
 21
170.508464152149
 31
0.0
  0
LINE
  5
67B
330
1D
100
AcDbEntity
  8
CSLAYER10
  6
Continuous
100
AcDbLine
 10
171.388605673642
 20
233.576612152149
 30
0.0
 11
170.870967673642
 21
231.644760152149
 31
0.0
  0
LINE
  5
67C
330
1D
100
AcDbEntity
  8
CSLAYER10
  6
Continuous
100
AcDbLine
 10
171.388605673642
 20
233.576612152149
 30
0.0
 11
171.906243673642
 21
231.644760152149
 31
0.0
  0
LINE
  5
67D
330
1D
100
AcDbEntity
  8
CSLAYER10
  6
Continuous
100
AcDbLine
 10
249.788605673642
 20
168.576612152149
 30
0.0
 11
170.388605673642
 21
168.576612152149
 31
0.0
  0
LINE
  5
67E
330
1D
100
AcDbEntity
  8
CSLAYER10
  6
Continuous
100
AcDbLine
 10
249.788605673642
 20
233.576612152149
 30
0.0
 11
170.388605673642
 21
233.576612152149
 31
0.0
  0
LINE
  5
67F
330
1D
100
AcDbEntity
  8
CSLAYER10
  6
Continuous
100
AcDbLine
 10
130.864118895958
 20
228.953025152149
 30
0.0
 11
140.528893895958
 21
238.954374152149
 31
0.0
  0
LINE
  5
680
330
1D
100
AcDbEntity
  8
CSLAYER10
  6
Continuous
100
AcDbLine
 10
130.864118895958
 20
228.953025152149
 30
0.0
 11
131.834333895958
 21
230.701934152149
 31
0.0
  0
LINE
  5
681
330
1D
100
AcDbEntity
  8
CSLAYER10
  6
Continuous
100
AcDbLine
 10
130.864118895958
 20
228.953025152149
 30
0.0
 11
132.578803895958
 21
229.982517152149
 31
0.0
  0
LINE
  5
682
330
1D
100
AcDbEntity
  8
CSLAYER10
  6
Continuous
100
AcDbLine
 10
140.528893895958
 20
238.954374152149
 30
0.0
 11
170.252624895958
 21
238.954374152149
 31
0.0
  0
TEXT
  5
684
330
1D
100
AcDbEntity
  8
CSLAYER10
100
AcDbText
 10
141.752626895958
 20
239.954389152149
 30
0.0
 40
4.0
  1
3-3.8mmネジ用穴
 41
0.596098265896
  7
FX_FONT
 72
     5
 11
169.252626895958
 21
239.954389152149
 31
0.0
100
AcDbText
  0
TEXT
  5
685
330
1D
100
AcDbEntity
  8
CSLAYER10
100
AcDbText
 10
463.995898096886
 20
198.576612152149
 30
0.0
 40
4.0
  1
46
 50
90.0
 41
0.681818181818
  7
FX_FONT
 72
     5
 11
463.995898096886
 21
203.576612152149
 31
0.0
100
AcDbText
  0
LINE
  5
686
330
1D
100
AcDbEntity
  8
CSLAYER10
  6
Continuous
100
AcDbLine
 10
440.495898096886
 20
178.076612152149
 30
0.0
 11
465.995898096886
 21
178.076612152149
 31
0.0
  0
LINE
  5
687
330
1D
100
AcDbEntity
  8
CSLAYER10
  6
Continuous
100
AcDbLine
 10
440.495898096886
 20
224.076612152149
 30
0.0
 11
465.995898096886
 21
224.076612152149
 31
0.0
  0
LINE
  5
688
330
1D
100
AcDbEntity
  8
CSLAYER10
  6
Continuous
100
AcDbLine
 10
464.995898096886
 20
178.076612152149
 30
0.0
 11
464.995898096886
 21
224.076612152149
 31
0.0
  0
LINE
  5
689
330
1D
100
AcDbEntity
  8
CSLAYER10
  6
Continuous
100
AcDbLine
 10
464.995898096886
 20
178.076612152149
 30
0.0
 11
464.478260096886
 21
180.008464152149
 31
0.0
  0
LINE
  5
68A
330
1D
100
AcDbEntity
  8
CSLAYER10
  6
Continuous
100
AcDbLine
 10
464.995898096886
 20
178.076612152149
 30
0.0
 11
465.513536096886
 21
180.008464152149
 31
0.0
  0
LINE
  5
68B
330
1D
100
AcDbEntity
  8
CSLAYER10
  6
Continuous
100
AcDbLine
 10
464.995898096886
 20
224.076612152149
 30
0.0
 11
464.478260096886
 21
222.144760152149
 31
0.0
  0
LINE
  5
68C
330
1D
100
AcDbEntity
  8
CSLAYER10
  6
Continuous
100
AcDbLine
 10
464.995898096886
 20
224.076612152149
 30
0.0
 11
465.513536096886
 21
222.144760152149
 31
0.0
  0
TEXT
  5
68D
330
1D
100
AcDbEntity
  8
CSLAYER10
100
AcDbText
 10
454.995898096886
 20
198.576612152149
 30
0.0
 40
4.0
  1
34
 50
90.0
 41
0.681818181818
  7
FX_FONT
 72
     5
 11
454.995898096886
 21
203.576612152149
 31
0.0
100
AcDbText
  0
LINE
  5
68E
330
1D
100
AcDbEntity
  8
CSLAYER10
  6
Continuous
100
AcDbLine
 10
438.190195597192
 20
184.076612152149
 30
0.0
 11
456.995898096886
 21
184.076612152149
 31
0.0
  0
LINE
  5
68F
330
1D
100
AcDbEntity
  8
CSLAYER10
  6
Continuous
100
AcDbLine
 10
437.724970262136
 20
218.076612152149
 30
0.0
 11
456.995898096886
 21
218.076612152149
 31
0.0
  0
LINE
  5
690
330
1D
100
AcDbEntity
  8
CSLAYER10
  6
Continuous
100
AcDbLine
 10
455.995898096886
 20
184.076612152149
 30
0.0
 11
455.995898096886
 21
218.076612152149
 31
0.0
  0
LINE
  5
691
330
1D
100
AcDbEntity
  8
CSLAYER10
  6
Continuous
100
AcDbLine
 10
455.995898096886
 20
184.076612152149
 30
0.0
 11
455.478260096886
 21
186.008464152149
 31
0.0
  0
LINE
  5
692
330
1D
100
AcDbEntity
  8
CSLAYER10
  6
Continuous
100
AcDbLine
 10
455.995898096886
 20
184.076612152149
 30
0.0
 11
456.513536096886
 21
186.008464152149
 31
0.0
  0
LINE
  5
693
330
1D
100
AcDbEntity
  8
CSLAYER10
  6
Continuous
100
AcDbLine
 10
455.995898096886
 20
218.076612152149
 30
0.0
 11
455.478260096886
 21
216.144760152149
 31
0.0
  0
LINE
  5
694
330
1D
100
AcDbEntity
  8
CSLAYER10
  6
Continuous
100
AcDbLine
 10
455.995898096886
 20
218.076612152149
 30
0.0
 11
456.513536096886
 21
216.144760152149
 31
0.0
  0
TEXT
  5
695
330
1D
100
AcDbEntity
  8
CSLAYER10
100
AcDbText
 10
405.995898096886
 20
168.076612152149
 30
0.0
 40
4.0
  1
50
 41
0.702576112412
  7
FX_FONT
 72
     5
 11
410.995898096886
 21
168.076612152149
 31
0.0
100
AcDbText
  0
LINE
  5
696
330
1D
100
AcDbEntity
  8
CSLAYER10
  6
Continuous
100
AcDbLine
 10
383.495898096886
 20
167.076612152149
 30
0.0
 11
433.495898096886
 21
167.076612152149
 31
0.0
  0
LINE
  5
697
330
1D
100
AcDbEntity
  8
CSLAYER10
  6
Continuous
100
AcDbLine
 10
383.495898096886
 20
167.076612152149
 30
0.0
 11
385.427750096886
 21
167.594250152149
 31
0.0
  0
LINE
  5
698
330
1D
100
AcDbEntity
  8
CSLAYER10
  6
Continuous
100
AcDbLine
 10
383.495898096886
 20
167.076612152149
 30
0.0
 11
385.427750096886
 21
166.558974152149
 31
0.0
  0
LINE
  5
699
330
1D
100
AcDbEntity
  8
CSLAYER10
  6
Continuous
100
AcDbLine
 10
433.495898096886
 20
167.076612152149
 30
0.0
 11
431.564046096886
 21
167.594250152149
 31
0.0
  0
LINE
  5
69A
330
1D
100
AcDbEntity
  8
CSLAYER10
  6
Continuous
100
AcDbLine
 10
433.495898096886
 20
167.076612152149
 30
0.0
 11
431.564046096886
 21
166.558974152149
 31
0.0
  0
TEXT
  5
69B
330
1D
100
AcDbEntity
  8
CSLAYER10
100
AcDbText
 10
366.214251096886
 20
168.282209152149
 30
0.0
 40
4.0
  1
3
 41
0.75
  7
FX_FONT
 72
     5
 11
368.714251096886
 21
168.282209152149
 31
0.0
100
AcDbText
  0
LINE
  5
69C
330
1D
100
AcDbEntity
  8
CSLAYER10
  6
Continuous
100
AcDbLine
 10
370.495898096886
 20
190.076612152149
 30
0.0
 11
370.495898096886
 21
166.076612152149
 31
0.0
  0
LINE
  5
69D
330
1D
100
AcDbEntity
  8
CSLAYER10
  6
Continuous
100
AcDbLine
 10
373.495898096886
 20
181.076612152149
 30
0.0
 11
373.495898096886
 21
157.076612152149
 31
0.0
  0
LINE
  5
69F
330
1D
100
AcDbEntity
  8
CSLAYER10
  6
Continuous
100
AcDbLine
 10
365.495898096886
 20
167.076612152149
 30
0.0
 11
378.495898096886
 21
167.076612152149
 31
0.0
  0
LINE
  5
6A0
330
1D
100
AcDbEntity
  8
CSLAYER10
  6
Continuous
100
AcDbLine
 10
370.495898096886
 20
167.076612152149
 30
0.0
 11
368.564046096886
 21
167.594250152149
 31
0.0
  0
LINE
  5
6A1
330
1D
100
AcDbEntity
  8
CSLAYER10
  6
Continuous
100
AcDbLine
 10
370.495898096886
 20
167.076612152149
 30
0.0
 11
368.564046096886
 21
166.558974152149
 31
0.0
  0
LINE
  5
6A3
330
1D
100
AcDbEntity
  8
CSLAYER10
  6
Continuous
100
AcDbLine
 10
373.495898096886
 20
167.076612152149
 30
0.0
 11
375.427750096886
 21
167.594250152149
 31
0.0
  0
LINE
  5
6A4
330
1D
100
AcDbEntity
  8
CSLAYER10
  6
Continuous
100
AcDbLine
 10
373.495898096886
 20
167.076612152149
 30
0.0
 11
375.427750096886
 21
166.558974152149
 31
0.0
  0
TEXT
  5
6A5
330
1D
100
AcDbEntity
  8
CSLAYER10
100
AcDbText
 10
359.495898096886
 20
159.076612152149
 30
0.0
 40
4.0
  1
23
 41
0.681818181818
  7
FX_FONT
 72
     5
 11
364.495898096886
 21
159.076612152149
 31
0.0
100
AcDbText
  0
LINE
  5
6A6
330
1D
100
AcDbEntity
  8
CSLAYER10
  6
Continuous
100
AcDbLine
 10
350.495898096886
 20
190.076612152149
 30
0.0
 11
350.495898096886
 21
157.076612152149
 31
0.0
  0
LINE
  5
6A7
330
1D
100
AcDbEntity
  8
CSLAYER10
  6
Continuous
100
AcDbLine
 10
350.495898096886
 20
158.076612152149
 30
0.0
 11
449.495898096886
 21
158.076612152149
 31
0.0
  0
LINE
  5
6A8
330
1D
100
AcDbEntity
  8
CSLAYER10
  6
Continuous
100
AcDbLine
 10
350.495898096886
 20
158.076612152149
 30
0.0
 11
352.427750096886
 21
158.594250152149
 31
0.0
  0
LINE
  5
6A9
330
1D
100
AcDbEntity
  8
CSLAYER10
  6
Continuous
100
AcDbLine
 10
350.495898096886
 20
158.076612152149
 30
0.0
 11
352.427750096886
 21
157.558974152149
 31
0.0
  0
LINE
  5
6AA
330
1D
100
AcDbEntity
  8
CSLAYER10
  6
Continuous
100
AcDbLine
 10
375.427750096886
 20
157.558974152149
 30
0.0
 11
371.564046096886
 21
158.594250152149
 31
0.0
  0
LINE
  5
6AB
330
1D
100
AcDbEntity
  8
CSLAYER10
  6
Continuous
100
AcDbLine
 10
375.427750096886
 20
158.594250152149
 30
0.0
 11
371.564046096886
 21
157.558974152149
 31
0.0
  0
TEXT
  5
6AC
330
1D
100
AcDbEntity
  8
CSLAYER10
100
AcDbText
 10
403.245898096886
 20
159.076612152149
 30
0.0
 40
4.0
  1
69.5
 41
0.650916104147
  7
FX_FONT
 72
     5
 11
413.245898096886
 21
159.076612152149
 31
0.0
100
AcDbText
  0
LINE
  5
6B0
330
1D
100
AcDbEntity
  8
CSLAYER10
  6
Continuous
100
AcDbLine
 10
442.995898096886
 20
158.076612152149
 30
0.0
 11
441.064046096886
 21
158.594250152149
 31
0.0
  0
LINE
  5
6B1
330
1D
100
AcDbEntity
  8
CSLAYER10
  6
Continuous
100
AcDbLine
 10
442.995898096886
 20
158.076612152149
 30
0.0
 11
441.064046096886
 21
157.558974152149
 31
0.0
  0
LINE
  5
6B2
330
1D
100
AcDbEntity
  8
CSLAYER10
  6
Continuous
100
AcDbLine
 10
442.995898096886
 20
181.076612152149
 30
0.0
 11
442.995898096886
 21
157.076612152149
 31
0.0
  0
TEXT
  5
6B3
330
1D
100
AcDbEntity
  8
CSLAYER10
100
AcDbText
 10
445.995898096886
 20
159.076612152149
 30
0.0
 40
4.0
  1
2
 41
0.75
  7
FX_FONT
 72
     5
 11
448.495898096886
 21
159.076612152149
 31
0.0
100
AcDbText
  0
LINE
  5
6B5
330
1D
100
AcDbEntity
  8
CSLAYER10
  6
Continuous
100
AcDbLine
 10
444.995898096886
 20
189.576612152149
 30
0.0
 11
444.995898096886
 21
157.076612152149
 31
0.0
  0
LINE
  5
6BA
330
1D
100
AcDbEntity
  8
CSLAYER10
  6
Continuous
100
AcDbLine
 10
444.995898096886
 20
158.076612152149
 30
0.0
 11
446.927750096886
 21
158.594250152149
 31
0.0
  0
LINE
  5
6BB
330
1D
100
AcDbEntity
  8
CSLAYER10
  6
Continuous
100
AcDbLine
 10
444.995898096886
 20
158.076612152149
 30
0.0
 11
446.927750096886
 21
157.558974152149
 31
0.0
  0
TEXT
  5
6BC
330
1D
100
AcDbEntity
  8
CSLAYER10
100
AcDbText
 10
339.495898096886
 20
198.576612152149
 30
0.0
 40
4.0
  1
20
 50
90.0
 41
0.705329153605
  7
FX_FONT
 72
     5
 11
339.495898096886
 21
203.576612152149
 31
0.0
100
AcDbText
  0
LINE
  5
6BD
330
1D
100
AcDbEntity
  8
CSLAYER10
  6
Continuous
100
AcDbLine
 10
349.495898096886
 20
191.076612152149
 30
0.0
 11
339.495898096886
 21
191.076612152149
 31
0.0
  0
LINE
  5
6BE
330
1D
100
AcDbEntity
  8
CSLAYER10
  6
Continuous
100
AcDbLine
 10
349.495898096886
 20
211.076612152149
 30
0.0
 11
339.495898096886
 21
211.076612152149
 31
0.0
  0
LINE
  5
6BF
330
1D
100
AcDbEntity
  8
CSLAYER10
  6
Continuous
100
AcDbLine
 10
340.495898096886
 20
191.076612152149
 30
0.0
 11
340.495898096886
 21
211.076612152149
 31
0.0
  0
LINE
  5
6C0
330
1D
100
AcDbEntity
  8
CSLAYER10
  6
Continuous
100
AcDbLine
 10
340.495898096886
 20
191.076612152149
 30
0.0
 11
339.978260096886
 21
193.008464152149
 31
0.0
  0
LINE
  5
6C1
330
1D
100
AcDbEntity
  8
CSLAYER10
  6
Continuous
100
AcDbLine
 10
340.495898096886
 20
191.076612152149
 30
0.0
 11
341.013536096886
 21
193.008464152149
 31
0.0
  0
LINE
  5
6C2
330
1D
100
AcDbEntity
  8
CSLAYER10
  6
Continuous
100
AcDbLine
 10
340.495898096886
 20
211.076612152149
 30
0.0
 11
339.978260096886
 21
209.144760152149
 31
0.0
  0
LINE
  5
6C3
330
1D
100
AcDbEntity
  8
CSLAYER10
  6
Continuous
100
AcDbLine
 10
340.495898096886
 20
211.076612152149
 30
0.0
 11
341.013536096886
 21
209.144760152149
 31
0.0
  0
TEXT
  5
6C4
330
1D
100
AcDbEntity
  8
CSLAYER10
100
AcDbText
 10
339.495898096886
 20
76.116857152149
 30
0.0
 40
4.0
  1
6.5
 50
90.0
 41
0.660146699267
  7
FX_FONT
 72
     5
 11
339.495898096886
 21
83.616857152149
 31
0.0
100
AcDbText
  0
LINE
  5
6C6
330
1D
100
AcDbEntity
  8
CSLAYER10
  6
Continuous
100
AcDbLine
 10
340.495898096886
 20
84.616860152149
 30
0.0
 11
339.978260096886
 21
86.548711152149
 31
0.0
  0
LINE
  5
6C7
330
1D
100
AcDbEntity
  8
CSLAYER10
  6
Continuous
100
AcDbLine
 10
340.495898096886
 20
84.616860152149
 30
0.0
 11
341.013536096886
 21
86.548711152149
 31
0.0
  0
LINE
  5
6C8
330
1D
100
AcDbEntity
  8
CSLAYER10
  6
Continuous
100
AcDbLine
 10
340.495898096886
 20
91.116860152149
 30
0.0
 11
339.978260096886
 21
89.185008152149
 31
0.0
  0
LINE
  5
6C9
330
1D
100
AcDbEntity
  8
CSLAYER10
  6
Continuous
100
AcDbLine
 10
340.495898096886
 20
91.116860152149
 30
0.0
 11
341.013536096886
 21
89.185008152149
 31
0.0
  0
LINE
  5
6CA
330
1D
100
AcDbEntity
  8
CSLAYER10
  6
Continuous
100
AcDbLine
 10
372.495898096886
 20
84.616860152149
 30
0.0
 11
339.495898096886
 21
84.616860152149
 31
0.0
  0
LINE
  5
6CB
330
1D
100
AcDbEntity
  8
CSLAYER10
  6
Continuous
100
AcDbLine
 10
349.495898096886
 20
91.116860152149
 30
0.0
 11
339.495898096886
 21
91.116860152149
 31
0.0
  0
LINE
  5
6CC
330
1D
100
AcDbEntity
  8
CSLAYER10
  6
Continuous
100
AcDbLine
 10
340.495898096886
 20
75.116860152149
 30
0.0
 11
340.495898096886
 21
99.116860152149
 31
0.0
  0
TEXT
  5
6CD
330
1D
100
AcDbEntity
  8
CSLAYER10
100
AcDbText
 10
339.495898096886
 20
93.866857152149
 30
0.0
 40
4.0
  1
8
 50
90.0
 41
0.75
  7
FX_FONT
 72
     5
 11
339.495898096886
 21
96.366857152149
 31
0.0
100
AcDbText
  0
LINE
  5
6CE
330
1D
100
AcDbEntity
  8
CSLAYER10
  6
Continuous
100
AcDbLine
 10
350.995898096886
 20
99.116860152149
 30
0.0
 11
339.495898096886
 21
99.116860152149
 31
0.0
  0
LINE
  5
6D0
330
1D
100
AcDbEntity
  8
CSLAYER10
  6
Continuous
100
AcDbLine
 10
340.495898096886
 20
91.116860152149
 30
0.0
 11
339.978260096886
 21
93.048711152149
 31
0.0
  0
LINE
  5
6D1
330
1D
100
AcDbEntity
  8
CSLAYER10
  6
Continuous
100
AcDbLine
 10
340.495898096886
 20
91.116860152149
 30
0.0
 11
341.013536096886
 21
93.048711152149
 31
0.0
  0
LINE
  5
6D2
330
1D
100
AcDbEntity
  8
CSLAYER10
  6
Continuous
100
AcDbLine
 10
340.495898096886
 20
99.116860152149
 30
0.0
 11
339.978260096886
 21
97.185008152149
 31
0.0
  0
LINE
  5
6D3
330
1D
100
AcDbEntity
  8
CSLAYER10
  6
Continuous
100
AcDbLine
 10
340.495898096886
 20
99.116860152149
 30
0.0
 11
341.013536096886
 21
97.185008152149
 31
0.0
  0
TEXT
  5
6D4
330
1D
100
AcDbEntity
  8
CSLAYER10
100
AcDbText
 10
381.995898096886
 20
132.116849152149
 30
0.0
 40
4.0
  1
22
 41
0.681818181818
  7
FX_FONT
 72
     5
 11
386.995898096886
 21
132.116849152149
 31
0.0
100
AcDbText
  0
LINE
  5
6D5
330
1D
100
AcDbEntity
  8
CSLAYER10
  6
Continuous
100
AcDbLine
 10
373.495898096886
 20
101.616860152149
 30
0.0
 11
373.495898096886
 21
132.116860152149
 31
0.0
  0
LINE
  5
6D6
330
1D
100
AcDbEntity
  8
CSLAYER10
  6
Continuous
100
AcDbLine
 10
395.495898096886
 20
117.116860152149
 30
0.0
 11
395.495898096886
 21
132.116860152149
 31
0.0
  0
LINE
  5
6D7
330
1D
100
AcDbEntity
  8
CSLAYER10
  6
Continuous
100
AcDbLine
 10
373.495898096886
 20
131.116860152149
 30
0.0
 11
415.495898096886
 21
131.116860152149
 31
0.0
  0
LINE
  5
6D8
330
1D
100
AcDbEntity
  8
CSLAYER10
  6
Continuous
100
AcDbLine
 10
373.495898096886
 20
131.116860152149
 30
0.0
 11
375.427750096886
 21
131.634498152149
 31
0.0
  0
LINE
  5
6D9
330
1D
100
AcDbEntity
  8
CSLAYER10
  6
Continuous
100
AcDbLine
 10
373.495898096886
 20
131.116860152149
 30
0.0
 11
375.427750096886
 21
130.599222152149
 31
0.0
  0
LINE
  5
6DA
330
1D
100
AcDbEntity
  8
CSLAYER10
  6
Continuous
100
AcDbLine
 10
397.427750096886
 20
130.599222152149
 30
0.0
 11
393.564046096886
 21
131.634498152149
 31
0.0
  0
LINE
  5
6DB
330
1D
100
AcDbEntity
  8
CSLAYER10
  6
Continuous
100
AcDbLine
 10
397.427750096886
 20
131.634498152149
 30
0.0
 11
393.564046096886
 21
130.599222152149
 31
0.0
  0
TEXT
  5
6DC
330
1D
100
AcDbEntity
  8
CSLAYER10
100
AcDbText
 10
402.995898096886
 20
132.116849152149
 30
0.0
 40
4.0
  1
20
 41
0.705329153605
  7
FX_FONT
 72
     5
 11
407.995898096886
 21
132.116849152149
 31
0.0
100
AcDbText
  0
LINE
  5
6DD
330
1D
100
AcDbEntity
  8
CSLAYER10
  6
Continuous
100
AcDbLine
 10
415.495898096886
 20
117.116860152149
 30
0.0
 11
415.495898096886
 21
132.116860152149
 31
0.0
  0
LINE
  5
6E1
330
1D
100
AcDbEntity
  8
CSLAYER10
  6
Continuous
100
AcDbLine
 10
415.495898096886
 20
131.116860152149
 30
0.0
 11
413.564046096886
 21
131.634498152149
 31
0.0
  0
LINE
  5
6E2
330
1D
100
AcDbEntity
  8
CSLAYER10
  6
Continuous
100
AcDbLine
 10
415.495898096886
 20
131.116860152149
 30
0.0
 11
413.564046096886
 21
130.599222152149
 31
0.0
  0
TEXT
  5
6E3
330
1D
100
AcDbEntity
  8
CSLAYER10
100
AcDbText
 10
454.995898096886
 20
90.116857152149
 30
0.0
 40
4.0
  1
16
 50
90.0
 41
0.681818181818
  7
FX_FONT
 72
     5
 11
454.995898096886
 21
95.116857152149
 31
0.0
100
AcDbText
  0
LINE
  5
6E5
330
1D
100
AcDbEntity
  8
CSLAYER10
  6
Continuous
100
AcDbLine
 10
455.995898096886
 20
84.616860152149
 30
0.0
 11
455.478260096886
 21
86.548711152149
 31
0.0
  0
LINE
  5
6E6
330
1D
100
AcDbEntity
  8
CSLAYER10
  6
Continuous
100
AcDbLine
 10
455.995898096886
 20
84.616860152149
 30
0.0
 11
456.513536096886
 21
86.548711152149
 31
0.0
  0
LINE
  5
6E7
330
1D
100
AcDbEntity
  8
CSLAYER10
  6
Continuous
100
AcDbLine
 10
455.995898096886
 20
100.616860152149
 30
0.0
 11
455.478260096886
 21
98.685008152149
 31
0.0
  0
LINE
  5
6E8
330
1D
100
AcDbEntity
  8
CSLAYER10
  6
Continuous
100
AcDbLine
 10
455.995898096886
 20
100.616860152149
 30
0.0
 11
456.513536096886
 21
98.685008152149
 31
0.0
  0
LINE
  5
6EA
330
1D
100
AcDbEntity
  8
CSLAYER10
  6
Continuous
100
AcDbLine
 10
442.995898096886
 20
100.616860152149
 30
0.0
 11
456.995898096886
 21
100.616860152149
 31
0.0
  0
TEXT
  5
6EB
330
1D
100
AcDbEntity
  8
CSLAYER10
100
AcDbText
 10
388.478411096886
 20
51.925626152149
 30
0.0
 40
4.0
  1
35
 41
0.681818181818
  7
FX_FONT
 72
     5
 11
393.478411096886
 21
51.925626152149
 31
0.0
100
AcDbText
  0
LINE
  5
6EC
330
1D
100
AcDbEntity
  8
CSLAYER10
  6
Continuous
100
AcDbLine
 10
373.478407096886
 20
50.925635152149
 30
0.0
 11
408.478407096886
 21
50.925635152149
 31
0.0
  0
LINE
  5
6ED
330
1D
100
AcDbEntity
  8
CSLAYER10
  6
Continuous
100
AcDbLine
 10
373.478407096886
 20
50.925635152149
 30
0.0
 11
375.410258096886
 21
51.443273152149
 31
0.0
  0
LINE
  5
6EE
330
1D
100
AcDbEntity
  8
CSLAYER10
  6
Continuous
100
AcDbLine
 10
373.478407096886
 20
50.925635152149
 30
0.0
 11
375.410258096886
 21
50.407997152149
 31
0.0
  0
LINE
  5
6EF
330
1D
100
AcDbEntity
  8
CSLAYER10
  6
Continuous
100
AcDbLine
 10
408.478407096886
 20
50.925635152149
 30
0.0
 11
406.546555096886
 21
51.443273152149
 31
0.0
  0
LINE
  5
6F0
330
1D
100
AcDbEntity
  8
CSLAYER10
  6
Continuous
100
AcDbLine
 10
408.478407096886
 20
50.925635152149
 30
0.0
 11
406.546555096886
 21
50.407997152149
 31
0.0
  0
LINE
  5
6F1
330
1D
100
AcDbEntity
  8
CSLAYER10
  6
Continuous
100
AcDbLine
 10
373.478407096886
 20
83.184039152149
 30
0.0
 11
373.478407096886
 21
49.925635152149
 31
0.0
  0
LINE
  5
6F2
330
1D
100
AcDbEntity
  8
CSLAYER10
  6
Continuous
100
AcDbLine
 10
408.478407096886
 20
104.184039152149
 30
0.0
 11
408.478407096886
 21
49.925635152149
 31
0.0
  0
TEXT
  5
6F3
330
1D
100
AcDbEntity
  8
CSLAYER10
100
AcDbText
 10
116.995898096886
 20
113.576612152149
 30
0.0
 40
4.0
  1
25
 50
90.0
 41
0.681818181818
  7
FX_FONT
 72
     5
 11
116.995898096886
 21
118.576612152149
 31
0.0
100
AcDbText
  0
LINE
  5
6F4
330
1D
100
AcDbEntity
  8
CSLAYER10
  6
Continuous
100
AcDbLine
 10
117.995898096886
 20
103.576612152149
 30
0.0
 11
117.995898096886
 21
128.576612152149
 31
0.0
  0
LINE
  5
6F5
330
1D
100
AcDbEntity
  8
CSLAYER10
  6
Continuous
100
AcDbLine
 10
117.995898096886
 20
103.576612152149
 30
0.0
 11
117.478260096886
 21
105.508464152149
 31
0.0
  0
LINE
  5
6F6
330
1D
100
AcDbEntity
  8
CSLAYER10
  6
Continuous
100
AcDbLine
 10
117.995898096886
 20
103.576612152149
 30
0.0
 11
118.513536096886
 21
105.508464152149
 31
0.0
  0
LINE
  5
6F7
330
1D
100
AcDbEntity
  8
CSLAYER10
  6
Continuous
100
AcDbLine
 10
117.995898096886
 20
128.576612152149
 30
0.0
 11
117.478260096886
 21
126.644760152149
 31
0.0
  0
LINE
  5
6F8
330
1D
100
AcDbEntity
  8
CSLAYER10
  6
Continuous
100
AcDbLine
 10
117.995898096886
 20
128.576612152149
 30
0.0
 11
118.513536096886
 21
126.644760152149
 31
0.0
  0
LINE
  5
6F9
330
1D
100
AcDbEntity
  8
CSLAYER10
  6
Continuous
100
AcDbLine
 10
133.995898096886
 20
103.576612152149
 30
0.0
 11
116.995898096886
 21
103.576612152149
 31
0.0
  0
LINE
  5
6FA
330
1D
100
AcDbEntity
  8
CSLAYER10
  6
Continuous
100
AcDbLine
 10
133.995898096886
 20
128.576612152149
 30
0.0
 11
116.995898096886
 21
128.576612152149
 31
0.0
  0
TEXT
  5
6FB
330
1D
100
AcDbEntity
  8
CSLAYER10
100
AcDbText
 10
198.995883096886
 20
113.576612152149
 30
0.0
 40
4.0
  1
45
 50
90.0
 41
0.681818181818
  7
FX_FONT
 72
     5
 11
198.995883096886
 21
118.576612152149
 31
0.0
100
AcDbText
  0
LINE
  5
6FC
330
1D
100
AcDbEntity
  8
CSLAYER10
  6
Continuous
100
AcDbLine
 10
199.995898096886
 20
93.576612152149
 30
0.0
 11
199.995898096886
 21
138.576612152149
 31
0.0
  0
LINE
  5
6FD
330
1D
100
AcDbEntity
  8
CSLAYER10
  6
Continuous
100
AcDbLine
 10
199.995898096886
 20
93.576612152149
 30
0.0
 11
199.478260096886
 21
95.508464152149
 31
0.0
  0
LINE
  5
6FE
330
1D
100
AcDbEntity
  8
CSLAYER10
  6
Continuous
100
AcDbLine
 10
199.995898096886
 20
93.576612152149
 30
0.0
 11
200.513536096886
 21
95.508464152149
 31
0.0
  0
LINE
  5
6FF
330
1D
100
AcDbEntity
  8
CSLAYER10
  6
Continuous
100
AcDbLine
 10
199.995898096886
 20
138.576612152149
 30
0.0
 11
199.478260096886
 21
136.644760152149
 31
0.0
  0
LINE
  5
700
330
1D
100
AcDbEntity
  8
CSLAYER10
  6
Continuous
100
AcDbLine
 10
199.995898096886
 20
138.576612152149
 30
0.0
 11
200.513536096886
 21
136.644760152149
 31
0.0
  0
LINE
  5
701
330
1D
100
AcDbEntity
  8
CSLAYER10
  6
Continuous
100
AcDbLine
 10
175.995898096886
 20
93.576612152149
 30
0.0
 11
200.995898096886
 21
93.576612152149
 31
0.0
  0
LINE
  5
702
330
1D
100
AcDbEntity
  8
CSLAYER10
  6
Continuous
100
AcDbLine
 10
175.995898096886
 20
138.576612152149
 30
0.0
 11
200.995898096886
 21
138.576612152149
 31
0.0
  0
TEXT
  5
703
330
1D
100
AcDbEntity
  8
CSLAYER10
100
AcDbText
 10
189.995883096886
 20
113.576612152149
 30
0.0
 40
4.0
  1
32
 50
90.0
 41
0.681818181818
  7
FX_FONT
 72
     5
 11
189.995883096886
 21
118.576612152149
 31
0.0
100
AcDbText
  0
LINE
  5
704
330
1D
100
AcDbEntity
  8
CSLAYER10
  6
Continuous
100
AcDbLine
 10
190.995898096886
 20
100.076612152149
 30
0.0
 11
190.995898096886
 21
132.076612152149
 31
0.0
  0
LINE
  5
705
330
1D
100
AcDbEntity
  8
CSLAYER10
  6
Continuous
100
AcDbLine
 10
190.995898096886
 20
100.076612152149
 30
0.0
 11
190.478260096886
 21
102.008464152149
 31
0.0
  0
LINE
  5
706
330
1D
100
AcDbEntity
  8
CSLAYER10
  6
Continuous
100
AcDbLine
 10
190.995898096886
 20
100.076612152149
 30
0.0
 11
191.513536096886
 21
102.008464152149
 31
0.0
  0
LINE
  5
707
330
1D
100
AcDbEntity
  8
CSLAYER10
  6
Continuous
100
AcDbLine
 10
190.995898096886
 20
132.076612152149
 30
0.0
 11
190.478260096886
 21
130.144760152149
 31
0.0
  0
LINE
  5
708
330
1D
100
AcDbEntity
  8
CSLAYER10
  6
Continuous
100
AcDbLine
 10
190.995898096886
 20
132.076612152149
 30
0.0
 11
191.513536096886
 21
130.144760152149
 31
0.0
  0
TEXT
  5
709
330
1D
100
AcDbEntity
  8
CSLAYER10
100
AcDbText
 10
129.745898096886
 20
83.576604152149
 30
0.0
 40
4.0
  1
6
 41
0.75
  7
FX_FONT
 72
     5
 11
132.245898096886
 21
83.576604152149
 31
0.0
100
AcDbText
  0
LINE
  5
70A
330
1D
100
AcDbEntity
  8
CSLAYER10
  6
Continuous
100
AcDbLine
 10
127.995898096886
 20
82.576612152149
 30
0.0
 11
143.995898096886
 21
82.576612152149
 31
0.0
  0
LINE
  5
70B
330
1D
100
AcDbEntity
  8
CSLAYER10
  6
Continuous
100
AcDbLine
 10
127.995898096886
 20
82.576612152149
 30
0.0
 11
129.927750096886
 21
83.094250152149
 31
0.0
  0
LINE
  5
70C
330
1D
100
AcDbEntity
  8
CSLAYER10
  6
Continuous
100
AcDbLine
 10
127.995898096886
 20
82.576612152149
 30
0.0
 11
129.927750096886
 21
82.058974152149
 31
0.0
  0
LINE
  5
70D
330
1D
100
AcDbEntity
  8
CSLAYER10
  6
Continuous
100
AcDbLine
 10
135.927750096886
 20
82.058974152149
 30
0.0
 11
132.064046096886
 21
83.094250152149
 31
0.0
  0
LINE
  5
70E
330
1D
100
AcDbEntity
  8
CSLAYER10
  6
Continuous
100
AcDbLine
 10
135.927750096886
 20
83.094250152149
 30
0.0
 11
132.064046096886
 21
82.058974152149
 31
0.0
  0
LINE
  5
710
330
1D
100
AcDbEntity
  8
CSLAYER10
  6
Continuous
100
AcDbLine
 10
133.995898096886
 20
103.576612152149
 30
0.0
 11
133.995898096886
 21
81.576612152149
 31
0.0
  0
TEXT
  5
711
330
1D
100
AcDbEntity
  8
CSLAYER10
100
AcDbText
 10
136.495898096886
 20
83.576604152149
 30
0.0
 40
4.0
  1
10
 41
0.705329153605
  7
FX_FONT
 72
     5
 11
141.495898096886
 21
83.576604152149
 31
0.0
100
AcDbText
  0
LINE
  5
715
330
1D
100
AcDbEntity
  8
CSLAYER10
  6
Continuous
100
AcDbLine
 10
143.995898096886
 20
82.576612152149
 30
0.0
 11
142.064046096886
 21
83.094250152149
 31
0.0
  0
LINE
  5
716
330
1D
100
AcDbEntity
  8
CSLAYER10
  6
Continuous
100
AcDbLine
 10
143.995898096886
 20
82.576612152149
 30
0.0
 11
142.064046096886
 21
82.058974152149
 31
0.0
  0
LINE
  5
717
330
1D
100
AcDbEntity
  8
CSLAYER10
  6
Continuous
100
AcDbLine
 10
143.995898096886
 20
103.576612152149
 30
0.0
 11
143.995898096886
 21
81.576612152149
 31
0.0
  0
TEXT
  5
718
330
1D
100
AcDbEntity
  8
CSLAYER10
100
AcDbText
 10
141.495898096886
 20
74.576604152149
 30
0.0
 40
4.0
  1
32
 41
0.681818181818
  7
FX_FONT
 72
     5
 11
146.495898096886
 21
74.576604152149
 31
0.0
100
AcDbText
  0
LINE
  5
719
330
1D
100
AcDbEntity
  8
CSLAYER10
  6
Continuous
100
AcDbLine
 10
127.995898096886
 20
73.576612152149
 30
0.0
 11
169.995898096886
 21
73.576612152149
 31
0.0
  0
LINE
  5
71A
330
1D
100
AcDbEntity
  8
CSLAYER10
  6
Continuous
100
AcDbLine
 10
127.995898096886
 20
73.576612152149
 30
0.0
 11
129.927750096886
 21
74.094250152149
 31
0.0
  0
LINE
  5
71B
330
1D
100
AcDbEntity
  8
CSLAYER10
  6
Continuous
100
AcDbLine
 10
127.995898096886
 20
73.576612152149
 30
0.0
 11
129.927750096886
 21
73.058974152149
 31
0.0
  0
LINE
  5
71C
330
1D
100
AcDbEntity
  8
CSLAYER10
  6
Continuous
100
AcDbLine
 10
161.927750096886
 20
73.058974152149
 30
0.0
 11
158.064046096886
 21
74.094250152149
 31
0.0
  0
LINE
  5
71D
330
1D
100
AcDbEntity
  8
CSLAYER10
  6
Continuous
100
AcDbLine
 10
161.927750096886
 20
74.094250152149
 30
0.0
 11
158.064046096886
 21
73.058974152149
 31
0.0
  0
TEXT
  5
71F
330
1D
100
AcDbEntity
  8
CSLAYER10
100
AcDbText
 10
162.495898096886
 20
74.576604152149
 30
0.0
 40
4.0
  1
10
 41
0.705329153605
  7
FX_FONT
 72
     5
 11
167.495898096886
 21
74.576604152149
 31
0.0
100
AcDbText
  0
LINE
  5
723
330
1D
100
AcDbEntity
  8
CSLAYER10
  6
Continuous
100
AcDbLine
 10
169.995898096886
 20
73.576612152149
 30
0.0
 11
168.064046096886
 21
74.094250152149
 31
0.0
  0
LINE
  5
724
330
1D
100
AcDbEntity
  8
CSLAYER10
  6
Continuous
100
AcDbLine
 10
169.995898096886
 20
73.576612152149
 30
0.0
 11
168.064046096886
 21
73.058974152149
 31
0.0
  0
TEXT
  5
725
330
1D
100
AcDbEntity
  8
CSLAYER10
100
AcDbText
 10
151.495898096886
 20
65.576604152149
 30
0.0
 40
4.0
  1
52
 41
0.679245283019
  7
FX_FONT
 72
     5
 11
156.495898096886
 21
65.576604152149
 31
0.0
100
AcDbText
  0
LINE
  5
726
330
1D
100
AcDbEntity
  8
CSLAYER10
  6
Continuous
100
AcDbLine
 10
127.995898096886
 20
64.576612152149
 30
0.0
 11
179.995898096886
 21
64.576612152149
 31
0.0
  0
LINE
  5
727
330
1D
100
AcDbEntity
  8
CSLAYER10
  6
Continuous
100
AcDbLine
 10
127.995898096886
 20
64.576612152149
 30
0.0
 11
129.927750096886
 21
65.094250152149
 31
0.0
  0
LINE
  5
728
330
1D
100
AcDbEntity
  8
CSLAYER10
  6
Continuous
100
AcDbLine
 10
127.995898096886
 20
64.576612152149
 30
0.0
 11
129.927750096886
 21
64.058974152149
 31
0.0
  0
LINE
  5
729
330
1D
100
AcDbEntity
  8
CSLAYER10
  6
Continuous
100
AcDbLine
 10
179.995898096886
 20
64.576612152149
 30
0.0
 11
178.064046096886
 21
65.094250152149
 31
0.0
  0
LINE
  5
72A
330
1D
100
AcDbEntity
  8
CSLAYER10
  6
Continuous
100
AcDbLine
 10
179.995898096886
 20
64.576612152149
 30
0.0
 11
178.064046096886
 21
64.058974152149
 31
0.0
  0
LINE
  5
72B
330
1D
100
AcDbEntity
  8
CSLAYER10
  6
Continuous
100
AcDbLine
 10
127.995898096886
 20
97.576612152149
 30
0.0
 11
127.995898096886
 21
63.576612152149
 31
0.0
  0
LINE
  5
72C
330
1D
100
AcDbEntity
  8
CSLAYER10
  6
Continuous
100
AcDbLine
 10
179.995898096886
 20
97.576612152149
 30
0.0
 11
179.995898096886
 21
63.576612152149
 31
0.0
  0
TEXT
  5
72D
330
1D
100
AcDbEntity
  8
CSLAYER10
100
AcDbText
 10
227.511401096886
 20
83.576604152149
 30
0.0
 40
4.0
  1
1.5
 41
0.661764705882
  7
FX_FONT
 72
     5
 11
235.011401096886
 21
83.576604152149
 31
0.0
100
AcDbText
  0
LINE
  5
72F
330
1D
100
AcDbEntity
  8
CSLAYER10
  6
Continuous
100
AcDbLine
 10
225.011417096886
 20
92.576612152149
 30
0.0
 11
225.011417096886
 21
81.576612152149
 31
0.0
  0
LINE
  5
730
330
1D
100
AcDbEntity
  8
CSLAYER10
  6
Continuous
100
AcDbLine
 10
226.511417096886
 20
92.576612152149
 30
0.0
 11
226.511417096886
 21
81.576612152149
 31
0.0
  0
LINE
  5
731
330
1D
100
AcDbEntity
  8
CSLAYER10
  6
Continuous
100
AcDbLine
 10
220.011417096886
 20
82.576612152149
 30
0.0
 11
236.011417096886
 21
82.576612152149
 31
0.0
  0
LINE
  5
732
330
1D
100
AcDbEntity
  8
CSLAYER10
  6
Continuous
100
AcDbLine
 10
225.011417096886
 20
82.576612152149
 30
0.0
 11
223.079565096886
 21
83.094250152149
 31
0.0
  0
LINE
  5
733
330
1D
100
AcDbEntity
  8
CSLAYER10
  6
Continuous
100
AcDbLine
 10
225.011417096886
 20
82.576612152149
 30
0.0
 11
223.079565096886
 21
82.058974152149
 31
0.0
  0
LINE
  5
735
330
1D
100
AcDbEntity
  8
CSLAYER10
  6
Continuous
100
AcDbLine
 10
226.511417096886
 20
82.576612152149
 30
0.0
 11
228.443268096886
 21
83.094250152149
 31
0.0
  0
LINE
  5
736
330
1D
100
AcDbEntity
  8
CSLAYER10
  6
Continuous
100
AcDbLine
 10
226.511417096886
 20
82.576612152149
 30
0.0
 11
228.443268096886
 21
82.058974152149
 31
0.0
  0
LINE
  5
737
330
1D
100
AcDbEntity
  8
CSLAYER10
  6
Continuous
100
AcDbLine
 10
404.037700096886
 20
69.600350152149
 30
0.0
 11
404.165941096886
 21
69.537102152149
 31
0.0
  0
LINE
  5
738
330
1D
100
AcDbEntity
  8
CSLAYER10
  6
Continuous
100
AcDbLine
 10
404.165941096886
 20
69.537102152149
 30
0.0
 11
404.294166096886
 21
69.473799152149
 31
0.0
  0
LINE
  5
739
330
1D
100
AcDbEntity
  8
CSLAYER10
  6
Continuous
100
AcDbLine
 10
404.294166096886
 20
69.473799152149
 30
0.0
 11
404.422360096886
 21
69.410386152149
 31
0.0
  0
LINE
  5
73A
330
1D
100
AcDbEntity
  8
CSLAYER10
  6
Continuous
100
AcDbLine
 10
404.422360096886
 20
69.410386152149
 30
0.0
 11
404.550505096886
 21
69.346808152149
 31
0.0
  0
LINE
  5
73B
330
1D
100
AcDbEntity
  8
CSLAYER10
  6
Continuous
100
AcDbLine
 10
404.550505096886
 20
69.346808152149
 30
0.0
 11
404.678587096886
 21
69.283011152149
 31
0.0
  0
LINE
  5
73C
330
1D
100
AcDbEntity
  8
CSLAYER10
  6
Continuous
100
AcDbLine
 10
404.678587096886
 20
69.283011152149
 30
0.0
 11
404.806589096886
 21
69.218939152149
 31
0.0
  0
LINE
  5
73D
330
1D
100
AcDbEntity
  8
CSLAYER10
  6
Continuous
100
AcDbLine
 10
404.806589096886
 20
69.218939152149
 30
0.0
 11
404.934496096886
 21
69.154538152149
 31
0.0
  0
LINE
  5
73E
330
1D
100
AcDbEntity
  8
CSLAYER10
  6
Continuous
100
AcDbLine
 10
404.934496096886
 20
69.154538152149
 30
0.0
 11
405.062291096886
 21
69.089752152149
 31
0.0
  0
LINE
  5
73F
330
1D
100
AcDbEntity
  8
CSLAYER10
  6
Continuous
100
AcDbLine
 10
405.062291096886
 20
69.089752152149
 30
0.0
 11
405.189959096886
 21
69.024528152149
 31
0.0
  0
LINE
  5
740
330
1D
100
AcDbEntity
  8
CSLAYER10
  6
Continuous
100
AcDbLine
 10
405.189959096886
 20
69.024528152149
 30
0.0
 11
405.317483096886
 21
68.958809152149
 31
0.0
  0
LINE
  5
741
330
1D
100
AcDbEntity
  8
CSLAYER10
  6
Continuous
100
AcDbLine
 10
405.317483096886
 20
68.958809152149
 30
0.0
 11
405.444848096886
 21
68.892541152149
 31
0.0
  0
LINE
  5
742
330
1D
100
AcDbEntity
  8
CSLAYER10
  6
Continuous
100
AcDbLine
 10
405.444848096886
 20
68.892541152149
 30
0.0
 11
405.572038096886
 21
68.825670152149
 31
0.0
  0
LINE
  5
743
330
1D
100
AcDbEntity
  8
CSLAYER10
  6
Continuous
100
AcDbLine
 10
405.572038096886
 20
68.825670152149
 30
0.0
 11
405.699037096886
 21
68.758140152149
 31
0.0
  0
LINE
  5
744
330
1D
100
AcDbEntity
  8
CSLAYER10
  6
Continuous
100
AcDbLine
 10
405.699037096886
 20
68.758140152149
 30
0.0
 11
405.825829096886
 21
68.689896152149
 31
0.0
  0
LINE
  5
745
330
1D
100
AcDbEntity
  8
CSLAYER10
  6
Continuous
100
AcDbLine
 10
405.825829096886
 20
68.689896152149
 30
0.0
 11
405.952398096886
 21
68.620883152149
 31
0.0
  0
LINE
  5
746
330
1D
100
AcDbEntity
  8
CSLAYER10
  6
Continuous
100
AcDbLine
 10
405.952398096886
 20
68.620883152149
 30
0.0
 11
406.078728096886
 21
68.551047152149
 31
0.0
  0
LINE
  5
747
330
1D
100
AcDbEntity
  8
CSLAYER10
  6
Continuous
100
AcDbLine
 10
406.078728096886
 20
68.551047152149
 30
0.0
 11
406.204803096886
 21
68.480333152149
 31
0.0
  0
LINE
  5
748
330
1D
100
AcDbEntity
  8
CSLAYER10
  6
Continuous
100
AcDbLine
 10
406.204803096886
 20
68.480333152149
 30
0.0
 11
406.330608096886
 21
68.408686152149
 31
0.0
  0
LINE
  5
749
330
1D
100
AcDbEntity
  8
CSLAYER10
  6
Continuous
100
AcDbLine
 10
406.330608096886
 20
68.408686152149
 30
0.0
 11
406.456125096886
 21
68.336050152149
 31
0.0
  0
LINE
  5
74A
330
1D
100
AcDbEntity
  8
CSLAYER10
  6
Continuous
100
AcDbLine
 10
406.456125096886
 20
68.336050152149
 30
0.0
 11
406.581341096886
 21
68.262372152149
 31
0.0
  0
LINE
  5
74B
330
1D
100
AcDbEntity
  8
CSLAYER10
  6
Continuous
100
AcDbLine
 10
406.581341096886
 20
68.262372152149
 30
0.0
 11
406.706238096886
 21
68.187595152149
 31
0.0
  0
LINE
  5
74C
330
1D
100
AcDbEntity
  8
CSLAYER10
  6
Continuous
100
AcDbLine
 10
406.706238096886
 20
68.187595152149
 30
0.0
 11
406.849646096886
 21
68.100137152149
 31
0.0
  0
LINE
  5
74D
330
1D
100
AcDbEntity
  8
CSLAYER10
  6
Continuous
100
AcDbLine
 10
406.849646096886
 20
68.100137152149
 30
0.0
 11
406.992703096886
 21
68.011481152149
 31
0.0
  0
LINE
  5
74E
330
1D
100
AcDbEntity
  8
CSLAYER10
  6
Continuous
100
AcDbLine
 10
406.992703096886
 20
68.011481152149
 30
0.0
 11
407.135502096886
 21
67.921959152149
 31
0.0
  0
LINE
  5
74F
330
1D
100
AcDbEntity
  8
CSLAYER10
  6
Continuous
100
AcDbLine
 10
407.135502096886
 20
67.921959152149
 30
0.0
 11
407.278135096886
 21
67.831900152149
 31
0.0
  0
LINE
  5
750
330
1D
100
AcDbEntity
  8
CSLAYER10
  6
Continuous
100
AcDbLine
 10
407.278135096886
 20
67.831900152149
 30
0.0
 11
407.420695096886
 21
67.741636152149
 31
0.0
  0
LINE
  5
751
330
1D
100
AcDbEntity
  8
CSLAYER10
  6
Continuous
100
AcDbLine
 10
407.420695096886
 20
67.741636152149
 30
0.0
 11
407.563274096886
 21
67.651498152149
 31
0.0
  0
LINE
  5
752
330
1D
100
AcDbEntity
  8
CSLAYER10
  6
Continuous
100
AcDbLine
 10
407.563274096886
 20
67.651498152149
 30
0.0
 11
407.705965096886
 21
67.561815152149
 31
0.0
  0
LINE
  5
753
330
1D
100
AcDbEntity
  8
CSLAYER10
  6
Continuous
100
AcDbLine
 10
407.705965096886
 20
67.561815152149
 30
0.0
 11
407.848861096886
 21
67.472920152149
 31
0.0
  0
LINE
  5
754
330
1D
100
AcDbEntity
  8
CSLAYER10
  6
Continuous
100
AcDbLine
 10
407.848861096886
 20
67.472920152149
 30
0.0
 11
407.992053096886
 21
67.385142152149
 31
0.0
  0
LINE
  5
755
330
1D
100
AcDbEntity
  8
CSLAYER10
  6
Continuous
100
AcDbLine
 10
407.992053096886
 20
67.385142152149
 30
0.0
 11
408.135635096886
 21
67.298813152149
 31
0.0
  0
LINE
  5
756
330
1D
100
AcDbEntity
  8
CSLAYER10
  6
Continuous
100
AcDbLine
 10
408.135635096886
 20
67.298813152149
 30
0.0
 11
408.279699096886
 21
67.214263152149
 31
0.0
  0
LINE
  5
757
330
1D
100
AcDbEntity
  8
CSLAYER10
  6
Continuous
100
AcDbLine
 10
408.279699096886
 20
67.214263152149
 30
0.0
 11
408.424338096886
 21
67.131823152149
 31
0.0
  0
LINE
  5
758
330
1D
100
AcDbEntity
  8
CSLAYER10
  6
Continuous
100
AcDbLine
 10
408.424338096886
 20
67.131823152149
 30
0.0
 11
408.569643096886
 21
67.051824152149
 31
0.0
  0
LINE
  5
759
330
1D
100
AcDbEntity
  8
CSLAYER10
  6
Continuous
100
AcDbLine
 10
408.569643096886
 20
67.051824152149
 30
0.0
 11
408.715708096886
 21
66.974596152149
 31
0.0
  0
LINE
  5
75A
330
1D
100
AcDbEntity
  8
CSLAYER10
  6
Continuous
100
AcDbLine
 10
408.715708096886
 20
66.974596152149
 30
0.0
 11
408.862626096886
 21
66.900470152149
 31
0.0
  0
LINE
  5
75B
330
1D
100
AcDbEntity
  8
CSLAYER10
  6
Continuous
100
AcDbLine
 10
408.862626096886
 20
66.900470152149
 30
0.0
 11
409.010488096886
 21
66.829777152149
 31
0.0
  0
LINE
  5
75C
330
1D
100
AcDbEntity
  8
CSLAYER10
  6
Continuous
100
AcDbLine
 10
409.010488096886
 20
66.829777152149
 30
0.0
 11
409.159387096886
 21
66.762847152149
 31
0.0
  0
LINE
  5
75D
330
1D
100
AcDbEntity
  8
CSLAYER10
  6
Continuous
100
AcDbLine
 10
409.159387096886
 20
66.762847152149
 30
0.0
 11
409.309416096886
 21
66.700012152149
 31
0.0
  0
LINE
  5
75E
330
1D
100
AcDbEntity
  8
CSLAYER10
  6
Continuous
100
AcDbLine
 10
409.309416096886
 20
66.700012152149
 30
0.0
 11
409.460667096886
 21
66.641602152149
 31
0.0
  0
LINE
  5
75F
330
1D
100
AcDbEntity
  8
CSLAYER10
  6
Continuous
100
AcDbLine
 10
409.460667096886
 20
66.641602152149
 30
0.0
 11
409.613233096886
 21
66.587948152149
 31
0.0
  0
LINE
  5
760
330
1D
100
AcDbEntity
  8
CSLAYER10
  6
Continuous
100
AcDbLine
 10
409.613233096886
 20
66.587948152149
 30
0.0
 11
409.767207096886
 21
66.539381152149
 31
0.0
  0
LINE
  5
761
330
1D
100
AcDbEntity
  8
CSLAYER10
  6
Continuous
100
AcDbLine
 10
409.767207096886
 20
66.539381152149
 30
0.0
 11
409.925298096886
 21
66.495446152149
 31
0.0
  0
LINE
  5
762
330
1D
100
AcDbEntity
  8
CSLAYER10
  6
Continuous
100
AcDbLine
 10
409.925298096886
 20
66.495446152149
 30
0.0
 11
410.084865096886
 21
66.456847152149
 31
0.0
  0
LINE
  5
763
330
1D
100
AcDbEntity
  8
CSLAYER10
  6
Continuous
100
AcDbLine
 10
410.084865096886
 20
66.456847152149
 30
0.0
 11
410.245837096886
 21
66.423317152149
 31
0.0
  0
LINE
  5
764
330
1D
100
AcDbEntity
  8
CSLAYER10
  6
Continuous
100
AcDbLine
 10
410.245837096886
 20
66.423317152149
 30
0.0
 11
410.408137096886
 21
66.394589152149
 31
0.0
  0
LINE
  5
765
330
1D
100
AcDbEntity
  8
CSLAYER10
  6
Continuous
100
AcDbLine
 10
410.408137096886
 20
66.394589152149
 30
0.0
 11
410.571694096886
 21
66.370396152149
 31
0.0
  0
LINE
  5
766
330
1D
100
AcDbEntity
  8
CSLAYER10
  6
Continuous
100
AcDbLine
 10
410.571694096886
 20
66.370396152149
 30
0.0
 11
410.736432096886
 21
66.350471152149
 31
0.0
  0
LINE
  5
767
330
1D
100
AcDbEntity
  8
CSLAYER10
  6
Continuous
100
AcDbLine
 10
410.736432096886
 20
66.350471152149
 30
0.0
 11
410.902278096886
 21
66.334549152149
 31
0.0
  0
LINE
  5
768
330
1D
100
AcDbEntity
  8
CSLAYER10
  6
Continuous
100
AcDbLine
 10
410.902278096886
 20
66.334549152149
 30
0.0
 11
411.069158096886
 21
66.322361152149
 31
0.0
  0
LINE
  5
769
330
1D
100
AcDbEntity
  8
CSLAYER10
  6
Continuous
100
AcDbLine
 10
411.069158096886
 20
66.322361152149
 30
0.0
 11
411.236999096886
 21
66.313641152149
 31
0.0
  0
LINE
  5
76A
330
1D
100
AcDbEntity
  8
CSLAYER10
  6
Continuous
100
AcDbLine
 10
411.236999096886
 20
66.313641152149
 30
0.0
 11
411.405726096886
 21
66.308122152149
 31
0.0
  0
LINE
  5
76B
330
1D
100
AcDbEntity
  8
CSLAYER10
  6
Continuous
100
AcDbLine
 10
411.405726096886
 20
66.308122152149
 30
0.0
 11
411.575265096886
 21
66.305538152149
 31
0.0
  0
LINE
  5
76C
330
1D
100
AcDbEntity
  8
CSLAYER10
  6
Continuous
100
AcDbLine
 10
411.575265096886
 20
66.305538152149
 30
0.0
 11
411.745543096886
 21
66.305622152149
 31
0.0
  0
LINE
  5
76D
330
1D
100
AcDbEntity
  8
CSLAYER10
  6
Continuous
100
AcDbLine
 10
411.745543096886
 20
66.305622152149
 30
0.0
 11
411.916486096886
 21
66.308107152149
 31
0.0
  0
LINE
  5
76E
330
1D
100
AcDbEntity
  8
CSLAYER10
  6
Continuous
100
AcDbLine
 10
411.916486096886
 20
66.308107152149
 30
0.0
 11
412.088019096886
 21
66.312726152149
 31
0.0
  0
LINE
  5
76F
330
1D
100
AcDbEntity
  8
CSLAYER10
  6
Continuous
100
AcDbLine
 10
412.088019096886
 20
66.312726152149
 30
0.0
 11
412.260070096886
 21
66.319212152149
 31
0.0
  0
LINE
  5
770
330
1D
100
AcDbEntity
  8
CSLAYER10
  6
Continuous
100
AcDbLine
 10
412.260070096886
 20
66.319212152149
 30
0.0
 11
412.432563096886
 21
66.327300152149
 31
0.0
  0
LINE
  5
771
330
1D
100
AcDbEntity
  8
CSLAYER10
  6
Continuous
100
AcDbLine
 10
412.432563096886
 20
66.327300152149
 30
0.0
 11
412.605427096886
 21
66.336721152149
 31
0.0
  0
LINE
  5
772
330
1D
100
AcDbEntity
  8
CSLAYER10
  6
Continuous
100
AcDbLine
 10
412.605427096886
 20
66.336721152149
 30
0.0
 11
412.778585096886
 21
66.347209152149
 31
0.0
  0
LINE
  5
773
330
1D
100
AcDbEntity
  8
CSLAYER10
  6
Continuous
100
AcDbLine
 10
412.778585096886
 20
66.347209152149
 30
0.0
 11
412.951965096886
 21
66.358497152149
 31
0.0
  0
LINE
  5
774
330
1D
100
AcDbEntity
  8
CSLAYER10
  6
Continuous
100
AcDbLine
 10
412.951965096886
 20
66.358497152149
 30
0.0
 11
413.125493096886
 21
66.370319152149
 31
0.0
  0
LINE
  5
775
330
1D
100
AcDbEntity
  8
CSLAYER10
  6
Continuous
100
AcDbLine
 10
413.125493096886
 20
66.370319152149
 30
0.0
 11
413.299095096886
 21
66.382408152149
 31
0.0
  0
TEXT
  5
776
330
1D
100
AcDbEntity
  8
CSLAYER10
100
AcDbText
 10
413.478411096886
 20
75.684034152149
 30
0.0
 40
4.0
  1
ロ5
 41
0.614754098361
  7
FX_FONT
 72
     5
 11
418.478411096886
 21
75.684034152149
 31
0.0
100
AcDbText
  0
LINE
  5
778
330
1D
100
AcDbEntity
  8
CSLAYER10
  6
Continuous
100
AcDbLine
 10
400.978407096886
 20
74.684039152149
 30
0.0
 11
420.978407096886
 21
74.684039152149
 31
0.0
  0
LINE
  5
779
330
1D
100
AcDbEntity
  8
CSLAYER10
  6
Continuous
100
AcDbLine
 10
405.978407096886
 20
74.684039152149
 30
0.0
 11
404.046555096886
 21
75.201677152149
 31
0.0
  0
LINE
  5
77A
330
1D
100
AcDbEntity
  8
CSLAYER10
  6
Continuous
100
AcDbLine
 10
405.978407096886
 20
74.684039152149
 30
0.0
 11
404.046555096886
 21
74.166401152149
 31
0.0
  0
LINE
  5
77C
330
1D
100
AcDbEntity
  8
CSLAYER10
  6
Continuous
100
AcDbLine
 10
410.978407096886
 20
74.684039152149
 30
0.0
 11
412.910258096886
 21
75.201677152149
 31
0.0
  0
LINE
  5
77D
330
1D
100
AcDbEntity
  8
CSLAYER10
  6
Continuous
100
AcDbLine
 10
410.978407096886
 20
74.684039152149
 30
0.0
 11
412.910258096886
 21
74.166401152149
 31
0.0
  0
TEXT
  5
77E
330
1D
100
AcDbEntity
  8
CSLAYER10
100
AcDbText
 10
454.995929096886
 20
69.616857152149
 30
0.0
 40
4.0
  1
70
 50
90.0
 41
0.705329153605
  7
FX_FONT
 72
     5
 11
454.995929096886
 21
74.616857152149
 31
0.0
100
AcDbText
  0
LINE
  5
77F
330
1D
100
AcDbEntity
  8
CSLAYER10
  6
Continuous
100
AcDbLine
 10
455.995898096886
 20
59.616860152149
 30
0.0
 11
455.995898096886
 21
100.616860152149
 31
0.0
  0
LINE
  5
780
330
1D
100
AcDbEntity
  8
CSLAYER10
  6
Continuous
100
AcDbLine
 10
455.995898096886
 20
59.616860152149
 30
0.0
 11
455.478260096886
 21
61.548711152149
 31
0.0
  0
LINE
  5
781
330
1D
100
AcDbEntity
  8
CSLAYER10
  6
Continuous
100
AcDbLine
 10
455.995898096886
 20
59.616860152149
 30
0.0
 11
456.513536096886
 21
61.548711152149
 31
0.0
  0
LINE
  5
782
330
1D
100
AcDbEntity
  8
CSLAYER10
  6
Continuous
100
AcDbLine
 10
455.995898096886
 20
84.616860152149
 30
0.0
 11
455.478260096886
 21
82.685008152149
 31
0.0
  0
LINE
  5
783
330
1D
100
AcDbEntity
  8
CSLAYER10
  6
Continuous
100
AcDbLine
 10
455.995898096886
 20
84.616860152149
 30
0.0
 11
456.513536096886
 21
82.685008152149
 31
0.0
  0
LINE
  5
784
330
1D
100
AcDbEntity
  8
CSLAYER10
  6
Continuous
100
AcDbLine
 10
410.978407096886
 20
59.616860152149
 30
0.0
 11
456.995898096886
 21
59.616860152149
 31
0.0
  0
LINE
  5
785
330
1D
100
AcDbEntity
  8
CSLAYER10
  6
Continuous
100
AcDbLine
 10
445.995898096886
 20
84.616860152149
 30
0.0
 11
456.995898096886
 21
84.616860152149
 31
0.0
  0
LINE
  5
786
330
1D
100
AcDbEntity
  8
CSLAYER10
  6
Continuous
100
AcDbLine
 10
385.120899029577
 20
220.891194175959
 30
0.0
 11
394.463204029577
 21
237.072541175959
 31
0.0
  0
LINE
  5
787
330
1D
100
AcDbEntity
  8
CSLAYER10
  6
Continuous
100
AcDbLine
 10
385.120899029577
 20
220.891194175959
 30
0.0
 11
385.638537029577
 21
222.823046175958
 31
0.0
  0
LINE
  5
788
330
1D
100
AcDbEntity
  8
CSLAYER10
  6
Continuous
100
AcDbLine
 10
385.120899029577
 20
220.891194175959
 30
0.0
 11
386.535113029577
 21
222.305408175958
 31
0.0
  0
LINE
  5
78A
330
1D
100
AcDbEntity
  8
CSLAYER10
  6
Continuous
100
AcDbLine
 10
365.463204029577
 20
237.072541175959
 30
0.0
 11
394.463204029577
 21
237.072541175959
 31
0.0
  0
TEXT
  5
78B
330
1D
100
AcDbEntity
  8
CSLAYER10
100
AcDbText
 10
366.513648029577
 20
238.157899175958
 30
0.0
 40
4.0
  1
4-3.5mmネジ用穴
 41
0.595739559514
  7
FX_FONT
 72
     5
 11
394.013648029577
 21
238.157899175958
 31
0.0
100
AcDbText
  0
LINE
  5
78C
330
1D
100
AcDbEntity
  8
CSLAYER10
  6
Continuous
100
AcDbLine
 10
171.162520376045
 20
113.043215960128
 30
0.0
 11
191.988226972128
 21
58.893197177849
 31
0.0
  0
LINE
  5
78D
330
1D
100
AcDbEntity
  8
CSLAYER10
  6
Continuous
100
AcDbLine
 10
171.162520376045
 20
113.043215960128
 30
0.0
 11
172.339118232486
 21
111.425928655509
 31
0.0
  0
LINE
  5
78E
330
1D
100
AcDbEntity
  8
CSLAYER10
  6
Continuous
100
AcDbLine
 10
171.162520376045
 20
113.043215960128
 30
0.0
 11
171.372840714161
 21
111.054304759857
 31
0.0
  0
LINE
  5
78F
330
1D
100
AcDbEntity
  8
CSLAYER10
  6
Continuous
100
AcDbLine
 10
221.988226972128
 20
58.893197177849
 30
0.0
 11
191.988226972128
 21
58.893197177849
 31
0.0
  0
TEXT
  5
790
330
1D
100
AcDbEntity
  8
CSLAYER10
100
AcDbText
 10
193.630265804878
 20
59.854779594533
 30
0.0
 40
4.0
  1
3-3.5mmネジ用穴
 41
0.595739559514
  7
FX_FONT
 72
     5
 11
221.130265804878
 21
59.854779594533
 31
0.0
100
AcDbText
  0
TEXT
  5
7BD
330
1D
100
AcDbEntity
  8
CSLAYER10
100
AcDbText
 10
267.283115889937
 20
145.003530825922
 30
0.0
 40
4.0
  1
取付扉厚
 41
0.532840295319
  7
FX_FONT
 72
     5
 11
276.945286578391
 21
145.003530825922
 31
0.0
100
AcDbText
  0
CIRCLE
  5
80D
330
1D
100
AcDbEntity
  8
CSLAYER10
  6
Continuous
100
AcDbCircle
 10
128.870065673642
 20
201.076612152149
 30
0.0
 40
7.5
  0
LINE
  5
820
330
1D
100
AcDbEntity
  8
CSLAYER10
  6
Continuous
100
AcDbLine
 10
124.753555266587
 20
203.734495157213
 30
0.0
 11
132.986576080697
 21
198.418729147085
 31
0.0
1001
ACAD
1000
DSTYLE
1002
{
1070
    41
1040
2.6
1070
   173
1070
     1
1070
   344
1005
81A
1070
   343
1005
81A
1070
   279
1070
     2
1002
}
  0
LINE
  5
824
330
1D
100
AcDbEntity
  8
CSLAYER10
100
AcDbLine
 10
122.569284438353
 20
205.144800425206
 30
0.0
 11
87.432899166127
 21
227.831103152477
 31
0.0
  0
LINE
  5
825
330
1D
100
AcDbEntity
  8
CSLAYER10
100
AcDbLine
 10
87.432899166127
 20
227.831103152477
 30
0.0
 11
62.209858049913
 21
227.831103152477
 31
0.0
  0
TEXT
  5
84F
330
1D
100
AcDbEntity
  8
CSLAYER10
100
AcDbText
 10
65.580620514222
 20
229.177749135379
 30
0.0
 40
4.0
  1
%%C15貫通穴
 41
0.76361181991
  7
FX_FONT
 72
     5
 11
84.946664724729
 21
229.177749135379
 31
0.0
100
AcDbText
  0
HATCH
  5
850
102
{ACAD_XDICTIONARY
360
854
102
}
330
1D
100
AcDbEntity
  8
CSLAYER10
100
AcDbHatch
 10
0.0
 20
0.0
 30
0.0
210
0.0
220
0.0
230
1.0
  2
_USER
 70
     0
 71
     0
 91
        6
 92
        7
 72
     1
 73
     1
 93
        4
 10
124.7535552665866
 20
203.7344951572127
 42
0.0
 10
128.8700656736418
 20
201.076612152149
 42
0.0
 10
128.8700656736418
 20
208.576612152149
 42
0.2546696832790567
 10
122.5692844383532
 20
205.1448004252056
 42
0.0
 97
        0
 92
        7
 72
     1
 73
     1
 93
        4
 10
128.8700656736418
 20
201.076612152149
 42
0.0
 10
124.7535552665866
 20
203.7344951572127
 42
0.0
 10
122.5692844383532
 20
205.1448004252056
 42
0.1443199125813847
 10
121.3700656736418
 20
201.076612152149
 42
0.0
 97
        0
 92
        7
 72
     1
 73
     1
 93
        3
 10
136.3700656736418
 20
201.076612152149
 42
0.414213562373095
 10
128.8700656736418
 20
208.576612152149
 42
0.0
 10
128.8700656736418
 20
201.076612152149
 42
0.0
 97
        0
 92
        7
 72
     1
 73
     1
 93
        4
 10
135.1708469089304
 20
197.0084238790924
 42
0.0
 10
132.986576080697
 20
198.4187291470854
 42
0.0
 10
128.8700656736418
 20
201.076612152149
 42
0.0
 10
128.8700656736418
 20
193.576612152149
 42
0.2546696832790567
 97
        0
 92
        7
 72
     1
 73
     1
 93
        3
 10
128.8700656736418
 20
193.576612152149
 42
0.0
 10
128.8700656736418
 20
201.076612152149
 42
0.0
 10
121.3700656736418
 20
201.076612152149
 42
0.414213562373095
 97
        0
 92
        7
 72
     1
 73
     1
 93
        4
 10
132.986576080697
 20
198.4187291470854
 42
0.0
 10
135.1708469089304
 20
197.0084238790924
 42
0.1443199125813847
 10
136.3700656736418
 20
201.076612152149
 42
0.0
 10
128.8700656736418
 20
201.076612152149
 42
0.0
 97
        0
 75
     0
 76
     0
 52
45.0
 41
2.5
 77
     0
 78
     1
 53
45.0
 43
72.99589809688578
 44
-30.92338784785095
 45
-1.767766952966369
 46
1.767766952966369
 79
     0
 47
0.0
 98
        6
 10
126.2630966877546
 20
204.7597742659369
 10
123.849330715957
 20
201.7780633595987
 10
131.3124821214046
 20
205.2722558279638
 10
130.0368245535888
 20
198.7275778713436
 10
124.6014140472432
 20
198.3393342637475
 10
133.087310041844
 20
199.5595284590496
1001
ACAD
1010
0.0
1020
0.0
1030
0.0
1001
AcadAnnotative
1000
AnnotativeData
1002
{
1070
     1
1070
     0
1002
}
  0
LINE
  5
90A
330
1D
100
AcDbEntity
  8
0
100
AcDbLine
 10
105.26620489243
 20
186.611354599581
 30
0.0
 11
107.219430673642
 21
188.576612152149
 31
0.0
  0
LINE
  5
90B
330
1D
100
AcDbEntity
  8
0
100
AcDbLine
 10
107.219430673642
 20
188.576612152149
 30
0.0
 11
105.198453685733
 21
190.610038255397
 31
0.0
  0
ARC
  5
90C
330
1D
100
AcDbEntity
  8
CSLAYER1
100
AcDbCircle
 10
107.219430673642
 20
188.576612152149
 30
0.0
 40
3.5
100
AcDbArc
 50
115.986014221784
 51
304.013985995048
  0
CIRCLE
  5
911
330
1D
100
AcDbEntity
  8
CSLAYER1
100
AcDbCircle
 10
383.495898096886
 20
218.076612152149
 30
0.0
 40
3.25
  0
LINE
  5
912
330
1D
100
AcDbEntity
  8
CSLAYER1
100
AcDbLine
 10
381.915832987005
 20
216.496547042269
 30
0.0
 11
385.075963206766
 21
219.656677262029
 31
0.0
  0
LINE
  5
9AA
330
1D
100
AcDbEntity
  8
0
100
AcDbLine
 10
126.904808121074
 20
228.029837933361
 30
0.0
 11
128.870065673642
 21
226.076612152149
 31
0.0
  0
LINE
  5
9AB
330
1D
100
AcDbEntity
  8
0
100
AcDbLine
 10
128.870065673642
 20
226.076612152149
 30
0.0
 11
130.90349177689
 21
228.097589140058
 31
0.0
  0
ARC
  5
9AC
330
1D
100
AcDbEntity
  8
CSLAYER1
100
AcDbCircle
 10
128.870065673642
 20
226.076612152149
 30
0.0
 40
3.5
100
AcDbArc
 50
355.986012781944
 51
184.013987218056
  0
LINE
  5
9AD
330
1D
100
AcDbEntity
  8
0
100
AcDbLine
 10
152.473926454853
 20
190.541869704717
 30
0.0
 11
150.520700673642
 21
188.576612152149
 31
0.0
  0
LINE
  5
9AE
330
1D
100
AcDbEntity
  8
0
100
AcDbLine
 10
150.520700673642
 20
188.576612152149
 30
0.0
 11
152.541677661551
 21
186.543186048901
 31
0.0
  0
ARC
  5
9AF
330
1D
100
AcDbEntity
  8
CSLAYER1
100
AcDbCircle
 10
150.520700673642
 20
188.576612152149
 30
0.0
 40
3.5
100
AcDbArc
 50
235.986014004952
 51
64.013985778215
  0
LINE
  5
9B1
330
1D
100
AcDbEntity
  8
CSLAYER1
100
AcDbLine
 10
381.915832987005
 20
219.656677262029
 30
0.0
 11
385.075963206766
 21
216.496547042269
 31
0.0
  0
CIRCLE
  5
9E0
330
1D
100
AcDbEntity
  8
CSLAYER1
100
AcDbCircle
 10
433.495898096886
 20
218.076612152149
 30
0.0
 40
3.25
  0
LINE
  5
9E1
330
1D
100
AcDbEntity
  8
CSLAYER1
100
AcDbLine
 10
431.915832987006
 20
216.496547042269
 30
0.0
 11
435.075963206766
 21
219.656677262029
 31
0.0
  0
LINE
  5
9E2
330
1D
100
AcDbEntity
  8
CSLAYER1
100
AcDbLine
 10
431.915832987006
 20
219.656677262029
 30
0.0
 11
435.075963206766
 21
216.496547042269
 31
0.0
  0
CIRCLE
  5
9E3
330
1D
100
AcDbEntity
  8
CSLAYER1
100
AcDbCircle
 10
383.495898096886
 20
184.076612152149
 30
0.0
 40
3.25
  0
LINE
  5
9E4
330
1D
100
AcDbEntity
  8
CSLAYER1
100
AcDbLine
 10
381.915832987005
 20
182.496547042269
 30
0.0
 11
385.075963206766
 21
185.656677262029
 31
0.0
  0
LINE
  5
9E5
330
1D
100
AcDbEntity
  8
CSLAYER1
100
AcDbLine
 10
381.915832987005
 20
185.656677262029
 30
0.0
 11
385.075963206766
 21
182.496547042269
 31
0.0
  0
CIRCLE
  5
9E6
330
1D
100
AcDbEntity
  8
CSLAYER1
100
AcDbCircle
 10
433.495898096886
 20
184.076612152149
 30
0.0
 40
3.25
  0
LINE
  5
9E7
330
1D
100
AcDbEntity
  8
CSLAYER1
100
AcDbLine
 10
431.915832987005
 20
182.496547042269
 30
0.0
 11
435.075963206766
 21
185.656677262029
 31
0.0
  0
LINE
  5
9E8
330
1D
100
AcDbEntity
  8
CSLAYER1
100
AcDbLine
 10
431.915832987005
 20
185.656677262029
 30
0.0
 11
435.075963206766
 21
182.496547042269
 31
0.0
  0
CIRCLE
  5
A18
330
1D
100
AcDbEntity
  8
CSLAYER1
100
AcDbCircle
 10
159.995898096886
 20
132.076612152149
 30
0.0
 40
3.25
  0
LINE
  5
A19
330
1D
100
AcDbEntity
  8
CSLAYER1
100
AcDbLine
 10
158.415832987005
 20
130.496547042269
 30
0.0
 11
161.575963206766
 21
133.656677262029
 31
0.0
  0
LINE
  5
A1A
330
1D
100
AcDbEntity
  8
CSLAYER1
100
AcDbLine
 10
158.415832987005
 20
133.656677262029
 30
0.0
 11
161.575963206766
 21
130.496547042269
 31
0.0
  0
SPLINE
  5
A1E
330
1D
100
AcDbEntity
  8
CSLAYER1
100
AcDbSpline
210
0.0
220
0.0
230
1.0
 70
  1064
 71
     3
 72
     9
 73
     5
 74
     3
 42
0.000000001
 43
0.0000000001
 44
0.0
 12
1.0
 22
0.0
 32
0.0
 13
-0.9895890930501341
 23
-0.1439215998945711
 33
0.0
 40
0.0
 40
0.0
 40
0.0
 40
0.0
 40
4.100304866714182
 40
8.20060973342834
 40
8.20060973342834
 40
8.20060973342834
 40
8.20060973342834
 10
287.3886056736418
 20
221.326612152149
 30
0.0
 10
288.7553739625465
 20
221.326612152149
 30
0.0
 10
291.028952033476
 20
217.9782584127368
 30
0.0
 10
288.7411446650687
 20
215.0233196309734
 30
0.0
 10
287.3886056736418
 20
214.8266121521491
 30
0.0
 11
287.3886056736418
 21
221.326612152149
 31
0.0
 11
289.8886056736418
 21
218.076612152149
 31
0.0
 11
287.3886056736418
 21
214.8266121521491
 31
0.0
  0
SPLINE
  5
A1F
330
1D
100
AcDbEntity
  8
CSLAYER1
100
AcDbSpline
210
0.0
220
0.0
230
1.0
 70
  1064
 71
     3
 72
     9
 73
     5
 74
     3
 42
0.000000001
 43
0.0000000001
 44
0.0
 12
1.0
 22
0.0
 32
0.0
 13
-0.9895890930501341
 23
0.1439215998945711
 33
0.0
 40
0.0
 40
0.0
 40
0.0
 40
0.0
 40
4.100304866714182
 40
8.20060973342834
 40
8.20060973342834
 40
8.20060973342834
 40
8.20060973342834
 10
287.3886056736418
 20
180.826612152149
 30
0.0
 10
288.7553739625465
 20
180.826612152149
 30
0.0
 10
291.028952033476
 20
184.1749658915612
 30
0.0
 10
288.7411446650687
 20
187.1299046733247
 30
0.0
 10
287.3886056736418
 20
187.326612152149
 30
0.0
 11
287.3886056736418
 21
180.826612152149
 31
0.0
 11
289.8886056736418
 21
184.076612152149
 31
0.0
 11
287.3886056736418
 21
187.326612152149
 31
0.0
  0
SPLINE
  5
A4A
330
1D
100
AcDbEntity
  8
CSLAYER1
100
AcDbSpline
210
0.0
220
0.0
230
1.0
 70
  1064
 71
     3
 72
     9
 73
     5
 74
     3
 42
0.000000001
 43
0.0000000001
 44
0.0
 12
6.123233995736766E-17
 22
1.0
 32
0.0
 13
0.143921599894571
 23
-0.9895890930501341
 33
0.0
 40
0.0
 40
0.0
 40
0.0
 40
0.0
 40
4.100304866714271
 40
8.200609733428362
 40
8.200609733428362
 40
8.200609733428362
 40
8.200609733428362
 10
380.2753461131724
 20
85.61686015214906
 30
0.0
 10
380.2753461131724
 20
86.98362844105381
 30
0.0
 10
383.6236998525847
 20
89.25720651198324
 30
0.0
 10
386.5786386343481
 20
86.96939914357594
 30
0.0
 10
386.7753461131724
 20
85.61686015214906
 30
0.0
 11
380.2753461131724
 21
85.61686015214906
 31
0.0
 11
383.5253461131725
 21
88.11686015214906
 31
0.0
 11
386.7753461131724
 21
85.61686015214906
 31
0.0
  0
SPLINE
  5
A4B
330
1D
100
AcDbEntity
  8
CSLAYER1
100
AcDbSpline
210
0.0
220
0.0
230
1.0
 70
  1064
 71
     3
 72
     9
 73
     5
 74
     3
 42
0.000000001
 43
0.0000000001
 44
0.0
 12
-6.123233995736766E-17
 22
1.0
 32
0.0
 13
-0.143921599894571
 23
-0.9895890930501341
 33
0.0
 40
0.0
 40
0.0
 40
0.0
 40
0.0
 40
4.100304866714182
 40
8.200609733428363
 40
8.200609733428363
 40
8.200609733428363
 40
8.200609733428363
 10
436.6814680805991
 20
85.61686015214906
 30
0.0
 10
436.6814680805991
 20
86.98362844105378
 30
0.0
 10
433.3331143411868
 20
89.25720651198324
 30
0.0
 10
430.3781755594234
 20
86.96939914357597
 30
0.0
 10
430.1814680805991
 20
85.61686015214906
 30
0.0
 11
436.6814680805991
 21
85.61686015214906
 31
0.0
 11
433.4314680805991
 21
88.11686015214906
 31
0.0
 11
430.1814680805991
 21
85.61686015214906
 31
0.0
  0
TEXT
  5
B0E
330
1D
100
AcDbEntity
  8
CSLAYER10
100
AcDbText
 10
92.202814402529
 20
263.06552701514
 30
0.0
 40
8.0
  1
1100
100
AcDbText
  0
LINE
  5
B0F
330
1D
100
AcDbEntity
  8
CSLAYER10
100
AcDbLine
 10
86.821722185114
 20
260.808386260466
 30
0.0
 11
119.777693660195
 21
260.808386260466
 31
0.0
  0
LINE
  5
B10
330
1D
100
AcDbEntity
  8
CSLAYER10
  6
Continuous
100
AcDbLine
 10
133.36446596695
 20
199.00400233124
 30
0.0
 11
135.17084690893
 21
197.008423879092
 31
0.0
  0
LINE
  5
B11
330
1D
100
AcDbEntity
  8
CSLAYER10
  6
Continuous
100
AcDbLine
 10
135.17084690893
 20
197.008423879092
 30
0.0
 11
132.608686194444
 21
197.833455962931
 31
0.0
  0
LINE
  5
B12
330
1D
100
AcDbEntity
  8
CSLAYER10
  6
Continuous
100
AcDbLine
 10
135.17084690893
 20
197.008423879092
 30
0.0
 11
132.986576080697
 21
198.418729147085
 31
0.0
  0
LINE
  5
B13
330
1D
100
AcDbEntity
  8
CSLAYER10
  6
Continuous
100
AcDbLine
 10
124.375665380333
 20
203.149221973058
 30
0.0
 11
122.569284438353
 21
205.144800425206
 31
0.0
  0
LINE
  5
B14
330
1D
100
AcDbEntity
  8
CSLAYER10
  6
Continuous
100
AcDbLine
 10
122.569284438353
 20
205.144800425206
 30
0.0
 11
125.13144515284
 21
204.319768341367
 31
0.0
  0
LINE
  5
B15
330
1D
100
AcDbEntity
  8
CSLAYER10
  6
Continuous
100
AcDbLine
 10
122.569284438353
 20
205.144800425206
 30
0.0
 11
124.753555266587
 21
203.734495157213
 31
0.0
  0
LINE
  5
B16
330
1D
100
AcDbEntity
  8
CSLAYER10
  6
Continuous
100
AcDbLine
 10
166.153277585196
 20
116.076612152149
 30
0.0
 11
173.838518608576
 21
116.076612152149
 31
0.0
  0
CIRCLE
  5
B17
330
1D
100
AcDbEntity
  8
CSLAYER1
100
AcDbCircle
 10
169.995898096886
 20
116.076612152149
 30
0.0
 40
3.25
  0
LINE
  5
B18
330
1D
100
AcDbEntity
  8
CSLAYER1
100
AcDbLine
 10
168.415832987005
 20
114.496547042269
 30
0.0
 11
171.575963206766
 21
117.656677262029
 31
0.0
  0
LINE
  5
B19
330
1D
100
AcDbEntity
  8
CSLAYER1
100
AcDbLine
 10
168.415832987005
 20
117.656677262029
 30
0.0
 11
171.575963206766
 21
114.496547042269
 31
0.0
  0
LINE
  5
B1A
330
1D
100
AcDbEntity
  8
CSLAYER10
  6
Continuous
100
AcDbLine
 10
156.153277585196
 20
100.076612152149
 30
0.0
 11
163.838518608576
 21
100.076612152149
 31
0.0
  0
CIRCLE
  5
B1B
330
1D
100
AcDbEntity
  8
CSLAYER1
100
AcDbCircle
 10
159.995898096886
 20
100.076612152149
 30
0.0
 40
3.25
  0
LINE
  5
B1C
330
1D
100
AcDbEntity
  8
CSLAYER1
100
AcDbLine
 10
158.415832987005
 20
98.496547042269
 30
0.0
 11
161.575963206766
 21
101.656677262029
 31
0.0
  0
LINE
  5
B1D
330
1D
100
AcDbEntity
  8
CSLAYER1
100
AcDbLine
 10
158.415832987005
 20
101.656677262029
 30
0.0
 11
161.575963206766
 21
98.496547042269
 31
0.0
  0
LEADER
  5
B1E
330
1D
100
AcDbEntity
  8
CSLAYER1
100
AcDbLeader
  3
Standard
 76
     1
 10
58.244476001514
 20
246.491671782359
 30
0.0
 77
   256
1001
ACAD
1000
DSTYLE
1002
{
1070
   341
1005
81A
1070
     5
1000
OPEN30
1070
   279
1070
     2
1002
}
  0
TEXT
  5
B27
330
1D
100
AcDbEntity
  8
CSLAYER10
100
AcDbText
 10
149.942016838744
 20
232.658119048062
 30
0.0
 40
4.0
  1
青赤表示
 41
0.596098265896
  7
FX_FONT
100
AcDbText
  0
LINE
  5
B29
330
1D
100
AcDbEntity
  8
CSLAYER10
100
AcDbLine
 10
133.125793883847
 20
216.582745894291
 30
0.0
 11
147.01152145785
 21
232.083092953642
 31
0.0
1001
ACAD
1000
DSTYLE
1002
{
1070
   279
1070
     2
1002
}
  0
LINE
  5
B2A
330
1D
100
AcDbEntity
  8
CSLAYER10
100
AcDbLine
 10
147.01152145785
 20
232.083092953642
 30
0.0
 11
163.771094516278
 21
232.083092953642
 31
0.0
1001
ACAD
1000
DSTYLE
1002
{
1070
   279
1070
     2
1002
}
  0
LINE
  5
B2B
330
1D
100
AcDbEntity
  8
CSLAYER10
100
AcDbLine
 10
133.624738592276
 20
216.13577459299
 30
0.0
 11
131.457673079884
 21
214.720657554983
 31
0.0
  0
LINE
  5
B2C
330
1D
100
AcDbEntity
  8
CSLAYER10
100
AcDbLine
 10
131.457673079884
 20
214.720657554983
 30
0.0
 11
132.626849175418
 21
217.029717195592
 31
0.0
  0
LINE
  5
B2D
330
1D
100
AcDbEntity
  8
CSLAYER10
100
AcDbLine
 10
131.457673079884
 20
214.720657554983
 30
0.0
 11
133.125793883847
 21
216.582745894291
 31
0.0
  0
ENDSEC
  0
SECTION
  2
OBJECTS
  0
DICTIONARY
  5
C
330
0
100
AcDbDictionary
281
     1
  3
ACAD_GROUP
350
D
  3
ACAD_IMAGE_VARS
350
B1F
  3
ACAD_LAYOUT
350
1A
  3
ACAD_MATERIAL
350
49F
  3
ACAD_MLEADERSTYLE
350
4A5
  3
ACAD_MLINESTYLE
350
17
  3
ACAD_PLOTSETTINGS
350
19
  3
ACAD_PLOTSTYLENAME
350
E
  3
ACAD_SCALELIST
350
460
  3
ACAD_TABLESTYLE
350
4A3
  3
ACAD_VISUALSTYLE
350
486
  3
ACDB_RECOMPOSE_DATA
350
C51
  3
AcDbVariableDictionary
350
7BE
  0
SUN
  5
4A8
330
3B
100
AcDbSun
 90
        1
290
     0
 63
     7
 40
1.0
291
     1
 91
  2455826
 92
 54000000
292
     0
 70
     2
 71
   256
280
     1
  0
DICTIONARY
  5
852
330
1D
100
AcDbDictionary
280
     1
281
     1
  3
ACAD_SORTENTS
360
853
  0
DICTIONARY
  5
8CC
330
8A8
100
AcDbDictionary
280
     1
281
     1
  3
ACAD_SORTENTS
360
8CD
  0
DICTIONARY
  5
8F8
330
8D4
100
AcDbDictionary
280
     1
281
     1
  3
ACAD_SORTENTS
360
8F9
  0
DICTIONARY
  5
938
330
914
100
AcDbDictionary
280
     1
281
     1
  3
ACAD_SORTENTS
360
939
  0
DICTIONARY
  5
96A
330
946
100
AcDbDictionary
280
     1
281
     1
  3
ACAD_SORTENTS
360
96B
  0
DICTIONARY
  5
9A1
330
97D
100
AcDbDictionary
280
     1
281
     1
  3
ACAD_SORTENTS
360
9A2
  0
DICTIONARY
  5
9D6
330
9B2
100
AcDbDictionary
280
     1
281
     1
  3
ACAD_SORTENTS
360
9D7
  0
DICTIONARY
  5
A0E
330
9E9
100
AcDbDictionary
280
     1
281
     1
  3
ACAD_SORTENTS
360
A0F
  0
DICTIONARY
  5
A44
330
A20
100
AcDbDictionary
280
     1
281
     1
  3
ACAD_SORTENTS
360
A45
  0
DICTIONARY
  5
854
330
850
100
AcDbDictionary
280
     1
281
     1
  3
AcDbContextDataManager
360
855
  0
DICTIONARY
  5
D
102
{ACAD_REACTORS
330
C
102
}
330
C
100
AcDbDictionary
281
     1
  0
RASTERVARIABLES
  5
B1F
102
{ACAD_REACTORS
330
C
102
}
330
C
100
AcDbRasterVariables
 90
        0
 70
     1
 71
     1
 72
     0
  0
DICTIONARY
  5
1A
102
{ACAD_REACTORS
330
C
102
}
330
C
100
AcDbDictionary
281
     1
  3
Layout1
350
1C
  3
Model
350
1E
  0
DICTIONARY
  5
49F
102
{ACAD_REACTORS
330
C
102
}
330
C
100
AcDbDictionary
281
     1
  3
ByBlock
350
4A1
  3
ByLayer
350
4A0
  3
Global
350
4A2
  0
DICTIONARY
  5
4A5
102
{ACAD_REACTORS
330
C
102
}
330
C
100
AcDbDictionary
281
     1
  3
Standard
350
4A6
  0
DICTIONARY
  5
17
102
{ACAD_REACTORS
330
C
102
}
330
C
100
AcDbDictionary
281
     1
  3
Standard
350
18
  0
DICTIONARY
  5
19
102
{ACAD_REACTORS
330
C
102
}
330
C
100
AcDbDictionary
281
     1
  0
ACDBDICTIONARYWDFLT
  5
E
102
{ACAD_REACTORS
330
C
102
}
330
C
100
AcDbDictionary
281
     1
  3
Normal
350
F
100
AcDbDictionaryWithDefault
340
F
  0
DICTIONARY
  5
460
102
{ACAD_REACTORS
330
C
102
}
330
C
100
AcDbDictionary
281
     1
  3
A0
350
461
  3
A1
350
462
  3
A2
350
463
  3
A3
350
464
  3
A4
350
465
  3
A5
350
466
  3
A6
350
467
  3
A7
350
468
  3
A8
350
469
  3
A9
350
46A
  3
B0
350
46B
  3
B1
350
46C
  3
B2
350
46D
  3
B3
350
46E
  3
B4
350
46F
  3
B5
350
470
  3
B6
350
471
  3
B7
350
472
  3
B8
350
473
  3
B9
350
474
  3
C0
350
475
  3
C1
350
476
  3
C2
350
477
  3
C3
350
478
  3
C4
350
479
  3
C5
350
47A
  3
C6
350
47B
  3
C7
350
47C
  3
C8
350
47D
  3
C9
350
47E
  3
D0
350
47F
  3
D1
350
480
  3
D2
350
481
  0
DICTIONARY
  5
4A3
102
{ACAD_REACTORS
330
C
102
}
330
C
100
AcDbDictionary
281
     1
  3
Standard
350
4A4
  0
DICTIONARY
  5
486
102
{ACAD_REACTORS
330
C
102
}
330
C
100
AcDbDictionary
281
     1
  3
2dWireframe
350
48B
  3
Basic
350
48E
  3
Brighten
350
492
  3
ColorChange
350
496
  3
Conceptual
350
490
  3
Dim
350
491
  3
EdgeColorOff
350
499
  3
Facepattern
350
495
  3
Flat
350
487
  3
FlatWithEdges
350
488
  3
Gouraud
350
489
  3
GouraudWithEdges
350
48A
  3
Hidden
350
48D
  3
JitterOff
350
497
  3
Linepattern
350
494
  3
Modeling
350
4A7
  3
OverhangOff
350
498
  3
Realistic
350
48F
  3
Shaded
350
49E
  3
Shaded with edges
350
49D
  3
Shades of Gray
350
49A
  3
Sketchy
350
49B
  3
Thicken
350
493
  3
Wireframe
350
48C
  3
X-Ray
350
49C
  0
XRECORD
  5
C51
102
{ACAD_REACTORS
330
C
102
}
330
C
100
AcDbXrecord
280
     1
 90
        1
330
4A4
  0
DICTIONARY
  5
7BE
102
{ACAD_REACTORS
330
C
102
}
330
C
100
AcDbDictionary
281
     1
  3
CANNOSCALE
350
C32
  3
CMLEADERSTYLE
350
7C1
  3
CTABLESTYLE
350
7C0
  3
DIMASSOC
350
A6E
  3
HIDETEXT
350
A6F
  3
MSLTSCALE
350
7C2
  0
SORTENTSTABLE
  5
853
102
{ACAD_REACTORS
330
852
102
}
330
852
100
AcDbSortentsTable
330
1D
331
0
  5
823
331
61A
  5
61B
331
61B
  5
61C
331
61C
  5
61D
331
61D
  5
61E
331
61E
  5
61F
331
61F
  5
620
331
620
  5
621
331
621
  5
622
331
622
  5
623
331
623
  5
624
331
624
  5
625
331
625
  5
626
331
626
  5
627
331
627
  5
628
331
628
  5
629
331
629
  5
62A
331
62A
  5
62B
331
62B
  5
62C
331
62C
  5
62D
331
62D
  5
62E
331
62E
  5
62F
331
62F
  5
630
331
630
  5
631
331
631
  5
632
331
632
  5
633
331
633
  5
634
331
634
  5
635
331
635
  5
636
331
636
  5
637
331
637
  5
638
331
63B
  5
63C
331
63C
  5
63D
331
63D
  5
63E
331
641
  5
642
331
642
  5
643
331
643
  5
644
331
647
  5
648
331
648
  5
649
331
649
  5
64A
331
64A
  5
64B
331
65A
  5
65B
331
65B
  5
65C
331
65C
  5
65D
331
65D
  5
65E
331
65E
  5
65F
331
65F
  5
660
331
661
  5
662
331
662
  5
663
331
666
  5
667
331
667
  5
668
331
668
  5
669
331
669
  5
66A
331
66A
  5
66B
331
66B
  5
66C
331
66C
  5
66D
331
66D
  5
66E
331
66E
  5
66F
331
66F
  5
670
331
670
  5
671
331
671
  5
672
331
672
  5
673
331
673
  5
674
331
674
  5
675
331
675
  5
676
331
676
  5
677
331
677
  5
678
331
678
  5
679
331
679
  5
67A
331
67A
  5
67B
331
67B
  5
67C
331
67C
  5
67D
331
67D
  5
67E
331
67E
  5
67F
331
67F
  5
680
331
680
  5
681
331
681
  5
682
331
682
  5
683
331
684
  5
685
331
685
  5
686
331
686
  5
687
331
687
  5
688
331
688
  5
689
331
689
  5
68A
331
68A
  5
68B
331
68B
  5
68C
331
68C
  5
68D
331
68D
  5
68E
331
68E
  5
68F
331
68F
  5
690
331
690
  5
691
331
691
  5
692
331
692
  5
693
331
693
  5
694
331
694
  5
695
331
695
  5
696
331
696
  5
697
331
697
  5
698
331
698
  5
699
331
699
  5
69A
331
69A
  5
69B
331
69B
  5
69C
331
69C
  5
69D
331
69D
  5
69E
331
69F
  5
6A0
331
6A0
  5
6A1
331
6A1
  5
6A2
331
6A3
  5
6A4
331
6A4
  5
6A5
331
6A5
  5
6A6
331
6A6
  5
6A7
331
6A7
  5
6A8
331
6A8
  5
6A9
331
6A9
  5
6AA
331
6AA
  5
6AB
331
6AB
  5
6AC
331
6AC
  5
6AD
331
6B0
  5
6B1
331
6B1
  5
6B2
331
6B2
  5
6B3
331
6B3
  5
6B4
331
6B5
  5
6B6
331
6BA
  5
6BB
331
6BB
  5
6BC
331
6BC
  5
6BD
331
6BD
  5
6BE
331
6BE
  5
6BF
331
6BF
  5
6C0
331
6C0
  5
6C1
331
6C1
  5
6C2
331
6C2
  5
6C3
331
6C3
  5
6C4
331
6C4
  5
6C5
331
6C6
  5
6C7
331
6C7
  5
6C8
331
6C8
  5
6C9
331
6C9
  5
6CA
331
6CA
  5
6CB
331
6CB
  5
6CC
331
6CC
  5
6CD
331
6CD
  5
6CE
331
6CE
  5
6CF
331
6D0
  5
6D1
331
6D1
  5
6D2
331
6D2
  5
6D3
331
6D3
  5
6D4
331
6D4
  5
6D5
331
6D5
  5
6D6
331
6D6
  5
6D7
331
6D7
  5
6D8
331
6D8
  5
6D9
331
6D9
  5
6DA
331
6DA
  5
6DB
331
6DB
  5
6DC
331
6DC
  5
6DD
331
6DD
  5
6DE
331
6E1
  5
6E2
331
6E2
  5
6E3
331
6E3
  5
6E4
331
6E5
  5
6E6
331
6E6
  5
6E7
331
6E7
  5
6E8
331
6E8
  5
6E9
331
6EA
  5
6EB
331
6EB
  5
6EC
331
6EC
  5
6ED
331
6ED
  5
6EE
331
6EE
  5
6EF
331
6EF
  5
6F0
331
6F0
  5
6F1
331
6F1
  5
6F2
331
6F2
  5
6F3
331
6F3
  5
6F4
331
6F4
  5
6F5
331
6F5
  5
6F6
331
6F6
  5
6F7
331
6F7
  5
6F8
331
6F8
  5
6F9
331
6F9
  5
6FA
331
6FA
  5
6FB
331
6FB
  5
6FC
331
6FC
  5
6FD
331
6FD
  5
6FE
331
6FE
  5
6FF
331
6FF
  5
700
331
700
  5
701
331
701
  5
702
331
702
  5
703
331
703
  5
704
331
704
  5
705
331
705
  5
706
331
706
  5
707
331
707
  5
708
331
708
  5
709
331
709
  5
70A
331
70A
  5
70B
331
70B
  5
70C
331
70C
  5
70D
331
70D
  5
70E
331
70E
  5
70F
331
710
  5
711
331
711
  5
712
331
715
  5
716
331
716
  5
717
331
717
  5
718
331
718
  5
719
331
719
  5
71A
331
71A
  5
71B
331
71B
  5
71C
331
71C
  5
71D
331
71D
  5
71E
331
71F
  5
720
331
723
  5
724
331
724
  5
725
331
725
  5
726
331
726
  5
727
331
727
  5
728
331
728
  5
729
331
729
  5
72A
331
72A
  5
72B
331
72B
  5
72C
331
72C
  5
72D
331
72D
  5
72E
331
72F
  5
730
331
730
  5
731
331
731
  5
732
331
732
  5
733
331
733
  5
734
331
735
  5
736
331
736
  5
737
331
737
  5
738
331
738
  5
739
331
739
  5
73A
331
73A
  5
73B
331
73B
  5
73C
331
73C
  5
73D
331
73D
  5
73E
331
73E
  5
73F
331
73F
  5
740
331
740
  5
741
331
741
  5
742
331
742
  5
743
331
743
  5
744
331
744
  5
745
331
745
  5
746
331
746
  5
747
331
747
  5
748
331
748
  5
749
331
749
  5
74A
331
74A
  5
74B
331
74B
  5
74C
331
74C
  5
74D
331
74D
  5
74E
331
74E
  5
74F
331
74F
  5
750
331
750
  5
751
331
751
  5
752
331
752
  5
753
331
753
  5
754
331
754
  5
755
331
755
  5
756
331
756
  5
757
331
757
  5
758
331
758
  5
759
331
759
  5
75A
331
75A
  5
75B
331
75B
  5
75C
331
75C
  5
75D
331
75D
  5
75E
331
75E
  5
75F
331
75F
  5
760
331
760
  5
761
331
761
  5
762
331
762
  5
763
331
763
  5
764
331
764
  5
765
331
765
  5
766
331
766
  5
767
331
767
  5
768
331
768
  5
769
331
769
  5
76A
331
76A
  5
76B
331
76B
  5
76C
331
76C
  5
76D
331
76D
  5
76E
331
76E
  5
76F
331
76F
  5
770
331
770
  5
771
331
771
  5
772
331
772
  5
773
331
773
  5
774
331
774
  5
775
331
775
  5
776
331
776
  5
777
331
778
  5
779
331
779
  5
77A
331
77A
  5
77B
331
77C
  5
77D
331
77D
  5
77E
331
77E
  5
77F
331
77F
  5
780
331
780
  5
781
331
781
  5
782
331
782
  5
783
331
783
  5
784
331
784
  5
785
331
785
  5
786
331
786
  5
787
331
787
  5
788
331
788
  5
789
331
78A
  5
78B
331
78B
  5
78C
331
78C
  5
78D
331
78D
  5
78E
331
78E
  5
78F
331
78F
  5
790
331
790
  5
7BC
331
7BD
  5
7C5
331
80D
  5
80E
331
820
  5
821
331
824
  5
825
331
825
  5
84E
331
84F
  5
850
331
850
  5
61A
  0
SORTENTSTABLE
  5
8CD
102
{ACAD_REACTORS
330
8CC
330
8CC
102
}
330
8CC
100
AcDbSortentsTable
330
8A8
  0
SORTENTSTABLE
  5
8F9
102
{ACAD_REACTORS
330
8F8
330
8F8
102
}
330
8F8
100
AcDbSortentsTable
330
8D4
  0
SORTENTSTABLE
  5
939
102
{ACAD_REACTORS
330
938
330
938
102
}
330
938
100
AcDbSortentsTable
330
914
  0
SORTENTSTABLE
  5
96B
102
{ACAD_REACTORS
330
96A
330
96A
102
}
330
96A
100
AcDbSortentsTable
330
946
  0
SORTENTSTABLE
  5
9A2
102
{ACAD_REACTORS
330
9A1
330
9A1
102
}
330
9A1
100
AcDbSortentsTable
330
97D
  0
SORTENTSTABLE
  5
9D7
102
{ACAD_REACTORS
330
9D6
330
9D6
102
}
330
9D6
100
AcDbSortentsTable
330
9B2
  0
SORTENTSTABLE
  5
A0F
102
{ACAD_REACTORS
330
A0E
330
A0E
102
}
330
A0E
100
AcDbSortentsTable
330
9E9
  0
SORTENTSTABLE
  5
A45
102
{ACAD_REACTORS
330
A44
330
A44
102
}
330
A44
100
AcDbSortentsTable
330
A20
  0
DICTIONARY
  5
855
102
{ACAD_REACTORS
330
854
102
}
330
854
100
AcDbDictionary
281
     1
  3
ACDB_ANNOTATIONSCALES
350
856
  0
LAYOUT
  5
1C
102
{ACAD_REACTORS
330
1A
102
}
330
1A
100
AcDbPlotSettings
  1

  2
none_device
  4

  6

 40
0.0
 41
0.0
 42
0.0
 43
0.0
 44
0.0
 45
0.0
 46
0.0
 47
0.0
 48
0.0
 49
0.0
140
0.0
141
0.0
142
1.0
143
1.0
 70
   688
 72
     0
 73
     0
 74
     5
  7
monochrome.ctb
 75
    16
 76
     0
 77
     2
 78
   300
147
1.0
148
0.0
149
0.0
100
AcDbLayout
  1
Layout1
 70
     1
 71
     1
 10
0.0
 20
0.0
 11
12.0
 21
9.0
 12
0.0
 22
0.0
 32
0.0
 14
1.000000000000E+20
 24
1.000000000000E+20
 34
1.000000000000E+20
 15
-1.000000000000E+20
 25
-1.000000000000E+20
 35
-1.000000000000E+20
146
0.0
 13
0.0
 23
0.0
 33
0.0
 16
1.0
 26
0.0
 36
0.0
 17
0.0
 27
1.0
 37
0.0
 76
     0
330
1B
  0
LAYOUT
  5
1E
102
{ACAD_REACTORS
330
1A
102
}
330
1A
100
AcDbPlotSettings
  1

  2
RICOH imagio MP C3500 RPCS
  4
A3
  6

 40
5.08
 41
5.08
 42
5.08
 43
5.08
 44
297.0
 45
420.0
 46
29.132194228784
 47
0.0
 48
40.0601
 49
35.3175
140
491.4
141
287.0384
142
1.0
143
1.101258783916
 70
  1716
 72
     1
 73
     1
 74
     4
  7
monochrome.ctb
 75
     0
 76
     0
 77
     2
 78
   300
147
0.908051780931
148
-307.045587760039
149
-219.721555003228
100
AcDbLayout
  1
Model
 70
     1
 71
     0
 10
0.0
 20
0.0
 11
12.0
 21
9.0
 12
0.0
 22
0.0
 32
0.0
 14
62.209858049913
 24
49.925635152149
 34
0.0
 15
465.995898096886
 25
271.06552701514
 35
0.0
146
0.0
 13
0.0
 23
0.0
 33
0.0
 16
1.0
 26
0.0
 36
0.0
 17
0.0
 27
1.0
 37
0.0
 76
     0
330
1D
331
3B
  0
MATERIAL
  5
4A1
102
{ACAD_REACTORS
330
49F
102
}
330
49F
100
AcDbMaterial
  1
ByBlock
 72
     1
 94
      127
  0
MATERIAL
  5
4A0
102
{ACAD_REACTORS
330
49F
102
}
330
49F
100
AcDbMaterial
  1
ByLayer
 72
     1
 94
      127
  0
MATERIAL
  5
4A2
102
{ACAD_REACTORS
330
49F
102
}
330
49F
100
AcDbMaterial
  1
Global
 72
     1
 94
      127
  0
MLEADERSTYLE
  5
4A6
102
{ACAD_REACTORS
330
4A5
102
}
330
4A5
100
AcDbMLeaderStyle
179
     2
170
     2
171
     1
172
     0
 90
        2
 40
0.0
 41
0.0
173
     1
 91
-1056964608
340
14
 92
       -2
290
     1
 42
0.09
291
     1
 43
0.36
  3
Standard
341
0
 44
0.18
300

342
11
174
     1
178
     6
175
     1
176
     0
 93
-1056964608
 45
0.18
292
     0
297
     0
 46
0.18
343
0
 94
-1056964608
 47
1.0
 49
1.0
140
1.0
293
     1
141
0.0
294
     1
177
     0
142
1.0
295
     0
296
     0
143
0.125
271
     0
272
     9
273
     9
298
     0
  0
MLINESTYLE
  5
18
102
{ACAD_REACTORS
330
17
102
}
330
17
100
AcDbMlineStyle
  2
Standard
 70
     0
  3

 62
   256
 51
90.0
 52
90.0
 71
     2
 49
0.5
 62
   256
  6
BYLAYER
 49
-0.5
 62
   256
  6
BYLAYER
  0
ACDBPLACEHOLDER
  5
F
102
{ACAD_REACTORS
330
E
102
}
330
E
  0
SCALE
  5
461
102
{ACAD_REACTORS
330
460
102
}
330
460
100
AcDbScale
 70
     0
300
1:1
140
1.0
141
1.0
290
     1
  0
SCALE
  5
462
102
{ACAD_REACTORS
330
460
102
}
330
460
100
AcDbScale
 70
     0
300
1:2
140
1.0
141
2.0
290
     0
  0
SCALE
  5
463
102
{ACAD_REACTORS
330
460
102
}
330
460
100
AcDbScale
 70
     0
300
1:4
140
1.0
141
4.0
290
     0
  0
SCALE
  5
464
102
{ACAD_REACTORS
330
460
102
}
330
460
100
AcDbScale
 70
     0
300
1:5
140
1.0
141
5.0
290
     0
  0
SCALE
  5
465
102
{ACAD_REACTORS
330
460
102
}
330
460
100
AcDbScale
 70
     0
300
1:8
140
1.0
141
8.0
290
     0
  0
SCALE
  5
466
102
{ACAD_REACTORS
330
460
102
}
330
460
100
AcDbScale
 70
     0
300
1:10
140
1.0
141
10.0
290
     0
  0
SCALE
  5
467
102
{ACAD_REACTORS
330
460
102
}
330
460
100
AcDbScale
 70
     0
300
1:16
140
1.0
141
16.0
290
     0
  0
SCALE
  5
468
102
{ACAD_REACTORS
330
460
102
}
330
460
100
AcDbScale
 70
     0
300
1:20
140
1.0
141
20.0
290
     0
  0
SCALE
  5
469
102
{ACAD_REACTORS
330
460
102
}
330
460
100
AcDbScale
 70
     0
300
1:30
140
1.0
141
30.0
290
     0
  0
SCALE
  5
46A
102
{ACAD_REACTORS
330
460
102
}
330
460
100
AcDbScale
 70
     0
300
1:40
140
1.0
141
40.0
290
     0
  0
SCALE
  5
46B
102
{ACAD_REACTORS
330
460
102
}
330
460
100
AcDbScale
 70
     0
300
1:50
140
1.0
141
50.0
290
     0
  0
SCALE
  5
46C
102
{ACAD_REACTORS
330
460
102
}
330
460
100
AcDbScale
 70
     0
300
1:100
140
1.0
141
100.0
290
     0
  0
SCALE
  5
46D
102
{ACAD_REACTORS
330
460
102
}
330
460
100
AcDbScale
 70
     0
300
2:1
140
2.0
141
1.0
290
     0
  0
SCALE
  5
46E
102
{ACAD_REACTORS
330
460
102
}
330
460
100
AcDbScale
 70
     0
300
4:1
140
4.0
141
1.0
290
     0
  0
SCALE
  5
46F
102
{ACAD_REACTORS
330
460
102
}
330
460
100
AcDbScale
 70
     0
300
8:1
140
8.0
141
1.0
290
     0
  0
SCALE
  5
470
102
{ACAD_REACTORS
330
460
102
}
330
460
100
AcDbScale
 70
     0
300
10:1
140
10.0
141
1.0
290
     0
  0
SCALE
  5
471
102
{ACAD_REACTORS
330
460
102
}
330
460
100
AcDbScale
 70
     0
300
100:1
140
100.0
141
1.0
290
     0
  0
SCALE
  5
472
102
{ACAD_REACTORS
330
460
102
}
330
460
100
AcDbScale
 70
     0
300
1/128" = 1'-0"
140
0.0078125
141
12.0
290
     0
  0
SCALE
  5
473
102
{ACAD_REACTORS
330
460
102
}
330
460
100
AcDbScale
 70
     0
300
1/64" = 1'-0"
140
0.015625
141
12.0
290
     0
  0
SCALE
  5
474
102
{ACAD_REACTORS
330
460
102
}
330
460
100
AcDbScale
 70
     0
300
1/32" = 1'-0"
140
0.03125
141
12.0
290
     0
  0
SCALE
  5
475
102
{ACAD_REACTORS
330
460
102
}
330
460
100
AcDbScale
 70
     0
300
1/16" = 1'-0"
140
0.0625
141
12.0
290
     0
  0
SCALE
  5
476
102
{ACAD_REACTORS
330
460
102
}
330
460
100
AcDbScale
 70
     0
300
3/32" = 1'-0"
140
0.09375
141
12.0
290
     0
  0
SCALE
  5
477
102
{ACAD_REACTORS
330
460
102
}
330
460
100
AcDbScale
 70
     0
300
1/8" = 1'-0"
140
0.125
141
12.0
290
     0
  0
SCALE
  5
478
102
{ACAD_REACTORS
330
460
102
}
330
460
100
AcDbScale
 70
     0
300
3/16" = 1'-0"
140
0.1875
141
12.0
290
     0
  0
SCALE
  5
479
102
{ACAD_REACTORS
330
460
102
}
330
460
100
AcDbScale
 70
     0
300
1/4" = 1'-0"
140
0.25
141
12.0
290
     0
  0
SCALE
  5
47A
102
{ACAD_REACTORS
330
460
102
}
330
460
100
AcDbScale
 70
     0
300
3/8" = 1'-0"
140
0.375
141
12.0
290
     0
  0
SCALE
  5
47B
102
{ACAD_REACTORS
330
460
102
}
330
460
100
AcDbScale
 70
     0
300
1/2" = 1'-0"
140
0.5
141
12.0
290
     0
  0
SCALE
  5
47C
102
{ACAD_REACTORS
330
460
102
}
330
460
100
AcDbScale
 70
     0
300
3/4" = 1'-0"
140
0.75
141
12.0
290
     0
  0
SCALE
  5
47D
102
{ACAD_REACTORS
330
460
102
}
330
460
100
AcDbScale
 70
     0
300
1" = 1'-0"
140
1.0
141
12.0
290
     0
  0
SCALE
  5
47E
102
{ACAD_REACTORS
330
460
102
}
330
460
100
AcDbScale
 70
     0
300
1-1/2" = 1'-0"
140
1.5
141
12.0
290
     0
  0
SCALE
  5
47F
102
{ACAD_REACTORS
330
460
102
}
330
460
100
AcDbScale
 70
     0
300
3" = 1'-0"
140
3.0
141
12.0
290
     0
  0
SCALE
  5
480
102
{ACAD_REACTORS
330
460
102
}
330
460
100
AcDbScale
 70
     0
300
6" = 1'-0"
140
6.0
141
12.0
290
     0
  0
SCALE
  5
481
102
{ACAD_REACTORS
330
460
102
}
330
460
100
AcDbScale
 70
     0
300
1'-0" = 1'-0"
140
12.0
141
12.0
290
     0
  0
TABLESTYLE
  5
4A4
102
{ACAD_REACTORS
330
4A3
102
}
102
{ACAD_XDICTIONARY
360
C4F
102
}
330
4A3
100
AcDbTableStyle
  3
Standard
 70
     0
 71
     0
 40
0.06
 41
0.06
280
     0
281
     0
  7
Standard
140
0.18
170
     2
 62
     0
 63
   257
283
     0
 90
        4
 91
        0
  1

274
    -2
284
     1
 64
     0
275
    -2
285
     1
 65
     0
276
    -2
286
     1
 66
     0
277
    -2
287
     1
 67
     0
278
    -2
288
     1
 68
     0
279
    -2
289
     1
 69
     0
  7
Standard
140
0.25
170
     5
 62
     0
 63
   257
283
     0
 90
        4
 91
        0
  1

274
    -2
284
     1
 64
     0
275
    -2
285
     1
 65
     0
276
    -2
286
     1
 66
     0
277
    -2
287
     1
 67
     0
278
    -2
288
     1
 68
     0
279
    -2
289
     1
 69
     0
  7
Standard
140
0.18
170
     5
 62
     0
 63
   257
283
     0
 90
        4
 91
        0
  1

274
    -2
284
     1
 64
     0
275
    -2
285
     1
 65
     0
276
    -2
286
     1
 66
     0
277
    -2
287
     1
 67
     0
278
    -2
288
     1
 68
     0
279
    -2
289
     1
 69
     0
  0
VISUALSTYLE
  5
48B
102
{ACAD_REACTORS
330
486
102
}
330
486
100
AcDbVisualStyle
  2
2dWireframe
 70
     4
177
     3
291
     0
 70
    58
 90
        0
176
     1
 90
        2
176
     1
 90
        0
176
     1
 90
        0
176
     1
 40
0.6
176
     1
 40
30.0
176
     1
 62
     7
176
     1
 90
        1
176
     1
 90
        4
176
     1
 62
     7
176
     1
 62
   257
176
     1
 90
        1
176
     1
 90
        1
176
     1
 40
1.0
176
     1
 90
        0
176
     1
 62
   257
176
     1
 40
1.0
176
     1
 90
        1
176
     1
 90
        6
176
     1
 90
        2
176
     1
 62
     7
176
     1
 90
        5
176
     1
 90
        0
176
     1
 90
        0
176
     1
290
     0
176
     1
 90
        1
176
     1
 40
0.0
176
     1
 90
        0
176
     1
290
     1
176
     1
290
     1
176
     1
290
     0
176
     1
290
     0
176
     1
290
     0
176
     1
290
     0
176
     1
290
     0
176
     1
290
     0
176
     1
290
     0
176
     1
 90
       50
176
     1
 40
0.0
176
     1
 40
1.0
176
     1
 90
        0
176
     1
 62
    18
420
        0
176
     1
 90
       50
176
     1
 90
        3
176
     1
 62
     5
420
      255
176
     1
290
     0
176
     1
 90
       50
176
     1
 90
       50
176
     1
 90
       50
176
     1
290
     0
176
     1
 90
       50
176
     1
 62
   256
176
     0
 40
1.0
176
     0
 90
        2
176
     1
  1
strokes_ogs.tif
176
     1
290
     0
176
     1
 40
1.0
176
     1
 40
1.0
176
     1
  0
VISUALSTYLE
  5
48E
102
{ACAD_REACTORS
330
486
102
}
330
486
100
AcDbVisualStyle
  2
Basic
 70
     7
177
     3
291
     1
 70
    58
 90
        1
176
     1
 90
        0
176
     1
 90
        1
176
     1
 90
        0
176
     1
 40
0.6
176
     1
 40
30.0
176
     1
 62
     7
176
     1
 90
        0
176
     1
 90
        4
176
     1
 62
     7
176
     1
 62
   257
176
     1
 90
        1
176
     1
 90
        1
176
     1
 40
1.0
176
     1
 90
        8
176
     1
 62
     7
176
     1
 40
1.0
176
     1
 90
        1
176
     1
 90
        6
176
     1
 90
        2
176
     1
 62
     7
176
     1
 90
        5
176
     1
 90
        0
176
     1
 90
        0
176
     1
290
     0
176
     1
 90
        1
176
     1
 40
0.0
176
     1
 90
        0
176
     1
290
     0
176
     1
290
     1
176
     1
290
     1
176
     1
290
     0
176
     1
290
     0
176
     1
290
     0
176
     1
290
     0
176
     1
290
     0
176
     1
290
     0
176
     1
 90
       50
176
     1
 40
0.0
176
     1
 40
1.0
176
     1
 90
        0
176
     1
 62
    18
420
        0
176
     1
 90
       50
176
     1
 90
        3
176
     1
 62
     5
420
      255
176
     1
290
     0
176
     1
 90
       50
176
     1
 90
       50
176
     1
 90
       50
176
     1
290
     0
176
     1
 90
       50
176
     1
 62
   256
176
     0
 40
1.0
176
     0
 90
        2
176
     1
  1
strokes_ogs.tif
176
     1
290
     0
176
     1
 40
1.0
176
     1
 40
1.0
176
     1
  0
VISUALSTYLE
  5
492
102
{ACAD_REACTORS
330
486
102
}
330
486
100
AcDbVisualStyle
  2
Brighten
 70
    12
177
     3
291
     1
 70
    58
 90
        2
176
     1
 90
        2
176
     1
 90
        0
176
     1
 90
        0
176
     1
 40
0.6
176
     1
 40
30.0
176
     1
 62
     7
176
     1
 90
        1
176
     1
 90
        4
176
     1
 62
     7
176
     1
 62
   257
176
     1
 90
        1
176
     1
 90
        1
176
     1
 40
1.0
176
     1
 90
        8
176
     1
 62
     7
176
     1
 40
1.0
176
     1
 90
        1
176
     1
 90
        6
176
     1
 90
        2
176
     1
 62
     7
176
     1
 90
        5
176
     1
 90
        0
176
     1
 90
        0
176
     1
290
     0
176
     1
 90
        1
176
     1
 40
50.0
176
     1
 90
        0
176
     1
290
     0
176
     1
290
     1
176
     1
290
     1
176
     1
290
     0
176
     1
290
     0
176
     1
290
     0
176
     1
290
     0
176
     1
290
     0
176
     1
290
     0
176
     1
 90
       50
176
     1
 40
0.0
176
     1
 40
1.0
176
     1
 90
        0
176
     1
 62
    18
420
        0
176
     1
 90
       50
176
     1
 90
        3
176
     1
 62
     5
420
      255
176
     1
290
     0
176
     1
 90
       50
176
     1
 90
       50
176
     1
 90
       50
176
     1
290
     0
176
     1
 90
       50
176
     1
 62
   256
176
     0
 40
1.0
176
     0
 90
        2
176
     1
  1
strokes_ogs.tif
176
     1
290
     0
176
     1
 40
1.0
176
     1
 40
1.0
176
     1
  0
VISUALSTYLE
  5
496
102
{ACAD_REACTORS
330
486
102
}
330
486
100
AcDbVisualStyle
  2
ColorChange
 70
    16
177
     3
291
     1
 70
    58
 90
        2
176
     1
 90
        2
176
     1
 90
        3
176
     1
 90
        0
176
     1
 40
0.6
176
     1
 40
30.0
176
     1
 62
     8
176
     1
 90
        1
176
     1
 90
        4
176
     1
 62
     7
176
     1
 62
   257
176
     1
 90
        1
176
     1
 90
        1
176
     1
 40
1.0
176
     1
 90
        8
176
     1
 62
     8
176
     1
 40
1.0
176
     1
 90
        1
176
     1
 90
        6
176
     1
 90
        2
176
     1
 62
     7
176
     1
 90
        5
176
     1
 90
        0
176
     1
 90
        0
176
     1
290
     0
176
     1
 90
        1
176
     1
 40
0.0
176
     1
 90
        0
176
     1
290
     0
176
     1
290
     1
176
     1
290
     1
176
     1
290
     0
176
     1
290
     0
176
     1
290
     0
176
     1
290
     0
176
     1
290
     0
176
     1
290
     0
176
     1
 90
       50
176
     1
 40
0.0
176
     1
 40
1.0
176
     1
 90
        0
176
     1
 62
    18
420
        0
176
     1
 90
       50
176
     1
 90
        3
176
     1
 62
     5
420
      255
176
     1
290
     0
176
     1
 90
       50
176
     1
 90
       50
176
     1
 90
       50
176
     1
290
     0
176
     1
 90
       50
176
     1
 62
   256
176
     0
 40
1.0
176
     0
 90
        2
176
     1
  1
strokes_ogs.tif
176
     1
290
     0
176
     1
 40
1.0
176
     1
 40
1.0
176
     1
  0
VISUALSTYLE
  5
490
102
{ACAD_REACTORS
330
486
102
}
330
486
100
AcDbVisualStyle
  2
Conceptual
 70
     9
177
     3
291
     0
 70
    58
 90
        3
176
     1
 90
        2
176
     1
 90
        0
176
     1
 90
        0
176
     1
 40
0.6
176
     1
 40
30.0
176
     1
 62
     7
176
     1
 90
        2
176
     1
 90
        2
176
     1
 62
     7
176
     1
 62
   257
176
     1
 90
        1
176
     1
 90
        1
176
     1
 40
179.0
176
     1
 90
        8
176
     1
 62
     7
176
     1
 40
1.0
176
     1
 90
        1
176
     1
 90
        6
176
     1
 90
        2
176
     1
 62
     7
176
     1
 90
        3
176
     1
 90
        0
176
     1
 90
        0
176
     1
290
     0
176
     1
 90
        1
176
     1
 40
0.0
176
     1
 90
        0
176
     1
290
     0
176
     1
290
     1
176
     1
290
     1
176
     1
290
     0
176
     1
290
     0
176
     1
290
     0
176
     1
290
     0
176
     1
290
     0
176
     1
290
     0
176
     1
 90
       50
176
     1
 40
0.0
176
     1
 40
1.0
176
     1
 90
        0
176
     1
 62
    18
420
        0
176
     1
 90
       50
176
     1
 90
        3
176
     1
 62
     5
420
      255
176
     1
290
     0
176
     1
 90
       50
176
     1
 90
       50
176
     1
 90
       50
176
     1
290
     0
176
     1
 90
       50
176
     1
 62
   256
176
     0
 40
1.0
176
     0
 90
        2
176
     1
  1
strokes_ogs.tif
176
     1
290
     0
176
     1
 40
1.0
176
     1
 40
1.0
176
     1
  0
VISUALSTYLE
  5
491
102
{ACAD_REACTORS
330
486
102
}
330
486
100
AcDbVisualStyle
  2
Dim
 70
    11
177
     3
291
     1
 70
    58
 90
        2
176
     1
 90
        2
176
     1
 90
        0
176
     1
 90
        0
176
     1
 40
0.6
176
     1
 40
30.0
176
     1
 62
     7
176
     1
 90
        1
176
     1
 90
        4
176
     1
 62
     7
176
     1
 62
   257
176
     1
 90
        1
176
     1
 90
        1
176
     1
 40
1.0
176
     1
 90
        8
176
     1
 62
     7
176
     1
 40
1.0
176
     1
 90
        1
176
     1
 90
        6
176
     1
 90
        2
176
     1
 62
     7
176
     1
 90
        5
176
     1
 90
        0
176
     1
 90
        0
176
     1
290
     0
176
     1
 90
        1
176
     1
 40
-50.0
176
     1
 90
        0
176
     1
290
     0
176
     1
290
     1
176
     1
290
     1
176
     1
290
     0
176
     1
290
     0
176
     1
290
     0
176
     1
290
     0
176
     1
290
     0
176
     1
290
     0
176
     1
 90
       50
176
     1
 40
0.0
176
     1
 40
1.0
176
     1
 90
        0
176
     1
 62
    18
420
        0
176
     1
 90
       50
176
     1
 90
        3
176
     1
 62
     5
420
      255
176
     1
290
     0
176
     1
 90
       50
176
     1
 90
       50
176
     1
 90
       50
176
     1
290
     0
176
     1
 90
       50
176
     1
 62
   256
176
     0
 40
1.0
176
     0
 90
        2
176
     1
  1
strokes_ogs.tif
176
     1
290
     0
176
     1
 40
1.0
176
     1
 40
1.0
176
     1
  0
VISUALSTYLE
  5
499
102
{ACAD_REACTORS
330
486
102
}
330
486
100
AcDbVisualStyle
  2
EdgeColorOff
 70
    22
177
     3
291
     1
 70
    58
 90
        2
176
     1
 90
        2
176
     1
 90
        0
176
     1
 90
        0
176
     1
 40
0.6
176
     1
 40
30.0
176
     1
 62
     7
176
     1
 90
        1
176
     1
 90
        4
176
     1
 62
     7
176
     1
 62
   257
176
     1
 90
        1
176
     1
 90
        1
176
     1
 40
1.0
176
     1
 90
        8
176
     1
 62
     7
176
     1
 40
1.0
176
     1
 90
        1
176
     1
 90
        6
176
     1
 90
        2
176
     1
 62
     7
176
     1
 90
        5
176
     1
 90
        0
176
     1
 90
        0
176
     1
290
     0
176
     1
 90
        1
176
     1
 40
0.0
176
     1
 90
        0
176
     1
290
     0
176
     1
290
     1
176
     1
290
     1
176
     1
290
     0
176
     1
290
     0
176
     1
290
     0
176
     1
290
     0
176
     1
290
     0
176
     1
290
     0
176
     1
 90
       50
176
     1
 40
0.0
176
     1
 40
1.0
176
     1
 90
        0
176
     1
 62
    18
420
        0
176
     1
 90
       50
176
     1
 90
        3
176
     1
 62
     5
420
      255
176
     1
290
     0
176
     1
 90
       50
176
     1
 90
       50
176
     1
 90
       50
176
     1
290
     0
176
     1
 90
       50
176
     1
 62
   256
176
     0
 40
1.0
176
     0
 90
        2
176
     1
  1
strokes_ogs.tif
176
     1
290
     0
176
     1
 40
1.0
176
     1
 40
1.0
176
     1
  0
VISUALSTYLE
  5
495
102
{ACAD_REACTORS
330
486
102
}
330
486
100
AcDbVisualStyle
  2
Facepattern
 70
    15
177
     3
291
     1
 70
    58
 90
        2
176
     1
 90
        2
176
     1
 90
        0
176
     1
 90
        0
176
     1
 40
0.6
176
     1
 40
30.0
176
     1
 62
     7
176
     1
 90
        1
176
     1
 90
        4
176
     1
 62
     7
176
     1
 62
   257
176
     1
 90
        1
176
     1
 90
        1
176
     1
 40
1.0
176
     1
 90
        8
176
     1
 62
     7
176
     1
 40
1.0
176
     1
 90
        1
176
     1
 90
        6
176
     1
 90
        2
176
     1
 62
     7
176
     1
 90
        5
176
     1
 90
        0
176
     1
 90
        0
176
     1
290
     0
176
     1
 90
        1
176
     1
 40
0.0
176
     1
 90
        0
176
     1
290
     0
176
     1
290
     1
176
     1
290
     1
176
     1
290
     0
176
     1
290
     0
176
     1
290
     0
176
     1
290
     0
176
     1
290
     0
176
     1
290
     0
176
     1
 90
       50
176
     1
 40
0.0
176
     1
 40
1.0
176
     1
 90
        0
176
     1
 62
    18
420
        0
176
     1
 90
       50
176
     1
 90
        3
176
     1
 62
     5
420
      255
176
     1
290
     0
176
     1
 90
       50
176
     1
 90
       50
176
     1
 90
       50
176
     1
290
     0
176
     1
 90
       50
176
     1
 62
   256
176
     0
 40
1.0
176
     0
 90
        2
176
     1
  1
strokes_ogs.tif
176
     1
290
     0
176
     1
 40
1.0
176
     1
 40
1.0
176
     1
  0
VISUALSTYLE
  5
487
102
{ACAD_REACTORS
330
486
102
}
330
486
100
AcDbVisualStyle
  2
Flat
 70
     0
177
     3
291
     1
 70
    58
 90
        2
176
     1
 90
        1
176
     1
 90
        1
176
     1
 90
        2
176
     1
 40
0.6
176
     1
 40
30.0
176
     1
 62
     7
176
     1
 90
        0
176
     1
 90
        0
176
     1
 62
     7
176
     1
 62
   257
176
     1
 90
        1
176
     1
 90
        1
176
     1
 40
1.0
176
     1
 90
        8
176
     1
 62
     7
176
     1
 40
1.0
176
     1
 90
        1
176
     1
 90
        6
176
     1
 90
        2
176
     1
 62
     7
176
     1
 90
        5
176
     1
 90
        0
176
     1
 90
        0
176
     1
290
     0
176
     1
 90
       13
176
     1
 40
0.0
176
     1
 90
        0
176
     1
290
     0
176
     1
290
     1
176
     1
290
     1
176
     1
290
     0
176
     1
290
     0
176
     1
290
     0
176
     1
290
     0
176
     1
290
     0
176
     1
290
     0
176
     1
 90
       50
176
     1
 40
0.0
176
     1
 40
1.0
176
     1
 90
        0
176
     1
 62
    18
420
        0
176
     1
 90
       50
176
     1
 90
        3
176
     1
 62
     5
420
      255
176
     1
290
     0
176
     1
 90
       50
176
     1
 90
       50
176
     1
 90
       50
176
     1
290
     0
176
     1
 90
       50
176
     1
 62
   256
176
     0
 40
1.0
176
     0
 90
        2
176
     1
  1
strokes_ogs.tif
176
     1
290
     0
176
     1
 40
1.0
176
     1
 40
1.0
176
     1
  0
VISUALSTYLE
  5
488
102
{ACAD_REACTORS
330
486
102
}
330
486
100
AcDbVisualStyle
  2
FlatWithEdges
 70
     1
177
     3
291
     1
 70
    58
 90
        2
176
     1
 90
        1
176
     1
 90
        1
176
     1
 90
        2
176
     1
 40
0.6
176
     1
 40
30.0
176
     1
 62
     7
176
     1
 90
        1
176
     1
 90
        0
176
     1
 62
     7
176
     1
 62
   257
176
     1
 90
        1
176
     1
 90
        1
176
     1
 40
1.0
176
     1
 90
        0
176
     1
 62
   257
176
     1
 40
1.0
176
     1
 90
        1
176
     1
 90
        6
176
     1
 90
        2
176
     1
 62
     7
176
     1
 90
        5
176
     1
 90
        0
176
     1
 90
        0
176
     1
290
     0
176
     1
 90
       13
176
     1
 40
0.0
176
     1
 90
        0
176
     1
290
     0
176
     1
290
     1
176
     1
290
     1
176
     1
290
     0
176
     1
290
     0
176
     1
290
     0
176
     1
290
     0
176
     1
290
     0
176
     1
290
     0
176
     1
 90
       50
176
     1
 40
0.0
176
     1
 40
1.0
176
     1
 90
        0
176
     1
 62
    18
420
        0
176
     1
 90
       50
176
     1
 90
        3
176
     1
 62
     5
420
      255
176
     1
290
     0
176
     1
 90
       50
176
     1
 90
       50
176
     1
 90
       50
176
     1
290
     0
176
     1
 90
       50
176
     1
 62
   256
176
     0
 40
1.0
176
     0
 90
        2
176
     1
  1
strokes_ogs.tif
176
     1
290
     0
176
     1
 40
1.0
176
     1
 40
1.0
176
     1
  0
VISUALSTYLE
  5
489
102
{ACAD_REACTORS
330
486
102
}
330
486
100
AcDbVisualStyle
  2
Gouraud
 70
     2
177
     3
291
     1
 70
    58
 90
        2
176
     1
 90
        2
176
     1
 90
        1
176
     1
 90
        2
176
     1
 40
0.6
176
     1
 40
30.0
176
     1
 62
     7
176
     1
 90
        0
176
     1
 90
        0
176
     1
 62
     7
176
     1
 62
   257
176
     1
 90
        1
176
     1
 90
        1
176
     1
 40
1.0
176
     1
 90
        0
176
     1
 62
     7
176
     1
 40
1.0
176
     1
 90
        1
176
     1
 90
        6
176
     1
 90
        2
176
     1
 62
     7
176
     1
 90
        5
176
     1
 90
        0
176
     1
 90
        0
176
     1
290
     0
176
     1
 90
       13
176
     1
 40
0.0
176
     1
 90
        0
176
     1
290
     0
176
     1
290
     1
176
     1
290
     1
176
     1
290
     0
176
     1
290
     0
176
     1
290
     0
176
     1
290
     0
176
     1
290
     0
176
     1
290
     0
176
     1
 90
       50
176
     1
 40
0.0
176
     1
 40
1.0
176
     1
 90
        0
176
     1
 62
    18
420
        0
176
     1
 90
       50
176
     1
 90
        3
176
     1
 62
     5
420
      255
176
     1
290
     0
176
     1
 90
       50
176
     1
 90
       50
176
     1
 90
       50
176
     1
290
     0
176
     1
 90
       50
176
     1
 62
   256
176
     0
 40
1.0
176
     0
 90
        2
176
     1
  1
strokes_ogs.tif
176
     1
290
     0
176
     1
 40
1.0
176
     1
 40
1.0
176
     1
  0
VISUALSTYLE
  5
48A
102
{ACAD_REACTORS
330
486
102
}
330
486
100
AcDbVisualStyle
  2
GouraudWithEdges
 70
     3
177
     3
291
     1
 70
    58
 90
        2
176
     1
 90
        2
176
     1
 90
        1
176
     1
 90
        2
176
     1
 40
0.6
176
     1
 40
30.0
176
     1
 62
     7
176
     1
 90
        1
176
     1
 90
        0
176
     1
 62
     7
176
     1
 62
   257
176
     1
 90
        1
176
     1
 90
        1
176
     1
 40
1.0
176
     1
 90
        0
176
     1
 62
   257
176
     1
 40
1.0
176
     1
 90
        1
176
     1
 90
        6
176
     1
 90
        2
176
     1
 62
     7
176
     1
 90
        5
176
     1
 90
        0
176
     1
 90
        0
176
     1
290
     0
176
     1
 90
       13
176
     1
 40
0.0
176
     1
 90
        0
176
     1
290
     0
176
     1
290
     1
176
     1
290
     1
176
     1
290
     0
176
     1
290
     0
176
     1
290
     0
176
     1
290
     0
176
     1
290
     0
176
     1
290
     0
176
     1
 90
       50
176
     1
 40
0.0
176
     1
 40
1.0
176
     1
 90
        0
176
     1
 62
    18
420
        0
176
     1
 90
       50
176
     1
 90
        3
176
     1
 62
     5
420
      255
176
     1
290
     0
176
     1
 90
       50
176
     1
 90
       50
176
     1
 90
       50
176
     1
290
     0
176
     1
 90
       50
176
     1
 62
   256
176
     0
 40
1.0
176
     0
 90
        2
176
     1
  1
strokes_ogs.tif
176
     1
290
     0
176
     1
 40
1.0
176
     1
 40
1.0
176
     1
  0
VISUALSTYLE
  5
48D
102
{ACAD_REACTORS
330
486
102
}
330
486
100
AcDbVisualStyle
  2
Hidden
 70
     6
177
     3
291
     0
 70
    58
 90
        1
176
     1
 90
        2
176
     1
 90
        2
176
     1
 90
        0
176
     1
 40
0.6
176
     1
 40
30.0
176
     1
 62
     7
176
     1
 90
        2
176
     1
 90
        2
176
     1
 62
     7
176
     1
 62
   257
176
     1
 90
        2
176
     1
 90
        1
176
     1
 40
40.0
176
     1
 90
        0
176
     1
 62
   257
176
     1
 40
1.0
176
     1
 90
        1
176
     1
 90
        6
176
     1
 90
        2
176
     1
 62
     7
176
     1
 90
        3
176
     1
 90
        0
176
     1
 90
        0
176
     1
290
     0
176
     1
 90
        1
176
     1
 40
0.0
176
     1
 90
        0
176
     1
290
     0
176
     1
290
     1
176
     1
290
     1
176
     1
290
     0
176
     1
290
     0
176
     1
290
     0
176
     1
290
     0
176
     1
290
     0
176
     1
290
     0
176
     1
 90
       50
176
     1
 40
0.0
176
     1
 40
1.0
176
     1
 90
        0
176
     1
 62
    18
420
        0
176
     1
 90
       50
176
     1
 90
        3
176
     1
 62
     5
420
      255
176
     1
290
     0
176
     1
 90
       50
176
     1
 90
       50
176
     1
 90
       50
176
     1
290
     0
176
     1
 90
       50
176
     1
 62
   256
176
     0
 40
1.0
176
     0
 90
        2
176
     1
  1
strokes_ogs.tif
176
     1
290
     0
176
     1
 40
1.0
176
     1
 40
1.0
176
     1
  0
VISUALSTYLE
  5
497
102
{ACAD_REACTORS
330
486
102
}
330
486
100
AcDbVisualStyle
  2
JitterOff
 70
    20
177
     3
291
     1
 70
    58
 90
        2
176
     1
 90
        2
176
     1
 90
        0
176
     1
 90
        0
176
     1
 40
0.6
176
     1
 40
30.0
176
     1
 62
     7
176
     1
 90
        1
176
     1
 90
        4
176
     1
 62
     7
176
     1
 62
   257
176
     1
 90
        1
176
     1
 90
        1
176
     1
 40
1.0
176
     1
 90
       10
176
     1
 62
     7
176
     1
 40
1.0
176
     1
 90
        1
176
     1
 90
        6
176
     1
 90
        2
176
     1
 62
     7
176
     1
 90
        5
176
     1
 90
        0
176
     1
 90
        0
176
     1
290
     0
176
     1
 90
        1
176
     1
 40
0.0
176
     1
 90
        0
176
     1
290
     0
176
     1
290
     1
176
     1
290
     1
176
     1
290
     0
176
     1
290
     0
176
     1
290
     0
176
     1
290
     0
176
     1
290
     0
176
     1
290
     0
176
     1
 90
       50
176
     1
 40
0.0
176
     1
 40
1.0
176
     1
 90
        0
176
     1
 62
    18
420
        0
176
     1
 90
       50
176
     1
 90
        3
176
     1
 62
     5
420
      255
176
     1
290
     0
176
     1
 90
       50
176
     1
 90
       50
176
     1
 90
       50
176
     1
290
     0
176
     1
 90
       50
176
     1
 62
   256
176
     0
 40
1.0
176
     0
 90
        2
176
     1
  1
strokes_ogs.tif
176
     1
290
     0
176
     1
 40
1.0
176
     1
 40
1.0
176
     1
  0
VISUALSTYLE
  5
494
102
{ACAD_REACTORS
330
486
102
}
330
486
100
AcDbVisualStyle
  2
Linepattern
 70
    14
177
     3
291
     1
 70
    58
 90
        2
176
     1
 90
        2
176
     1
 90
        0
176
     1
 90
        0
176
     1
 40
0.6
176
     1
 40
30.0
176
     1
 62
     7
176
     1
 90
        1
176
     1
 90
        4
176
     1
 62
     7
176
     1
 62
   257
176
     1
 90
        7
176
     1
 90
        7
176
     1
 40
1.0
176
     1
 90
        8
176
     1
 62
     7
176
     1
 40
1.0
176
     1
 90
        1
176
     1
 90
        6
176
     1
 90
        2
176
     1
 62
     7
176
     1
 90
        5
176
     1
 90
        0
176
     1
 90
        0
176
     1
290
     0
176
     1
 90
        1
176
     1
 40
0.0
176
     1
 90
        0
176
     1
290
     0
176
     1
290
     1
176
     1
290
     1
176
     1
290
     0
176
     1
290
     0
176
     1
290
     0
176
     1
290
     0
176
     1
290
     0
176
     1
290
     0
176
     1
 90
       50
176
     1
 40
0.0
176
     1
 40
1.0
176
     1
 90
        0
176
     1
 62
    18
420
        0
176
     1
 90
       50
176
     1
 90
        3
176
     1
 62
     5
420
      255
176
     1
290
     0
176
     1
 90
       50
176
     1
 90
       50
176
     1
 90
       50
176
     1
290
     0
176
     1
 90
       50
176
     1
 62
   256
176
     0
 40
1.0
176
     0
 90
        2
176
     1
  1
strokes_ogs.tif
176
     1
290
     0
176
     1
 40
1.0
176
     1
 40
1.0
176
     1
  0
VISUALSTYLE
  5
4A7
102
{ACAD_REACTORS
330
486
102
}
330
486
100
AcDbVisualStyle
  2

 70
    10
177
     3
291
     0
 70
    58
 90
        2
176
     1
 90
        3
176
     1
 90
        0
176
     1
 90
        2
176
     1
 40
0.6
176
     1
 40
30.0
176
     1
 62
     7
176
     1
 90
        2
176
     1
 90
        0
176
     1
 62
     7
176
     1
 62
   257
176
     1
 90
        1
176
     1
 90
        1
176
     1
 40
180.0
176
     1
 90
        8
176
     1
 62
     8
176
     1
 40
1.0
176
     1
 90
        1
176
     1
 90
        6
176
     1
 90
        2
176
     1
 62
     7
176
     1
 90
        5
176
     1
 90
        0
176
     1
 90
        0
176
     1
290
     0
176
     1
 90
       13
176
     1
 40
0.0
176
     1
 90
        0
176
     1
290
     0
176
     1
290
     1
176
     1
290
     1
176
     1
290
     0
176
     1
290
     0
176
     1
290
     0
176
     1
290
     0
176
     1
290
     0
176
     1
290
     0
176
     1
 90
       50
176
     1
 40
0.0
176
     1
 40
1.0
176
     1
 90
        0
176
     1
 62
    18
420
        0
176
     1
 90
       50
176
     1
 90
        3
176
     1
 62
     5
420
      255
176
     1
290
     0
176
     1
 90
       50
176
     1
 90
       50
176
     1
 90
       50
176
     1
290
     0
176
     1
 90
       50
176
     1
 62
   256
176
     0
 40
1.0
176
     0
 90
        2
176
     1
  1
strokes_ogs.tif
176
     1
290
     0
176
     1
 40
1.0
176
     1
 40
1.0
176
     1
  0
VISUALSTYLE
  5
498
102
{ACAD_REACTORS
330
486
102
}
330
486
100
AcDbVisualStyle
  2
OverhangOff
 70
    21
177
     3
291
     1
 70
    58
 90
        2
176
     1
 90
        2
176
     1
 90
        0
176
     1
 90
        0
176
     1
 40
0.6
176
     1
 40
30.0
176
     1
 62
     7
176
     1
 90
        1
176
     1
 90
        4
176
     1
 62
     7
176
     1
 62
   257
176
     1
 90
        1
176
     1
 90
        1
176
     1
 40
1.0
176
     1
 90
        9
176
     1
 62
     7
176
     1
 40
1.0
176
     1
 90
        1
176
     1
 90
        6
176
     1
 90
        2
176
     1
 62
     7
176
     1
 90
        5
176
     1
 90
        0
176
     1
 90
        0
176
     1
290
     0
176
     1
 90
        1
176
     1
 40
0.0
176
     1
 90
        0
176
     1
290
     0
176
     1
290
     1
176
     1
290
     1
176
     1
290
     0
176
     1
290
     0
176
     1
290
     0
176
     1
290
     0
176
     1
290
     0
176
     1
290
     0
176
     1
 90
       50
176
     1
 40
0.0
176
     1
 40
1.0
176
     1
 90
        0
176
     1
 62
    18
420
        0
176
     1
 90
       50
176
     1
 90
        3
176
     1
 62
     5
420
      255
176
     1
290
     0
176
     1
 90
       50
176
     1
 90
       50
176
     1
 90
       50
176
     1
290
     0
176
     1
 90
       50
176
     1
 62
   256
176
     0
 40
1.0
176
     0
 90
        2
176
     1
  1
strokes_ogs.tif
176
     1
290
     0
176
     1
 40
1.0
176
     1
 40
1.0
176
     1
  0
VISUALSTYLE
  5
48F
102
{ACAD_REACTORS
330
486
102
}
330
486
100
AcDbVisualStyle
  2
Realistic
 70
     8
177
     3
291
     0
 70
    58
 90
        2
176
     1
 90
        3
176
     1
 90
        0
176
     1
 90
        2
176
     1
 40
0.6
176
     1
 40
30.0
176
     1
 62
     7
176
     1
 90
        0
176
     1
 90
        0
176
     1
 62
     7
176
     1
 62
   257
176
     1
 90
        1
176
     1
 90
        1
176
     1
 40
1.0
176
     1
 90
        8
176
     1
 62
   257
176
     1
 40
1.0
176
     1
 90
        1
176
     1
 90
        6
176
     1
 90
        2
176
     1
 62
     7
176
     1
 90
        3
176
     1
 90
        0
176
     1
 90
        0
176
     1
290
     0
176
     1
 90
       13
176
     1
 40
0.0
176
     1
 90
        0
176
     1
290
     0
176
     1
290
     1
176
     1
290
     1
176
     1
290
     0
176
     1
290
     0
176
     1
290
     0
176
     1
290
     0
176
     1
290
     0
176
     1
290
     0
176
     1
 90
       50
176
     1
 40
0.0
176
     1
 40
1.0
176
     1
 90
        0
176
     1
 62
    18
420
        0
176
     1
 90
       50
176
     1
 90
        3
176
     1
 62
     5
420
      255
176
     1
290
     0
176
     1
 90
       50
176
     1
 90
       50
176
     1
 90
       50
176
     1
290
     0
176
     1
 90
       50
176
     1
 62
   256
176
     0
 40
1.0
176
     0
 90
        2
176
     1
  1
strokes_ogs.tif
176
     1
290
     0
176
     1
 40
1.0
176
     1
 40
1.0
176
     1
  0
VISUALSTYLE
  5
49E
102
{ACAD_REACTORS
330
486
102
}
330
486
100
AcDbVisualStyle
  2
Shaded
 70
    27
177
     3
291
     0
 70
    58
 90
        2
176
     1
 90
        2
176
     1
 90
        1
176
     1
 90
        2
176
     1
 40
0.6
176
     1
 40
30.0
176
     1
 62
     7
176
     1
 90
        0
176
     1
 90
        4
176
     1
 62
     7
176
     1
 62
   257
176
     1
 90
        1
176
     1
 90
        1
176
     1
 40
1.0
176
     1
 90
        8
176
     1
 62
   257
176
     1
 40
1.0
176
     1
 90
        1
176
     1
 90
        6
176
     1
 90
        2
176
     1
 62
     8
176
     1
 90
        3
176
     1
 90
        0
176
     1
 90
        0
176
     1
290
     0
176
     1
 90
        5
176
     1
 40
0.0
176
     1
 90
        0
176
     1
290
     0
176
     1
290
     1
176
     1
290
     1
176
     1
290
     0
176
     1
290
     0
176
     1
290
     0
176
     1
290
     0
176
     1
290
     0
176
     1
290
     0
176
     1
 90
       50
176
     1
 40
0.0
176
     1
 40
1.0
176
     1
 90
        0
176
     1
 62
    18
420
        0
176
     1
 90
       50
176
     1
 90
        3
176
     1
 62
     5
420
      255
176
     1
290
     0
176
     1
 90
       50
176
     1
 90
       50
176
     1
 90
       50
176
     1
290
     0
176
     1
 90
       50
176
     1
 62
   256
176
     0
 40
1.0
176
     0
 90
        2
176
     1
  1
strokes_ogs.tif
176
     1
290
     0
176
     1
 40
1.0
176
     1
 40
1.0
176
     1
  0
VISUALSTYLE
  5
49D
102
{ACAD_REACTORS
330
486
102
}
330
486
100
AcDbVisualStyle
  2
Shaded with edges
 70
    26
177
     3
291
     0
 70
    58
 90
        2
176
     1
 90
        2
176
     1
 90
        1
176
     1
 90
        2
176
     1
 40
0.6
176
     1
 40
30.0
176
     1
 62
     7
176
     1
 90
        1
176
     1
 90
       10
176
     1
 62
     7
176
     1
 62
   257
176
     1
 90
        2
176
     1
 90
        1
176
     1
 40
1.0
176
     1
 90
        8
176
     1
 62
   257
176
     1
 40
1.0
176
     1
 90
        1
176
     1
 90
        6
176
     1
 90
        2
176
     1
 62
     7
176
     1
 90
        3
176
     1
 90
        0
176
     1
 90
        0
176
     1
290
     0
176
     1
 90
        5
176
     1
 40
0.0
176
     1
 90
        0
176
     1
290
     0
176
     1
290
     1
176
     1
290
     1
176
     1
290
     0
176
     1
290
     0
176
     1
290
     0
176
     1
290
     0
176
     1
290
     0
176
     1
290
     0
176
     1
 90
       50
176
     1
 40
0.0
176
     1
 40
1.0
176
     1
 90
        0
176
     1
 62
    18
420
        0
176
     1
 90
       50
176
     1
 90
        3
176
     1
 62
     5
420
      255
176
     1
290
     0
176
     1
 90
       50
176
     1
 90
       50
176
     1
 90
       50
176
     1
290
     0
176
     1
 90
       50
176
     1
 62
   256
176
     0
 40
1.0
176
     0
 90
        2
176
     1
  1
strokes_ogs.tif
176
     1
290
     0
176
     1
 40
1.0
176
     1
 40
1.0
176
     1
  0
VISUALSTYLE
  5
49A
102
{ACAD_REACTORS
330
486
102
}
330
486
100
AcDbVisualStyle
  2
Shades of Gray
 70
    23
177
     3
291
     0
 70
    58
 90
        2
176
     1
 90
        2
176
     1
 90
        3
176
     1
 90
        0
176
     1
 40
0.6
176
     1
 40
30.0
176
     1
 62
     7
176
     1
 90
        2
176
     1
 90
        2
176
     1
 62
     7
176
     1
 62
     7
176
     1
 90
        1
176
     1
 90
        1
176
     1
 40
40.0
176
     1
 90
        8
176
     1
 62
     7
176
     1
 40
1.0
176
     1
 90
        1
176
     1
 90
        6
176
     1
 90
        2
176
     1
 62
     7
176
     1
 90
        3
176
     1
 90
        0
176
     1
 90
        0
176
     1
290
     0
176
     1
 90
        1
176
     1
 40
0.0
176
     1
 90
        0
176
     1
290
     0
176
     1
290
     1
176
     1
290
     1
176
     1
290
     0
176
     1
290
     0
176
     1
290
     0
176
     1
290
     0
176
     1
290
     0
176
     1
290
     0
176
     1
 90
       50
176
     1
 40
0.0
176
     1
 40
1.0
176
     1
 90
        0
176
     1
 62
    18
420
        0
176
     1
 90
       50
176
     1
 90
        3
176
     1
 62
     5
420
      255
176
     1
290
     0
176
     1
 90
       50
176
     1
 90
       50
176
     1
 90
       50
176
     1
290
     0
176
     1
 90
       50
176
     1
 62
   256
176
     0
 40
1.0
176
     0
 90
        2
176
     1
  1
strokes_ogs.tif
176
     1
290
     0
176
     1
 40
1.0
176
     1
 40
1.0
176
     1
  0
VISUALSTYLE
  5
49B
102
{ACAD_REACTORS
330
486
102
}
330
486
100
AcDbVisualStyle
  2
Sketchy
 70
    24
177
     3
291
     0
 70
    58
 90
        1
176
     1
 90
        2
176
     1
 90
        2
176
     1
 90
        0
176
     1
 40
0.6
176
     1
 40
30.0
176
     1
 62
     7
176
     1
 90
        2
176
     1
 90
        2
176
     1
 62
     7
176
     1
 62
     7
176
     1
 90
        1
176
     1
 90
        1
176
     1
 40
40.0
176
     1
 90
       11
176
     1
 62
     7
176
     1
 40
1.0
176
     1
 90
        1
176
     1
 90
        6
176
     1
 90
        2
176
     1
 62
     7
176
     1
 90
        6
176
     1
 90
        0
176
     1
 90
        0
176
     1
290
     0
176
     1
 90
        1
176
     1
 40
0.0
176
     1
 90
        0
176
     1
290
     0
176
     1
290
     1
176
     1
290
     1
176
     1
290
     0
176
     1
290
     0
176
     1
290
     0
176
     1
290
     0
176
     1
290
     0
176
     1
290
     0
176
     1
 90
       50
176
     1
 40
0.0
176
     1
 40
1.0
176
     1
 90
        0
176
     1
 62
    18
420
        0
176
     1
 90
       50
176
     1
 90
        3
176
     1
 62
     5
420
      255
176
     1
290
     0
176
     1
 90
       50
176
     1
 90
       50
176
     1
 90
       50
176
     1
290
     0
176
     1
 90
       50
176
     1
 62
   256
176
     0
 40
1.0
176
     0
 90
        2
176
     1
  1
strokes_ogs.tif
176
     1
290
     0
176
     1
 40
1.0
176
     1
 40
1.0
176
     1
  0
VISUALSTYLE
  5
493
102
{ACAD_REACTORS
330
486
102
}
330
486
100
AcDbVisualStyle
  2
Thicken
 70
    13
177
     3
291
     1
 70
    58
 90
        2
176
     1
 90
        2
176
     1
 90
        0
176
     1
 90
        0
176
     1
 40
0.6
176
     1
 40
30.0
176
     1
 62
     7
176
     1
 90
        1
176
     1
 90
        4
176
     1
 62
     7
176
     1
 62
   257
176
     1
 90
        1
176
     1
 90
        1
176
     1
 40
1.0
176
     1
 90
       12
176
     1
 62
     7
176
     1
 40
1.0
176
     1
 90
        1
176
     1
 90
        6
176
     1
 90
        2
176
     1
 62
     7
176
     1
 90
        5
176
     1
 90
        0
176
     1
 90
        0
176
     1
290
     0
176
     1
 90
        1
176
     1
 40
0.0
176
     1
 90
        0
176
     1
290
     0
176
     1
290
     1
176
     1
290
     1
176
     1
290
     0
176
     1
290
     0
176
     1
290
     0
176
     1
290
     0
176
     1
290
     0
176
     1
290
     0
176
     1
 90
       50
176
     1
 40
0.0
176
     1
 40
1.0
176
     1
 90
        0
176
     1
 62
    18
420
        0
176
     1
 90
       50
176
     1
 90
        3
176
     1
 62
     5
420
      255
176
     1
290
     0
176
     1
 90
       50
176
     1
 90
       50
176
     1
 90
       50
176
     1
290
     0
176
     1
 90
       50
176
     1
 62
   256
176
     0
 40
1.0
176
     0
 90
        2
176
     1
  1
strokes_ogs.tif
176
     1
290
     0
176
     1
 40
1.0
176
     1
 40
1.0
176
     1
  0
VISUALSTYLE
  5
48C
102
{ACAD_REACTORS
330
486
102
}
330
486
100
AcDbVisualStyle
  2
Wireframe
 70
     5
177
     3
291
     0
 70
    58
 90
        0
176
     1
 90
        2
176
     1
 90
        0
176
     1
 90
        0
176
     1
 40
0.6
176
     1
 40
30.0
176
     1
 62
     7
176
     1
 90
        1
176
     1
 90
        4
176
     1
 62
     7
176
     1
 62
   257
176
     1
 90
        1
176
     1
 90
        1
176
     1
 40
1.0
176
     1
 90
        0
176
     1
 62
   257
176
     1
 40
1.0
176
     1
 90
        1
176
     1
 90
        6
176
     1
 90
        2
176
     1
 62
     7
176
     1
 90
        3
176
     1
 90
        0
176
     1
 90
        0
176
     1
290
     0
176
     1
 90
        1
176
     1
 40
0.0
176
     1
 90
        0
176
     1
290
     0
176
     1
290
     1
176
     1
290
     1
176
     1
290
     0
176
     1
290
     0
176
     1
290
     0
176
     1
290
     0
176
     1
290
     0
176
     1
290
     0
176
     1
 90
       50
176
     1
 40
0.0
176
     1
 40
1.0
176
     1
 90
        0
176
     1
 62
    18
420
        0
176
     1
 90
       50
176
     1
 90
        3
176
     1
 62
     5
420
      255
176
     1
290
     0
176
     1
 90
       50
176
     1
 90
       50
176
     1
 90
       50
176
     1
290
     0
176
     1
 90
       50
176
     1
 62
   256
176
     0
 40
1.0
176
     0
 90
        2
176
     1
  1
strokes_ogs.tif
176
     1
290
     0
176
     1
 40
1.0
176
     1
 40
1.0
176
     1
  0
VISUALSTYLE
  5
49C
102
{ACAD_REACTORS
330
486
102
}
330
486
100
AcDbVisualStyle
  2
X-Ray
 70
    25
177
     3
291
     0
 70
    58
 90
        2
176
     1
 90
        2
176
     1
 90
        1
176
     1
 90
        1
176
     1
 40
0.5
176
     1
 40
30.0
176
     1
 62
     7
176
     1
 90
        1
176
     1
 90
        0
176
     1
 62
     7
176
     1
 62
   257
176
     1
 90
        1
176
     1
 90
        1
176
     1
 40
1.0
176
     1
 90
        8
176
     1
 62
     7
176
     1
 40
1.0
176
     1
 90
        1
176
     1
 90
        6
176
     1
 90
        2
176
     1
 62
     7
176
     1
 90
        3
176
     1
 90
        0
176
     1
 90
        0
176
     1
290
     0
176
     1
 90
       13
176
     1
 40
0.0
176
     1
 90
        0
176
     1
290
     0
176
     1
290
     1
176
     1
290
     1
176
     1
290
     0
176
     1
290
     0
176
     1
290
     0
176
     1
290
     0
176
     1
290
     0
176
     1
290
     0
176
     1
 90
       50
176
     1
 40
0.0
176
     1
 40
1.0
176
     1
 90
        0
176
     1
 62
    18
420
        0
176
     1
 90
       50
176
     1
 90
        3
176
     1
 62
     5
420
      255
176
     1
290
     0
176
     1
 90
       50
176
     1
 90
       50
176
     1
 90
       50
176
     1
290
     0
176
     1
 90
       50
176
     1
 62
   256
176
     0
 40
1.0
176
     0
 90
        2
176
     1
  1
strokes_ogs.tif
176
     1
290
     0
176
     1
 40
1.0
176
     1
 40
1.0
176
     1
  0
DICTIONARYVAR
  5
C32
102
{ACAD_REACTORS
330
7BE
102
}
330
7BE
100
DictionaryVariables
280
     0
  1
1:1
  0
DICTIONARYVAR
  5
7C1
102
{ACAD_REACTORS
330
7BE
102
}
330
7BE
100
DictionaryVariables
280
     0
  1
Standard
  0
DICTIONARYVAR
  5
7C0
102
{ACAD_REACTORS
330
7BE
102
}
330
7BE
100
DictionaryVariables
280
     0
  1
Standard
  0
DICTIONARYVAR
  5
A6E
102
{ACAD_REACTORS
330
7BE
102
}
330
7BE
100
DictionaryVariables
280
     0
  1
2
  0
DICTIONARYVAR
  5
A6F
102
{ACAD_REACTORS
330
7BE
102
}
330
7BE
100
DictionaryVariables
280
     0
  1
1
  0
DICTIONARYVAR
  5
7C2
102
{ACAD_REACTORS
330
7BE
102
}
330
7BE
100
DictionaryVariables
280
     0
  1
0
  0
DICTIONARY
  5
856
102
{ACAD_REACTORS
330
855
102
}
330
855
100
AcDbDictionary
281
     1
  0
DICTIONARY
  5
C4F
330
4A4
100
AcDbDictionary
280
     1
281
     1
  3
ACAD_ROUNDTRIP_2008_TABLESTYLE_CELLSTYLEMAP
360
C50
  0
CELLSTYLEMAP
  5
C50
102
{ACAD_REACTORS
330
C4F
102
}
330
C4F
100
AcDbCellStyleMap
 90
        3
300
CELLSTYLE
  1
TABLEFORMAT_BEGIN
 90
        5
170
     1
 91
        0
 92
    32768
 62
   257
 93
        1
300
CONTENTFORMAT
  1
CONTENTFORMAT_BEGIN
 90
        0
 91
        0
 92
        4
 93
        0
300

 40
0.0
140
1.0
 94
        5
 62
     0
340
11
144
0.25
309
CONTENTFORMAT_END
171
     1
301
MARGIN
  1
CELLMARGIN_BEGIN
 40
0.06
 40
0.06
 40
0.06
 40
0.06
 40
0.06
 40
0.06
309
CELLMARGIN_END
 94
        6
 95
        1
302
GRIDFORMAT
  1
GRIDFORMAT_BEGIN
 90
        0
 91
        1
 62
     0
 92
       -2
340
14
 93
        0
 40
0.045
309
GRIDFORMAT_END
 95
        2
302
GRIDFORMAT
  1
GRIDFORMAT_BEGIN
 90
        0
 91
        1
 62
     0
 92
       -2
340
14
 93
        0
 40
0.045
309
GRIDFORMAT_END
 95
        4
302
GRIDFORMAT
  1
GRIDFORMAT_BEGIN
 90
        0
 91
        1
 62
     0
 92
       -2
340
14
 93
        0
 40
0.045
309
GRIDFORMAT_END
 95
        8
302
GRIDFORMAT
  1
GRIDFORMAT_BEGIN
 90
        0
 91
        1
 62
     0
 92
       -2
340
14
 93
        0
 40
0.045
309
GRIDFORMAT_END
 95
       16
302
GRIDFORMAT
  1
GRIDFORMAT_BEGIN
 90
        0
 91
        1
 62
     0
 92
       -2
340
14
 93
        0
 40
0.045
309
GRIDFORMAT_END
 95
       32
302
GRIDFORMAT
  1
GRIDFORMAT_BEGIN
 90
        0
 91
        1
 62
     0
 92
       -2
340
14
 93
        0
 40
0.045
309
GRIDFORMAT_END
309
TABLEFORMAT_END
  1
CELLSTYLE_BEGIN
 90
        1
 91
        1
300
_TITLE
309
CELLSTYLE_END
300
CELLSTYLE
  1
TABLEFORMAT_BEGIN
 90
        5
170
     1
 91
        0
 92
        0
 62
   257
 93
        1
300
CONTENTFORMAT
  1
CONTENTFORMAT_BEGIN
 90
        0
 91
        0
 92
        4
 93
        0
300

 40
0.0
140
1.0
 94
        5
 62
     0
340
11
144
0.18
309
CONTENTFORMAT_END
171
     1
301
MARGIN
  1
CELLMARGIN_BEGIN
 40
0.06
 40
0.06
 40
0.06
 40
0.06
 40
0.06
 40
0.06
309
CELLMARGIN_END
 94
        6
 95
        1
302
GRIDFORMAT
  1
GRIDFORMAT_BEGIN
 90
        0
 91
        1
 62
     0
 92
       -2
340
14
 93
        0
 40
0.045
309
GRIDFORMAT_END
 95
        2
302
GRIDFORMAT
  1
GRIDFORMAT_BEGIN
 90
        0
 91
        1
 62
     0
 92
       -2
340
14
 93
        0
 40
0.045
309
GRIDFORMAT_END
 95
        4
302
GRIDFORMAT
  1
GRIDFORMAT_BEGIN
 90
        0
 91
        1
 62
     0
 92
       -2
340
14
 93
        0
 40
0.045
309
GRIDFORMAT_END
 95
        8
302
GRIDFORMAT
  1
GRIDFORMAT_BEGIN
 90
        0
 91
        1
 62
     0
 92
       -2
340
14
 93
        0
 40
0.045
309
GRIDFORMAT_END
 95
       16
302
GRIDFORMAT
  1
GRIDFORMAT_BEGIN
 90
        0
 91
        1
 62
     0
 92
       -2
340
14
 93
        0
 40
0.045
309
GRIDFORMAT_END
 95
       32
302
GRIDFORMAT
  1
GRIDFORMAT_BEGIN
 90
        0
 91
        1
 62
     0
 92
       -2
340
14
 93
        0
 40
0.045
309
GRIDFORMAT_END
309
TABLEFORMAT_END
  1
CELLSTYLE_BEGIN
 90
        2
 91
        1
300
_HEADER
309
CELLSTYLE_END
300
CELLSTYLE
  1
TABLEFORMAT_BEGIN
 90
        5
170
     1
 91
        0
 92
        0
 62
   257
 93
        1
300
CONTENTFORMAT
  1
CONTENTFORMAT_BEGIN
 90
        0
 91
        0
 92
        4
 93
        0
300

 40
0.0
140
1.0
 94
        2
 62
     0
340
11
144
0.18
309
CONTENTFORMAT_END
171
     1
301
MARGIN
  1
CELLMARGIN_BEGIN
 40
0.06
 40
0.06
 40
0.06
 40
0.06
 40
0.06
 40
0.06
309
CELLMARGIN_END
 94
        6
 95
        1
302
GRIDFORMAT
  1
GRIDFORMAT_BEGIN
 90
        0
 91
        1
 62
     0
 92
       -2
340
14
 93
        0
 40
0.045
309
GRIDFORMAT_END
 95
        2
302
GRIDFORMAT
  1
GRIDFORMAT_BEGIN
 90
        0
 91
        1
 62
     0
 92
       -2
340
14
 93
        0
 40
0.045
309
GRIDFORMAT_END
 95
        4
302
GRIDFORMAT
  1
GRIDFORMAT_BEGIN
 90
        0
 91
        1
 62
     0
 92
       -2
340
14
 93
        0
 40
0.045
309
GRIDFORMAT_END
 95
        8
302
GRIDFORMAT
  1
GRIDFORMAT_BEGIN
 90
        0
 91
        1
 62
     0
 92
       -2
340
14
 93
        0
 40
0.045
309
GRIDFORMAT_END
 95
       16
302
GRIDFORMAT
  1
GRIDFORMAT_BEGIN
 90
        0
 91
        1
 62
     0
 92
       -2
340
14
 93
        0
 40
0.045
309
GRIDFORMAT_END
 95
       32
302
GRIDFORMAT
  1
GRIDFORMAT_BEGIN
 90
        0
 91
        1
 62
     0
 92
       -2
340
14
 93
        0
 40
0.045
309
GRIDFORMAT_END
309
TABLEFORMAT_END
  1
CELLSTYLE_BEGIN
 90
        3
 91
        2
300
_DATA
309
CELLSTYLE_END
  0
ENDSEC
  0
EOF
