  0
SECTION
  2
HEADER
  9
$ACADVER
  1
AC1027
  9
$ACADMAINTVER
 70
     8
  9
$DWGCODEPAGE
  3
ANSI_932
  9
$REQUIREDVERSIONS
160
                 0
  9
$LASTSAVEDBY
  1
megumi.kubo
  9
$INSBASE
 10
0.0
 20
0.0
 30
0.0
  9
$EXTMIN
 10
7.115885
 20
40.483775814719
 30
0.0
  9
$EXTMAX
 10
719.335923661009
 20
404.677091559041
 30
0.0
  9
$LIMMIN
 10
0.0
 20
0.0
  9
$LIMMAX
 10
594.0
 20
420.0
  9
$ORTHOMODE
 70
     0
  9
$REGENMODE
 70
     1
  9
$FILLMODE
 70
     1
  9
$QTEXTMODE
 70
     0
  9
$MIRRTEXT
 70
     1
  9
$LTSCALE
 40
15.0
  9
$ATTMODE
 70
     1
  9
$TEXTSIZE
 40
8.0
  9
$TRACEWID
 40
0.05
  9
$TEXTSTYLE
  7
Standard
  9
$CLAYER
  8
CSLAYER10
  9
$CELTYPE
  6
ByLayer
  9
$CECOLOR
 62
   256
  9
$CELTSCALE
 40
1.0
  9
$DISPSILH
 70
     0
  9
$DIMSCALE
 40
1.0
  9
$DIMASZ
 40
0.18
  9
$DIMEXO
 40
0.0625
  9
$DIMDLI
 40
0.38
  9
$DIMRND
 40
0.0
  9
$DIMDLE
 40
0.0
  9
$DIMEXE
 40
0.18
  9
$DIMTP
 40
0.0
  9
$DIMTM
 40
0.0
  9
$DIMTXT
 40
0.18
  9
$DIMCEN
 40
0.09
  9
$DIMTSZ
 40
0.0
  9
$DIMTOL
 70
     0
  9
$DIMLIM
 70
     0
  9
$DIMTIH
 70
     1
  9
$DIMTOH
 70
     1
  9
$DIMSE1
 70
     0
  9
$DIMSE2
 70
     0
  9
$DIMTAD
 70
     0
  9
$DIMZIN
 70
     0
  9
$DIMBLK
  1

  9
$DIMASO
 70
     1
  9
$DIMSHO
 70
     1
  9
$DIMPOST
  1

  9
$DIMAPOST
  1

  9
$DIMALT
 70
     0
  9
$DIMALTD
 70
     2
  9
$DIMALTF
 40
25.4
  9
$DIMLFAC
 40
1.0
  9
$DIMTOFL
 70
     0
  9
$DIMTVP
 40
0.0
  9
$DIMTIX
 70
     0
  9
$DIMSOXD
 70
     0
  9
$DIMSAH
 70
     0
  9
$DIMBLK1
  1

  9
$DIMBLK2
  1

  9
$DIMSTYLE
  2
Standard
  9
$DIMCLRD
 70
     0
  9
$DIMCLRE
 70
     0
  9
$DIMCLRT
 70
     0
  9
$DIMTFAC
 40
1.0
  9
$DIMGAP
 40
0.09
  9
$DIMJUST
 70
     0
  9
$DIMSD1
 70
     0
  9
$DIMSD2
 70
     0
  9
$DIMTOLJ
 70
     1
  9
$DIMTZIN
 70
     0
  9
$DIMALTZ
 70
     0
  9
$DIMALTTZ
 70
     0
  9
$DIMUPT
 70
     0
  9
$DIMDEC
 70
     4
  9
$DIMTDEC
 70
     4
  9
$DIMALTU
 70
     2
  9
$DIMALTTD
 70
     2
  9
$DIMTXSTY
  7
Standard
  9
$DIMAUNIT
 70
     0
  9
$DIMADEC
 70
     0
  9
$DIMALTRND
 40
0.0
  9
$DIMAZIN
 70
     0
  9
$DIMDSEP
 70
    46
  9
$DIMATFIT
 70
     3
  9
$DIMFRAC
 70
     0
  9
$DIMLDRBLK
  1

  9
$DIMLUNIT
 70
     2
  9
$DIMLWD
 70
    -2
  9
$DIMLWE
 70
    -2
  9
$DIMTMOVE
 70
     2
  9
$DIMFXL
 40
1.0
  9
$DIMFXLON
 70
     0
  9
$DIMJOGANG
 40
0.785398163397
  9
$DIMTFILL
 70
     0
  9
$DIMTFILLCLR
 70
     0
  9
$DIMARCSYM
 70
     0
  9
$DIMLTYPE
  6

  9
$DIMLTEX1
  6

  9
$DIMLTEX2
  6

  9
$DIMTXTDIRECTION
 70
     0
  9
$LUNITS
 70
     2
  9
$LUPREC
 70
     4
  9
$SKETCHINC
 40
0.1
  9
$FILLETRAD
 40
0.0
  9
$AUNITS
 70
     0
  9
$AUPREC
 70
     0
  9
$MENU
  1
ACAD
  9
$ELEVATION
 40
0.0
  9
$PELEVATION
 40
0.0
  9
$THICKNESS
 40
0.0
  9
$LIMCHECK
 70
     0
  9
$CHAMFERA
 40
0.0
  9
$CHAMFERB
 40
0.0
  9
$CHAMFERC
 40
0.0
  9
$CHAMFERD
 40
0.0
  9
$SKPOLY
 70
     0
  9
$TDCREATE
 40
2452132.0
  9
$TDUCREATE
 40
2452131.625
  9
$TDUPDATE
 40
2457875.591779248
  9
$TDUUPDATE
 40
2457875.216779248
  9
$TDINDWG
 40
0.225444375
  9
$TDUSRTIMER
 40
0.225444375
  9
$USRTIMER
 70
     1
  9
$ANGBASE
 50
0.0
  9
$ANGDIR
 70
     0
  9
$PDMODE
 70
     0
  9
$PDSIZE
 40
0.0
  9
$PLINEWID
 40
0.0
  9
$SPLFRAME
 70
     0
  9
$SPLINETYPE
 70
     6
  9
$SPLINESEGS
 70
     8
  9
$HANDSEED
  5
148B
  9
$SURFTAB1
 70
     6
  9
$SURFTAB2
 70
     6
  9
$SURFTYPE
 70
     6
  9
$SURFU
 70
     6
  9
$SURFV
 70
     6
  9
$UCSBASE
  2

  9
$UCSNAME
  2

  9
$UCSORG
 10
0.0
 20
0.0
 30
0.0
  9
$UCSXDIR
 10
1.0
 20
0.0
 30
0.0
  9
$UCSYDIR
 10
0.0
 20
1.0
 30
0.0
  9
$UCSORTHOREF
  2

  9
$UCSORTHOVIEW
 70
     0
  9
$UCSORGTOP
 10
0.0
 20
0.0
 30
0.0
  9
$UCSORGBOTTOM
 10
0.0
 20
0.0
 30
0.0
  9
$UCSORGLEFT
 10
0.0
 20
0.0
 30
0.0
  9
$UCSORGRIGHT
 10
0.0
 20
0.0
 30
0.0
  9
$UCSORGFRONT
 10
0.0
 20
0.0
 30
0.0
  9
$UCSORGBACK
 10
0.0
 20
0.0
 30
0.0
  9
$PUCSBASE
  2

  9
$PUCSNAME
  2

  9
$PUCSORG
 10
0.0
 20
0.0
 30
0.0
  9
$PUCSXDIR
 10
1.0
 20
0.0
 30
0.0
  9
$PUCSYDIR
 10
0.0
 20
1.0
 30
0.0
  9
$PUCSORTHOREF
  2

  9
$PUCSORTHOVIEW
 70
     0
  9
$PUCSORGTOP
 10
0.0
 20
0.0
 30
0.0
  9
$PUCSORGBOTTOM
 10
0.0
 20
0.0
 30
0.0
  9
$PUCSORGLEFT
 10
0.0
 20
0.0
 30
0.0
  9
$PUCSORGRIGHT
 10
0.0
 20
0.0
 30
0.0
  9
$PUCSORGFRONT
 10
0.0
 20
0.0
 30
0.0
  9
$PUCSORGBACK
 10
0.0
 20
0.0
 30
0.0
  9
$USERI1
 70
     0
  9
$USERI2
 70
     0
  9
$USERI3
 70
     0
  9
$USERI4
 70
     0
  9
$USERI5
 70
     0
  9
$USERR1
 40
0.0
  9
$USERR2
 40
0.0
  9
$USERR3
 40
0.0
  9
$USERR4
 40
0.0
  9
$USERR5
 40
0.0
  9
$WORLDVIEW
 70
     1
  9
$SHADEDGE
 70
     3
  9
$SHADEDIF
 70
    70
  9
$TILEMODE
 70
     1
  9
$MAXACTVP
 70
    64
  9
$PINSBASE
 10
0.0
 20
0.0
 30
0.0
  9
$PLIMCHECK
 70
     0
  9
$PEXTMIN
 10
1.000000000000E+20
 20
1.000000000000E+20
 30
1.000000000000E+20
  9
$PEXTMAX
 10
-1.000000000000E+20
 20
-1.000000000000E+20
 30
-1.000000000000E+20
  9
$PLIMMIN
 10
0.0
 20
0.0
  9
$PLIMMAX
 10
12.0
 20
9.0
  9
$UNITMODE
 70
     0
  9
$VISRETAIN
 70
     1
  9
$PLINEGEN
 70
     0
  9
$PSLTSCALE
 70
     1
  9
$TREEDEPTH
 70
  3020
  9
$CMLSTYLE
  2
Standard
  9
$CMLJUST
 70
     0
  9
$CMLSCALE
 40
1.0
  9
$PROXYGRAPHICS
 70
     1
  9
$MEASUREMENT
 70
     0
  9
$CELWEIGHT
370
    -1
  9
$ENDCAPS
280
     0
  9
$JOINSTYLE
280
     0
  9
$LWDISPLAY
290
     0
  9
$INSUNITS
 70
     0
  9
$HYPERLINKBASE
  1

  9
$STYLESHEET
  1

  9
$XEDIT
290
     1
  9
$CEPSNTYPE
380
     0
  9
$PSTYLEMODE
290
     1
  9
$FINGERPRINTGUID
  2
{4C7BFA3C-874A-461E-B8F5-DBA5B00E8CF1}
  9
$VERSIONGUID
  2
{FAEB1C32-E019-11D5-929B-00C0DF256EC4}
  9
$EXTNAMES
290
     1
  9
$PSVPSCALE
 40
0.0
  9
$OLESTARTUP
290
     0
  9
$SORTENTS
280
   127
  9
$INDEXCTL
280
     0
  9
$HIDETEXT
280
     1
  9
$XCLIPFRAME
280
     2
  9
$HALOGAP
280
     0
  9
$OBSCOLOR
 70
   257
  9
$OBSLTYPE
280
     0
  9
$INTERSECTIONDISPLAY
280
     0
  9
$INTERSECTIONCOLOR
 70
   257
  9
$DIMASSOC
280
     2
  9
$PROJECTNAME
  1

  9
$CAMERADISPLAY
290
     0
  9
$LENSLENGTH
 40
50.0
  9
$CAMERAHEIGHT
 40
0.0
  9
$STEPSPERSEC
 40
2.0
  9
$STEPSIZE
 40
6.0
  9
$3DDWFPREC
 40
2.0
  9
$PSOLWIDTH
 40
0.25
  9
$PSOLHEIGHT
 40
4.0
  9
$LOFTANG1
 40
1.570796326795
  9
$LOFTANG2
 40
1.570796326795
  9
$LOFTMAG1
 40
0.0
  9
$LOFTMAG2
 40
0.0
  9
$LOFTPARAM
 70
     7
  9
$LOFTNORMALS
280
     1
  9
$LATITUDE
 40
37.795
  9
$LONGITUDE
 40
-122.394
  9
$NORTHDIRECTION
 40
0.0
  9
$TIMEZONE
 70
 -8000
  9
$LIGHTGLYPHDISPLAY
280
     1
  9
$TILEMODELIGHTSYNCH
280
     1
  9
$SOLIDHIST
280
     0
  9
$SHOWHIST
280
     1
  9
$DWFFRAME
280
     2
  9
$DGNFRAME
280
     2
  9
$REALWORLDSCALE
290
     1
  9
$INTERFERECOLOR
 62
   256
  9
$CSHADOW
280
     0
  9
$SHADOWPLANELOCATION
 40
0.0
  0
ENDSEC
  0
SECTION
  2
CLASSES
  0
CLASS
  1
ACDBDICTIONARYWDFLT
  2
AcDbDictionaryWithDefault
  3
ObjectDBX Classes
 90
        0
 91
        5
280
     0
281
     0
  0
CLASS
  1
SCALE
  2
AcDbScale
  3
ObjectDBX Classes
 90
     1153
 91
        5
280
     0
281
     0
  0
CLASS
  1
VISUALSTYLE
  2
AcDbVisualStyle
  3
ObjectDBX Classes
 90
     4095
 91
        5
280
     0
281
     0
  0
CLASS
  1
MATERIAL
  2
AcDbMaterial
  3
ObjectDBX Classes
 90
     1153
 91
        5
280
     0
281
     0
  0
CLASS
  1
TABLESTYLE
  2
AcDbTableStyle
  3
ObjectDBX Classes
 90
     4095
 91
        5
280
     0
281
     0
  0
CLASS
  1
MLEADERSTYLE
  2
AcDbMLeaderStyle
  3
ACDB_MLEADERSTYLE_CLASS
 90
     4095
 91
        5
280
     0
281
     0
  0
CLASS
  1
SUN
  2
AcDbSun
  3
SCENEOE
 90
     1153
 91
        5
280
     0
281
     0
  0
CLASS
  1
SORTENTSTABLE
  2
AcDbSortentsTable
  3
ObjectDBX Classes
 90
        0
 91
        4
280
     0
281
     0
  0
CLASS
  1
DICTIONARYVAR
  2
AcDbDictionaryVar
  3
ObjectDBX Classes
 90
        0
 91
        4
280
     0
281
     0
  0
CLASS
  1
DIMASSOC
  2
AcDbDimAssoc
  3
"AcDbDimAssoc|Product Desc:     AcDim ARX App For Dimension|Company:          Autodesk, Inc.|WEB Address:      www.autodesk.com"
 90
        0
 91
        4
280
     0
281
     0
  0
CLASS
  1
CELLSTYLEMAP
  2
AcDbCellStyleMap
  3
ObjectDBX Classes
 90
     1152
 91
        4
280
     0
281
     0
  0
CLASS
  1
XRECORD
  2
AcDbXrecord
  3
ObjectDBX Classes
 90
        0
 91
        1
280
     0
281
     0
  0
CLASS
  1
LWPOLYLINE
  2
AcDbPolyline
  3
ObjectDBX Classes
 90
        0
 91
        1
280
     0
281
     1
  0
CLASS
  1
HATCH
  2
AcDbHatch
  3
ObjectDBX Classes
 90
        0
 91
        1
280
     0
281
     1
  0
CLASS
  1
ACDBPLACEHOLDER
  2
AcDbPlaceHolder
  3
ObjectDBX Classes
 90
        0
 91
        1
280
     0
281
     0
  0
CLASS
  1
LAYOUT
  2
AcDbLayout
  3
ObjectDBX Classes
 90
        0
 91
        1
280
     0
281
     0
  0
ENDSEC
  0
SECTION
  2
TABLES
  0
TABLE
  2
VPORT
  5
8
330
0
100
AcDbSymbolTable
 70
     1
  0
VPORT
  5
3B
330
8
100
AcDbSymbolTableRecord
100
AcDbViewportTableRecord
  2
*Active
 70
     0
 10
0.0
 20
0.0
 11
1.0
 21
1.0
 12
363.225904330505
 22
222.58043368688
 13
0.0
 23
0.0
 14
0.5
 24
0.5
 15
0.5
 25
0.5
 16
0.0
 26
0.0
 36
1.0
 17
0.0
 27
0.0
 37
0.0
 40
487.745728940532
 41
1.489432703003
 42
50.0
 43
0.0
 44
0.0
 50
0.0
 51
0.0
 71
    16
 72
   100
 73
     1
 74
     3
 75
     0
 76
     0
 77
     0
 78
     0
281
     0
 65
     1
110
0.0
120
0.0
130
0.0
111
1.0
121
0.0
131
0.0
112
0.0
122
1.0
132
0.0
 79
     0
146
0.0
348
5E0
 60
     3
 61
     5
292
     1
282
     1
141
0.0
142
0.0
 63
   256
361
5FD
  0
ENDTAB
  0
TABLE
  2
LTYPE
  5
5
330
0
100
AcDbSymbolTable
 70
    10
  0
LTYPE
  5
14
330
5
100
AcDbSymbolTableRecord
100
AcDbLinetypeTableRecord
  2
ByBlock
 70
     0
  3

 72
    65
 73
     0
 40
0.0
  0
LTYPE
  5
15
330
5
100
AcDbSymbolTableRecord
100
AcDbLinetypeTableRecord
  2
ByLayer
 70
     0
  3

 72
    65
 73
     0
 40
0.0
  0
LTYPE
  5
16
330
5
100
AcDbSymbolTableRecord
100
AcDbLinetypeTableRecord
  2
CONTINUOUS
 70
     0
  3
Solid line
 72
    65
 73
     0
 40
0.0
  0
LTYPE
  5
21
330
5
100
AcDbSymbolTableRecord
100
AcDbLinetypeTableRecord
  2
DASHED
 70
     0
  3
__ __ __ __ __ __ __ __ __ __ __ __ __ __ __
 72
    65
 73
     2
 40
0.75
 49
0.5
 74
     0
 49
-0.25
 74
     0
  0
LTYPE
  5
22
330
5
100
AcDbSymbolTableRecord
100
AcDbLinetypeTableRecord
  2
HIDDEN
 70
     0
  3
_ _ _ _ _ _ _ _ _ _ _ _ _ _ _ _ _ _ _ _ _ _ _
 72
    65
 73
     2
 40
0.375
 49
0.25
 74
     0
 49
-0.125
 74
     0
  0
LTYPE
  5
23
330
5
100
AcDbSymbolTableRecord
100
AcDbLinetypeTableRecord
  2
DOT
 70
     0
  3
...............................................
 72
    65
 73
     2
 40
0.25
 49
0.0
 74
     0
 49
-0.25
 74
     0
  0
LTYPE
  5
24
330
5
100
AcDbSymbolTableRecord
100
AcDbLinetypeTableRecord
  2
DASHDOT
 70
     0
  3
__ . __ . __ . __ . __ . __ . __ . __ . __ . __
 72
    65
 73
     4
 40
1.0
 49
0.5
 74
     0
 49
-0.25
 74
     0
 49
0.0
 74
     0
 49
-0.25
 74
     0
  0
LTYPE
  5
25
330
5
100
AcDbSymbolTableRecord
100
AcDbLinetypeTableRecord
  2
DIVIDE
 70
     0
  3
__ . . __ . . __ . . __ . . __ . . __ . . __
 72
    65
 73
     6
 40
1.25
 49
0.5
 74
     0
 49
-0.25
 74
     0
 49
0.0
 74
     0
 49
-0.25
 74
     0
 49
0.0
 74
     0
 49
-0.25
 74
     0
  0
LTYPE
  5
26
330
5
100
AcDbSymbolTableRecord
100
AcDbLinetypeTableRecord
  2
CENTER
 70
     0
  3
____ _ ____ _ ____ _ ____ _ ____ _ ____ _ ____ 
 72
    65
 73
     4
 40
2.0
 49
1.25
 74
     0
 49
-0.25
 74
     0
 49
0.25
 74
     0
 49
-0.25
 74
     0
  0
LTYPE
  5
27
330
5
100
AcDbSymbolTableRecord
100
AcDbLinetypeTableRecord
  2
PHANTOM
 70
     0
  3
______  __  __  ______  __  __  ______  __  __ 
 72
    65
 73
     6
 40
2.5
 49
1.25
 74
     0
 49
-0.25
 74
     0
 49
0.25
 74
     0
 49
-0.25
 74
     0
 49
0.25
 74
     0
 49
-0.25
 74
     0
  0
LTYPE
  5
28
330
5
100
AcDbSymbolTableRecord
100
AcDbLinetypeTableRecord
  2
BORDER
 70
     0
  3
__ __ . __ __ . __ __ . __ __ . __ __ . __ __ .
 72
    65
 73
     6
 40
1.75
 49
0.5
 74
     0
 49
-0.25
 74
     0
 49
0.5
 74
     0
 49
-0.25
 74
     0
 49
0.0
 74
     0
 49
-0.25
 74
     0
  0
LTYPE
  5
86C
330
5
100
AcDbSymbolTableRecord
100
AcDbLinetypeTableRecord
  2
DYN_DIM
 70
     0
  3
Dashed dynamic dimension line
 72
    65
 73
     2
 40
0.352497924927
 49
0.100713692836
 74
     0
 49
-0.251784232091
 74
     0
  0
ENDTAB
  0
TABLE
  2
LAYER
  5
2
330
0
100
AcDbSymbolTable
 70
    18
  0
LAYER
  5
10
330
2
100
AcDbSymbolTableRecord
100
AcDbLayerTableRecord
  2
0
 70
     0
 62
     7
  6
CONTINUOUS
370
    -3
390
F
347
5F7
348
0
  0
LAYER
  5
29
330
2
100
AcDbSymbolTableRecord
100
AcDbLayerTableRecord
  2
CSLAYER1
 70
     0
 62
     7
  6
CONTINUOUS
370
    -3
390
F
347
5F7
348
0
  0
LAYER
  5
32
330
2
100
AcDbSymbolTableRecord
100
AcDbLayerTableRecord
  2
CSLAYER10
 70
     0
 62
     3
  6
CONTINUOUS
370
    -3
390
F
347
5F7
348
0
  0
LAYER
  5
864
330
2
100
AcDbSymbolTableRecord
100
AcDbLayerTableRecord
  2
Defpoints
 70
     0
 62
     7
  6
CONTINUOUS
290
     0
370
    -3
390
F
347
5F7
348
0
  0
ENDTAB
  0
TABLE
  2
STYLE
  5
3
330
0
100
AcDbSymbolTable
 70
     3
  0
STYLE
  5
11
330
3
100
AcDbSymbolTableRecord
100
AcDbTextStyleTableRecord
  2
Standard
 70
     0
 40
0.0
 41
1.0
 50
0.0
 71
     0
 42
8.0
  3
txt
  4

  0
STYLE
  5
39
330
3
100
AcDbSymbolTableRecord
100
AcDbTextStyleTableRecord
  2
FX_FONT
 70
     0
 40
1.0
 41
1.0
 50
0.0
 71
     0
 42
1.0
  3
monotxt
  4
bigfont
  0
STYLE
  5
86B
330
3
100
AcDbSymbolTableRecord
100
AcDbTextStyleTableRecord
  2
DYN_DIM
 70
     0
 40
0.0
 41
1.0
 50
0.0
 71
     0
 42
4.0
  3
txt
  4

  0
ENDTAB
  0
TABLE
  2
VIEW
  5
6
330
0
100
AcDbSymbolTable
 70
     0
  0
ENDTAB
  0
TABLE
  2
UCS
  5
7
330
0
100
AcDbSymbolTable
 70
     0
  0
ENDTAB
  0
TABLE
  2
APPID
  5
9
330
0
100
AcDbSymbolTable
 70
     3
  0
APPID
  5
12
330
9
100
AcDbSymbolTableRecord
100
AcDbRegAppTableRecord
  2
ACAD
 70
     0
  0
APPID
  5
7FF
330
9
100
AcDbSymbolTableRecord
100
AcDbRegAppTableRecord
  2
AcadAnnotative
 70
     0
  0
APPID
  5
AD9
330
9
100
AcDbSymbolTableRecord
100
AcDbRegAppTableRecord
  2
ACAD_MLEADERVER
 70
     0
  0
ENDTAB
  0
TABLE
  2
DIMSTYLE
  5
A
330
0
100
AcDbSymbolTable
 70
     1
100
AcDbDimStyleTable
  0
DIMSTYLE
105
3A
330
A
100
AcDbSymbolTableRecord
100
AcDbDimStyleTableRecord
  2
Standard
 70
     0
178
     0
340
11
  0
ENDTAB
  0
TABLE
  2
BLOCK_RECORD
  5
1
330
0
100
AcDbSymbolTable
 70
    93
  0
BLOCK_RECORD
  5
1D
102
{ACAD_XDICTIONARY
360
800
102
}
330
1
100
AcDbSymbolTableRecord
100
AcDbBlockTableRecord
  2
*Model_Space
340
1E
 70
     0
280
     1
281
     0
  0
BLOCK_RECORD
  5
1B
330
1
100
AcDbSymbolTableRecord
100
AcDbBlockTableRecord
  2
*Paper_Space
340
1C
 70
     0
280
     1
281
     0
  0
BLOCK_RECORD
  5
3D
330
1
100
AcDbSymbolTableRecord
100
AcDbBlockTableRecord
  2
FXDIM0000
340
0
 70
     0
280
     1
281
     0
  0
BLOCK_RECORD
  5
1F0
330
1
100
AcDbSymbolTableRecord
100
AcDbBlockTableRecord
  2
FXDIM0001
340
0
 70
     0
280
     1
281
     0
  0
BLOCK_RECORD
  5
212
330
1
100
AcDbSymbolTableRecord
100
AcDbBlockTableRecord
  2
FXDIM0002
340
0
 70
     0
280
     1
281
     0
  0
BLOCK_RECORD
  5
21D
330
1
100
AcDbSymbolTableRecord
100
AcDbBlockTableRecord
  2
FXDIM0003
340
0
 70
     0
280
     1
281
     0
  0
BLOCK_RECORD
  5
225
330
1
100
AcDbSymbolTableRecord
100
AcDbBlockTableRecord
  2
FXDIM0004
340
0
 70
     0
280
     1
281
     0
  0
BLOCK_RECORD
  5
22D
330
1
100
AcDbSymbolTableRecord
100
AcDbBlockTableRecord
  2
FXDIM0005
340
0
 70
     0
280
     1
281
     0
  0
BLOCK_RECORD
  5
253
330
1
100
AcDbSymbolTableRecord
100
AcDbBlockTableRecord
  2
FXDIM0006
340
0
 70
     0
280
     1
281
     0
  0
BLOCK_RECORD
  5
2BE
330
1
100
AcDbSymbolTableRecord
100
AcDbBlockTableRecord
  2
BLKF0000
340
0
 70
     0
280
     1
281
     0
  0
BLOCK_RECORD
  5
300
330
1
100
AcDbSymbolTableRecord
100
AcDbBlockTableRecord
  2
BLKF0001
340
0
 70
     0
280
     1
281
     0
  0
BLOCK_RECORD
  5
309
330
1
100
AcDbSymbolTableRecord
100
AcDbBlockTableRecord
  2
BLKF0002
340
0
 70
     0
280
     1
281
     0
  0
BLOCK_RECORD
  5
31B
330
1
100
AcDbSymbolTableRecord
100
AcDbBlockTableRecord
  2
BLKF0003
340
0
 70
     0
280
     1
281
     0
  0
BLOCK_RECORD
  5
325
330
1
100
AcDbSymbolTableRecord
100
AcDbBlockTableRecord
  2
BLKF0004
340
0
 70
     0
280
     1
281
     0
  0
BLOCK_RECORD
  5
32F
330
1
100
AcDbSymbolTableRecord
100
AcDbBlockTableRecord
  2
BLKF0005
340
0
 70
     0
280
     1
281
     0
  0
BLOCK_RECORD
  5
334
330
1
100
AcDbSymbolTableRecord
100
AcDbBlockTableRecord
  2
BLKF0006
340
0
 70
     0
280
     1
281
     0
  0
BLOCK_RECORD
  5
805
102
{ACAD_XDICTIONARY
360
82A
102
}
330
1
100
AcDbSymbolTableRecord
100
AcDbBlockTableRecord
  2
A910178
340
0
 70
     0
280
     1
281
     0
  0
BLOCK_RECORD
  5
831
102
{ACAD_XDICTIONARY
360
856
102
}
330
1
100
AcDbSymbolTableRecord
100
AcDbBlockTableRecord
  2
A910158
340
0
 70
     0
280
     1
281
     0
  0
BLOCK_RECORD
  5
86F
102
{ACAD_XDICTIONARY
360
894
102
}
330
1
100
AcDbSymbolTableRecord
100
AcDbBlockTableRecord
  2
A9101D8
340
0
 70
     0
280
     1
281
     0
  0
BLOCK_RECORD
  5
8D1
102
{ACAD_XDICTIONARY
360
8F6
102
}
330
1
100
AcDbSymbolTableRecord
100
AcDbBlockTableRecord
  2
A910168
340
0
 70
     0
280
     1
281
     0
  0
BLOCK_RECORD
  5
916
330
1
100
AcDbSymbolTableRecord
100
AcDbBlockTableRecord
  2
_Open30
340
0
 70
     0
280
     1
281
     0
  0
BLOCK_RECORD
  5
923
102
{ACAD_XDICTIONARY
360
948
102
}
330
1
100
AcDbSymbolTableRecord
100
AcDbBlockTableRecord
  2
A910118
340
0
 70
     0
280
     1
281
     0
  0
BLOCK_RECORD
  5
950
102
{ACAD_XDICTIONARY
360
974
102
}
330
1
100
AcDbSymbolTableRecord
100
AcDbBlockTableRecord
  2
A9100E8
340
0
 70
     0
280
     1
281
     0
  0
BLOCK_RECORD
  5
97D
102
{ACAD_XDICTIONARY
360
9A1
102
}
330
1
100
AcDbSymbolTableRecord
100
AcDbBlockTableRecord
  2
A9100B8
340
0
 70
     0
280
     1
281
     0
  0
BLOCK_RECORD
  5
9AA
102
{ACAD_XDICTIONARY
360
9CF
102
}
330
1
100
AcDbSymbolTableRecord
100
AcDbBlockTableRecord
  2
A910188
340
0
 70
     0
280
     1
281
     0
  0
BLOCK_RECORD
  5
A14
102
{ACAD_XDICTIONARY
360
A3A
102
}
330
1
100
AcDbSymbolTableRecord
100
AcDbBlockTableRecord
  2
152202F0
340
0
 70
     0
280
     1
281
     0
  0
BLOCK_RECORD
  5
A45
102
{ACAD_XDICTIONARY
360
A6B
102
}
330
1
100
AcDbSymbolTableRecord
100
AcDbBlockTableRecord
  2
152202B0
340
0
 70
     0
280
     1
281
     0
  0
BLOCK_RECORD
  5
B28
102
{ACAD_XDICTIONARY
360
B4E
102
}
330
1
100
AcDbSymbolTableRecord
100
AcDbBlockTableRecord
  2
AD40128
340
0
 70
     0
280
     1
281
     0
  0
BLOCK_RECORD
  5
B55
102
{ACAD_XDICTIONARY
360
B7B
102
}
330
1
100
AcDbSymbolTableRecord
100
AcDbBlockTableRecord
  2
AD40138
340
0
 70
     0
280
     1
281
     0
  0
BLOCK_RECORD
  5
BAA
102
{ACAD_XDICTIONARY
360
BD0
102
}
330
1
100
AcDbSymbolTableRecord
100
AcDbBlockTableRecord
  2
AD40178
340
0
 70
     0
280
     1
281
     0
  0
ENDTAB
  0
ENDSEC
  0
SECTION
  2
BLOCKS
  0
BLOCK
  5
5D7
330
1D
100
AcDbEntity
  8
0
100
AcDbBlockBegin
  2
*Model_Space
 70
     0
 10
0.0
 20
0.0
 30
0.0
  3
*Model_Space
  1

  0
ENDBLK
  5
5D8
330
1D
100
AcDbEntity
  8
0
100
AcDbBlockEnd
  0
BLOCK
  5
5D9
330
1B
100
AcDbEntity
 67
     1
  8
0
100
AcDbBlockBegin
  2
*Paper_Space
 70
     0
 10
0.0
 20
0.0
 30
0.0
  3
*Paper_Space
  1

  0
ENDBLK
  5
5DA
330
1B
100
AcDbEntity
 67
     1
  8
0
100
AcDbBlockEnd
  0
BLOCK
  5
3C
330
3D
100
AcDbEntity
  8
CSLAYER1
100
AcDbBlockBegin
  2
FXDIM0000
 70
     0
 10
0.0
 20
0.0
 30
0.0
  3
FXDIM0000
  1

  0
LINE
  5
3E
330
3D
100
AcDbEntity
  8
CSLAYER1
  6
Continuous
 62
     7
100
AcDbLine
 10
69.151942
 20
273.140867
 30
0.0
 11
82.630074
 21
273.140867
 31
0.0
  0
ENDBLK
  5
3F
330
3D
100
AcDbEntity
  8
0
100
AcDbBlockEnd
  0
BLOCK
  5
1EF
330
1F0
100
AcDbEntity
  8
CSLAYER1
100
AcDbBlockBegin
  2
FXDIM0001
 70
     0
 10
0.0
 20
0.0
 30
0.0
  3
FXDIM0001
  1

  0
LINE
  5
1F1
330
1F0
100
AcDbEntity
  8
CSLAYER1
  6
Continuous
 62
     7
100
AcDbLine
 10
164.391641
 20
80.005704
 30
0.0
 11
164.391641
 21
85.005704
 31
0.0
  0
LINE
  5
1F2
330
1F0
100
AcDbEntity
  8
CSLAYER1
  6
Continuous
 62
     7
100
AcDbLine
 10
164.391641
 20
85.005704
 30
0.0
 11
163.874003
 21
83.073853
 31
0.0
  0
LINE
  5
1F3
330
1F0
100
AcDbEntity
  8
CSLAYER1
  6
Continuous
 62
     7
100
AcDbLine
 10
164.391641
 20
85.005704
 30
0.0
 11
164.909279
 21
83.073853
 31
0.0
  0
ENDBLK
  5
1F4
330
1F0
100
AcDbEntity
  8
0
100
AcDbBlockEnd
  0
BLOCK
  5
211
330
212
100
AcDbEntity
  8
CSLAYER1
100
AcDbBlockBegin
  2
FXDIM0002
 70
     0
 10
0.0
 20
0.0
 30
0.0
  3
FXDIM0002
  1

  0
LINE
  5
213
330
212
100
AcDbEntity
  8
CSLAYER1
  6
Continuous
 62
     7
100
AcDbLine
 10
477.087355
 20
215.150486
 30
0.0
 11
492.087355
 21
241.131248
 31
0.0
  0
LINE
  5
214
330
212
100
AcDbEntity
  8
CSLAYER1
  6
Continuous
 62
     7
100
AcDbLine
 10
477.087355
 20
215.150486
 30
0.0
 11
477.604993
 21
217.082337
 31
0.0
  0
LINE
  5
215
330
212
100
AcDbEntity
  8
CSLAYER1
  6
Continuous
 62
     7
100
AcDbLine
 10
477.087355
 20
215.150486
 30
0.0
 11
478.501568
 21
216.564699
 31
0.0
  0
LINE
  5
216
330
212
100
AcDbEntity
  8
CSLAYER1
  6
Continuous
 62
     7
100
AcDbLine
 10
492.087355
 20
241.131248
 30
0.0
 11
491.569717
 21
239.199396
 31
0.0
  0
LINE
  5
217
330
212
100
AcDbEntity
  8
CSLAYER1
  6
Continuous
 62
     7
100
AcDbLine
 10
492.087355
 20
241.131248
 30
0.0
 11
490.673141
 21
239.717034
 31
0.0
  0
LINE
  5
218
330
212
100
AcDbEntity
  8
CSLAYER1
  6
Continuous
 62
     7
100
AcDbLine
 10
499.887137
 20
254.640867
 30
0.0
 11
486.2816
 21
254.640867
 31
0.0
  0
TEXT
  5
219
330
212
100
AcDbEntity
  8
CSLAYER1
 62
     7
100
AcDbText
 10
487.308044
 20
256.698425
 30
0.0
 40
4.0
  1
30貫通穴
 41
0.585784951835
  7
FX_FONT
 72
     5
 11
499.808044
 21
256.698425
 31
0.0
100
AcDbText
  0
LINE
  5
21A
330
212
100
AcDbEntity
  8
CSLAYER1
  6
Continuous
 62
     7
100
AcDbLine
 10
492.087355
 20
241.131248
 30
0.0
 11
499.887137
 21
254.640867
 31
0.0
  0
ENDBLK
  5
21B
330
212
100
AcDbEntity
  8
0
100
AcDbBlockEnd
  0
BLOCK
  5
21C
330
21D
100
AcDbEntity
  8
CSLAYER1
100
AcDbBlockBegin
  2
FXDIM0003
 70
     0
 10
0.0
 20
0.0
 30
0.0
  3
FXDIM0003
  1

  0
LINE
  5
21E
330
21D
100
AcDbEntity
  8
CSLAYER1
  6
Continuous
 62
     7
100
AcDbLine
 10
475.519643
 20
327.602584
 30
0.0
 11
493.655067
 21
298.843127
 31
0.0
  0
LINE
  5
21F
330
21D
100
AcDbEntity
  8
CSLAYER1
  6
Continuous
 62
     7
100
AcDbLine
 10
475.519643
 20
327.602584
 30
0.0
 11
476.987935
 21
326.244601
 31
0.0
  0
LINE
  5
220
330
21D
100
AcDbEntity
  8
CSLAYER1
  6
Continuous
 62
     7
100
AcDbLine
 10
475.519643
 20
327.602584
 30
0.0
 11
476.11223
 21
325.69239
 31
0.0
  0
LINE
  5
221
330
21D
100
AcDbEntity
  8
CSLAYER1
  6
Continuous
 62
     7
100
AcDbLine
 10
493.655067
 20
298.843127
 30
0.0
 11
492.186774
 21
300.20111
 31
0.0
  0
LINE
  5
222
330
21D
100
AcDbEntity
  8
CSLAYER1
  6
Continuous
 62
     7
100
AcDbLine
 10
493.655067
 20
298.843127
 30
0.0
 11
493.06248
 21
300.753321
 31
0.0
  0
ENDBLK
  5
223
330
21D
100
AcDbEntity
  8
0
100
AcDbBlockEnd
  0
BLOCK
  5
224
330
225
100
AcDbEntity
  8
CSLAYER1
100
AcDbBlockBegin
  2
FXDIM0004
 70
     0
 10
0.0
 20
0.0
 30
0.0
  3
FXDIM0004
  1

  0
LINE
  5
226
330
225
100
AcDbEntity
  8
CSLAYER1
  6
Continuous
 62
     7
100
AcDbLine
 10
142.100188
 20
88.269514
 30
0.0
 11
167.937592
 21
123.428712
 31
0.0
  0
LINE
  5
227
330
225
100
AcDbEntity
  8
CSLAYER1
  6
Continuous
 62
     7
100
AcDbLine
 10
142.100188
 20
88.269514
 30
0.0
 11
142.827048
 21
90.132757
 31
0.0
  0
LINE
  5
228
330
225
100
AcDbEntity
  8
CSLAYER1
  6
Continuous
 62
     7
100
AcDbLine
 10
142.100188
 20
88.269514
 30
0.0
 11
143.661289
 21
89.519699
 31
0.0
  0
LINE
  5
229
330
225
100
AcDbEntity
  8
CSLAYER1
  6
Continuous
 62
     7
100
AcDbLine
 10
167.937592
 20
123.428712
 30
0.0
 11
192.437592
 21
123.428712
 31
0.0
  0
TEXT
  5
22A
330
225
100
AcDbEntity
  8
CSLAYER1
 62
     7
100
AcDbText
 10
168.937592
 20
124.428711
 30
0.0
 40
4.0
  1
2-4mmネジ用穴
 41
0.590034965035
  7
FX_FONT
 72
     5
 11
191.437592
 21
124.428711
 31
0.0
100
AcDbText
  0
ENDBLK
  5
22B
330
225
100
AcDbEntity
  8
0
100
AcDbBlockEnd
  0
BLOCK
  5
22C
330
22D
100
AcDbEntity
  8
CSLAYER1
100
AcDbBlockBegin
  2
FXDIM0005
 70
     0
 10
0.0
 20
0.0
 30
0.0
  3
FXDIM0005
  1

  0
LINE
  5
22E
330
22D
100
AcDbEntity
  8
CSLAYER1
  6
Continuous
 62
     7
100
AcDbLine
 10
416.587355
 20
359.140867
 30
0.0
 11
394.893587
 21
380.834635
 31
0.0
  0
LINE
  5
22F
330
22D
100
AcDbEntity
  8
CSLAYER1
  6
Continuous
 62
     7
100
AcDbLine
 10
416.587355
 20
359.140867
 30
0.0
 11
414.855304
 21
360.140867
 31
0.0
  0
LINE
  5
230
330
22D
100
AcDbEntity
  8
CSLAYER1
  6
Continuous
 62
     7
100
AcDbLine
 10
416.587355
 20
359.140867
 30
0.0
 11
415.587355
 21
360.872918
 31
0.0
  0
LINE
  5
231
330
22D
100
AcDbEntity
  8
CSLAYER1
  6
Continuous
 62
     7
100
AcDbLine
 10
394.893587
 20
380.834635
 30
0.0
 11
370.393587
 21
380.834635
 31
0.0
  0
TEXT
  5
232
330
22D
100
AcDbEntity
  8
CSLAYER1
 62
     7
100
AcDbText
 10
371.393585
 20
381.834656
 30
0.0
 40
4.0
  1
2-4mmネジ用穴
 41
0.590034965035
  7
FX_FONT
 72
     5
 11
393.893585
 21
381.834656
 31
0.0
100
AcDbText
  0
ENDBLK
  5
233
330
22D
100
AcDbEntity
  8
0
100
AcDbBlockEnd
  0
BLOCK
  5
252
330
253
100
AcDbEntity
  8
CSLAYER1
100
AcDbBlockBegin
  2
FXDIM0006
 70
     0
 10
0.0
 20
0.0
 30
0.0
  3
FXDIM0006
  1

  0
TEXT
  5
254
330
253
100
AcDbEntity
  8
CSLAYER1
 62
     7
100
AcDbText
 10
430.21756
 20
215.271057
 30
0.0
 40
4.0
  1
2-10貫通穴
 41
0.596477939784
  7
FX_FONT
 72
     5
 11
447.71756
 21
215.271057
 31
0.0
100
AcDbText
  0
LINE
  5
255
330
253
100
AcDbEntity
  8
CSLAYER1
  6
Continuous
 62
     7
100
AcDbLine
 10
459.051821
 20
224.605333
 30
0.0
 11
466.122889
 21
231.676401
 31
0.0
  0
LINE
  5
256
330
253
100
AcDbEntity
  8
CSLAYER1
  6
Continuous
 62
     7
100
AcDbLine
 10
459.051821
 20
224.605333
 30
0.0
 11
460.051821
 21
226.337384
 31
0.0
  0
LINE
  5
257
330
253
100
AcDbEntity
  8
CSLAYER1
  6
Continuous
 62
     7
100
AcDbLine
 10
459.051821
 20
224.605333
 30
0.0
 11
460.783872
 21
225.605333
 31
0.0
  0
LINE
  5
258
330
253
100
AcDbEntity
  8
CSLAYER1
  6
Continuous
 62
     7
100
AcDbLine
 10
466.122889
 20
231.676401
 30
0.0
 11
465.122889
 21
229.94435
 31
0.0
  0
LINE
  5
259
330
253
100
AcDbEntity
  8
CSLAYER1
  6
Continuous
 62
     7
100
AcDbLine
 10
466.122889
 20
231.676401
 30
0.0
 11
464.390838
 21
230.676401
 31
0.0
  0
LINE
  5
25A
330
253
100
AcDbEntity
  8
CSLAYER1
  6
Continuous
 62
     7
100
AcDbLine
 10
462.587355
 20
228.140867
 30
0.0
 11
448.717547
 21
214.27106
 31
0.0
  0
LINE
  5
25B
330
253
100
AcDbEntity
  8
CSLAYER1
  6
Continuous
 62
     7
100
AcDbLine
 10
448.717547
 20
214.27106
 30
0.0
 11
427.196015
 21
214.27106
 31
0.0
  0
ENDBLK
  5
25C
330
253
100
AcDbEntity
  8
0
100
AcDbBlockEnd
  0
BLOCK
  5
2BD
330
2BE
100
AcDbEntity
  8
CSLAYER1
100
AcDbBlockBegin
  2
BLKF0000
 70
     0
 10
0.0
 20
0.0
 30
0.0
  3
BLKF0000
  1

  0
LINE
  5
2BF
330
2BE
100
AcDbEntity
  8
CSLAYER1
  6
Continuous
 62
     3
100
AcDbLine
 10
414.587355
 20
352.640867
 30
0.0
 11
414.666182
 21
352.697865
 31
0.0
  0
LINE
  5
2C0
330
2BE
100
AcDbEntity
  8
CSLAYER1
  6
Continuous
 62
     3
100
AcDbLine
 10
414.666182
 20
352.697865
 30
0.0
 11
414.745002
 21
352.754589
 31
0.0
  0
LINE
  5
2C1
330
2BE
100
AcDbEntity
  8
CSLAYER1
  6
Continuous
 62
     3
100
AcDbLine
 10
414.745002
 20
352.754589
 30
0.0
 11
414.823806
 21
352.810762
 31
0.0
  0
LINE
  5
2C2
330
2BE
100
AcDbEntity
  8
CSLAYER1
  6
Continuous
 62
     3
100
AcDbLine
 10
414.823806
 20
352.810762
 30
0.0
 11
414.902585
 21
352.866112
 31
0.0
  0
LINE
  5
2C3
330
2BE
100
AcDbEntity
  8
CSLAYER1
  6
Continuous
 62
     3
100
AcDbLine
 10
414.902585
 20
352.866112
 30
0.0
 11
414.981332
 21
352.920363
 31
0.0
  0
LINE
  5
2C4
330
2BE
100
AcDbEntity
  8
CSLAYER1
  6
Continuous
 62
     3
100
AcDbLine
 10
414.981332
 20
352.920363
 30
0.0
 11
415.060038
 21
352.97324
 31
0.0
  0
LINE
  5
2C5
330
2BE
100
AcDbEntity
  8
CSLAYER1
  6
Continuous
 62
     3
100
AcDbLine
 10
415.060038
 20
352.97324
 30
0.0
 11
415.138695
 21
353.024468
 31
0.0
  0
LINE
  5
2C6
330
2BE
100
AcDbEntity
  8
CSLAYER1
  6
Continuous
 62
     3
100
AcDbLine
 10
415.138695
 20
353.024468
 30
0.0
 11
415.217295
 21
353.073773
 31
0.0
  0
LINE
  5
2C7
330
2BE
100
AcDbEntity
  8
CSLAYER1
  6
Continuous
 62
     3
100
AcDbLine
 10
415.217295
 20
353.073773
 30
0.0
 11
415.29583
 21
353.12088
 31
0.0
  0
LINE
  5
2C8
330
2BE
100
AcDbEntity
  8
CSLAYER1
  6
Continuous
 62
     3
100
AcDbLine
 10
415.29583
 20
353.12088
 30
0.0
 11
415.374293
 21
353.165515
 31
0.0
  0
LINE
  5
2C9
330
2BE
100
AcDbEntity
  8
CSLAYER1
  6
Continuous
 62
     3
100
AcDbLine
 10
415.374293
 20
353.165515
 30
0.0
 11
415.452673
 21
353.207402
 31
0.0
  0
LINE
  5
2CA
330
2BE
100
AcDbEntity
  8
CSLAYER1
  6
Continuous
 62
     3
100
AcDbLine
 10
415.452673
 20
353.207402
 30
0.0
 11
415.530965
 21
353.246266
 31
0.0
  0
LINE
  5
2CB
330
2BE
100
AcDbEntity
  8
CSLAYER1
  6
Continuous
 62
     3
100
AcDbLine
 10
415.530965
 20
353.246266
 30
0.0
 11
415.609159
 21
353.281834
 31
0.0
  0
LINE
  5
2CC
330
2BE
100
AcDbEntity
  8
CSLAYER1
  6
Continuous
 62
     3
100
AcDbLine
 10
415.609159
 20
353.281834
 30
0.0
 11
415.687247
 21
353.31383
 31
0.0
  0
LINE
  5
2CD
330
2BE
100
AcDbEntity
  8
CSLAYER1
  6
Continuous
 62
     3
100
AcDbLine
 10
415.687247
 20
353.31383
 30
0.0
 11
415.765222
 21
353.341979
 31
0.0
  0
LINE
  5
2CE
330
2BE
100
AcDbEntity
  8
CSLAYER1
  6
Continuous
 62
     3
100
AcDbLine
 10
415.765222
 20
353.341979
 30
0.0
 11
415.843075
 21
353.366007
 31
0.0
  0
LINE
  5
2CF
330
2BE
100
AcDbEntity
  8
CSLAYER1
  6
Continuous
 62
     3
100
AcDbLine
 10
415.843075
 20
353.366007
 30
0.0
 11
415.920797
 21
353.385639
 31
0.0
  0
LINE
  5
2D0
330
2BE
100
AcDbEntity
  8
CSLAYER1
  6
Continuous
 62
     3
100
AcDbLine
 10
415.920797
 20
353.385639
 30
0.0
 11
415.998382
 21
353.4006
 31
0.0
  0
LINE
  5
2D1
330
2BE
100
AcDbEntity
  8
CSLAYER1
  6
Continuous
 62
     3
100
AcDbLine
 10
415.998382
 20
353.4006
 30
0.0
 11
416.07582
 21
353.410616
 31
0.0
  0
LINE
  5
2D2
330
2BE
100
AcDbEntity
  8
CSLAYER1
  6
Continuous
 62
     3
100
AcDbLine
 10
416.07582
 20
353.410616
 30
0.0
 11
416.153104
 21
353.415412
 31
0.0
  0
LINE
  5
2D3
330
2BE
100
AcDbEntity
  8
CSLAYER1
  6
Continuous
 62
     3
100
AcDbLine
 10
416.153104
 20
353.415412
 30
0.0
 11
416.230225
 21
353.414712
 31
0.0
  0
LINE
  5
2D4
330
2BE
100
AcDbEntity
  8
CSLAYER1
  6
Continuous
 62
     3
100
AcDbLine
 10
416.230225
 20
353.414712
 30
0.0
 11
416.349174
 21
353.402544
 31
0.0
  0
LINE
  5
2D5
330
2BE
100
AcDbEntity
  8
CSLAYER1
  6
Continuous
 62
     3
100
AcDbLine
 10
416.349174
 20
353.402544
 30
0.0
 11
416.467781
 21
353.377809
 31
0.0
  0
LINE
  5
2D6
330
2BE
100
AcDbEntity
  8
CSLAYER1
  6
Continuous
 62
     3
100
AcDbLine
 10
416.467781
 20
353.377809
 30
0.0
 11
416.586109
 21
353.341737
 31
0.0
  0
LINE
  5
2D7
330
2BE
100
AcDbEntity
  8
CSLAYER1
  6
Continuous
 62
     3
100
AcDbLine
 10
416.586109
 20
353.341737
 30
0.0
 11
416.704223
 21
353.295561
 31
0.0
  0
LINE
  5
2D8
330
2BE
100
AcDbEntity
  8
CSLAYER1
  6
Continuous
 62
     3
100
AcDbLine
 10
416.704223
 20
353.295561
 30
0.0
 11
416.822188
 21
353.240513
 31
0.0
  0
LINE
  5
2D9
330
2BE
100
AcDbEntity
  8
CSLAYER1
  6
Continuous
 62
     3
100
AcDbLine
 10
416.822188
 20
353.240513
 30
0.0
 11
416.940069
 21
353.177826
 31
0.0
  0
LINE
  5
2DA
330
2BE
100
AcDbEntity
  8
CSLAYER1
  6
Continuous
 62
     3
100
AcDbLine
 10
416.940069
 20
353.177826
 30
0.0
 11
417.057931
 21
353.108732
 31
0.0
  0
LINE
  5
2DB
330
2BE
100
AcDbEntity
  8
CSLAYER1
  6
Continuous
 62
     3
100
AcDbLine
 10
417.057931
 20
353.108732
 30
0.0
 11
417.175838
 21
353.034463
 31
0.0
  0
LINE
  5
2DC
330
2BE
100
AcDbEntity
  8
CSLAYER1
  6
Continuous
 62
     3
100
AcDbLine
 10
417.175838
 20
353.034463
 30
0.0
 11
417.293856
 21
352.956251
 31
0.0
  0
LINE
  5
2DD
330
2BE
100
AcDbEntity
  8
CSLAYER1
  6
Continuous
 62
     3
100
AcDbLine
 10
417.293856
 20
352.956251
 30
0.0
 11
417.412049
 21
352.875328
 31
0.0
  0
LINE
  5
2DE
330
2BE
100
AcDbEntity
  8
CSLAYER1
  6
Continuous
 62
     3
100
AcDbLine
 10
417.412049
 20
352.875328
 30
0.0
 11
417.530482
 21
352.792927
 31
0.0
  0
LINE
  5
2DF
330
2BE
100
AcDbEntity
  8
CSLAYER1
  6
Continuous
 62
     3
100
AcDbLine
 10
417.530482
 20
352.792927
 30
0.0
 11
417.64922
 21
352.710279
 31
0.0
  0
LINE
  5
2E0
330
2BE
100
AcDbEntity
  8
CSLAYER1
  6
Continuous
 62
     3
100
AcDbLine
 10
417.64922
 20
352.710279
 30
0.0
 11
417.768327
 21
352.628618
 31
0.0
  0
LINE
  5
2E1
330
2BE
100
AcDbEntity
  8
CSLAYER1
  6
Continuous
 62
     3
100
AcDbLine
 10
417.768327
 20
352.628618
 30
0.0
 11
417.88787
 21
352.549174
 31
0.0
  0
LINE
  5
2E2
330
2BE
100
AcDbEntity
  8
CSLAYER1
  6
Continuous
 62
     3
100
AcDbLine
 10
417.88787
 20
352.549174
 30
0.0
 11
418.007911
 21
352.473182
 31
0.0
  0
LINE
  5
2E3
330
2BE
100
AcDbEntity
  8
CSLAYER1
  6
Continuous
 62
     3
100
AcDbLine
 10
418.007911
 20
352.473182
 30
0.0
 11
418.128517
 21
352.401871
 31
0.0
  0
LINE
  5
2E4
330
2BE
100
AcDbEntity
  8
CSLAYER1
  6
Continuous
 62
     3
100
AcDbLine
 10
418.128517
 20
352.401871
 30
0.0
 11
418.249752
 21
352.336476
 31
0.0
  0
LINE
  5
2E5
330
2BE
100
AcDbEntity
  8
CSLAYER1
  6
Continuous
 62
     3
100
AcDbLine
 10
418.249752
 20
352.336476
 30
0.0
 11
418.371681
 21
352.278227
 31
0.0
  0
LINE
  5
2E6
330
2BE
100
AcDbEntity
  8
CSLAYER1
  6
Continuous
 62
     3
100
AcDbLine
 10
418.371681
 20
352.278227
 30
0.0
 11
418.494368
 21
352.228358
 31
0.0
  0
LINE
  5
2E7
330
2BE
100
AcDbEntity
  8
CSLAYER1
  6
Continuous
 62
     3
100
AcDbLine
 10
418.494368
 20
352.228358
 30
0.0
 11
418.617879
 21
352.1881
 31
0.0
  0
LINE
  5
2E8
330
2BE
100
AcDbEntity
  8
CSLAYER1
  6
Continuous
 62
     3
100
AcDbLine
 10
418.617879
 20
352.1881
 30
0.0
 11
418.742278
 21
352.158686
 31
0.0
  0
LINE
  5
2E9
330
2BE
100
AcDbEntity
  8
CSLAYER1
  6
Continuous
 62
     3
100
AcDbLine
 10
418.742278
 20
352.158686
 30
0.0
 11
418.827279
 21
352.145413
 31
0.0
  0
LINE
  5
2EA
330
2BE
100
AcDbEntity
  8
CSLAYER1
  6
Continuous
 62
     3
100
AcDbLine
 10
418.827279
 20
352.145413
 30
0.0
 11
418.912698
 21
352.137443
 31
0.0
  0
LINE
  5
2EB
330
2BE
100
AcDbEntity
  8
CSLAYER1
  6
Continuous
 62
     3
100
AcDbLine
 10
418.912698
 20
352.137443
 30
0.0
 11
418.998515
 21
352.13451
 31
0.0
  0
LINE
  5
2EC
330
2BE
100
AcDbEntity
  8
CSLAYER1
  6
Continuous
 62
     3
100
AcDbLine
 10
418.998515
 20
352.13451
 30
0.0
 11
419.084709
 21
352.136349
 31
0.0
  0
LINE
  5
2ED
330
2BE
100
AcDbEntity
  8
CSLAYER1
  6
Continuous
 62
     3
100
AcDbLine
 10
419.084709
 20
352.136349
 30
0.0
 11
419.171258
 21
352.142696
 31
0.0
  0
LINE
  5
2EE
330
2BE
100
AcDbEntity
  8
CSLAYER1
  6
Continuous
 62
     3
100
AcDbLine
 10
419.171258
 20
352.142696
 30
0.0
 11
419.258142
 21
352.153284
 31
0.0
  0
LINE
  5
2EF
330
2BE
100
AcDbEntity
  8
CSLAYER1
  6
Continuous
 62
     3
100
AcDbLine
 10
419.258142
 20
352.153284
 30
0.0
 11
419.34534
 21
352.16785
 31
0.0
  0
LINE
  5
2F0
330
2BE
100
AcDbEntity
  8
CSLAYER1
  6
Continuous
 62
     3
100
AcDbLine
 10
419.34534
 20
352.16785
 30
0.0
 11
419.432832
 21
352.186127
 31
0.0
  0
LINE
  5
2F1
330
2BE
100
AcDbEntity
  8
CSLAYER1
  6
Continuous
 62
     3
100
AcDbLine
 10
419.432832
 20
352.186127
 30
0.0
 11
419.520595
 21
352.207851
 31
0.0
  0
LINE
  5
2F2
330
2BE
100
AcDbEntity
  8
CSLAYER1
  6
Continuous
 62
     3
100
AcDbLine
 10
419.520595
 20
352.207851
 30
0.0
 11
419.608609
 21
352.232756
 31
0.0
  0
LINE
  5
2F3
330
2BE
100
AcDbEntity
  8
CSLAYER1
  6
Continuous
 62
     3
100
AcDbLine
 10
419.608609
 20
352.232756
 30
0.0
 11
419.696853
 21
352.260578
 31
0.0
  0
LINE
  5
2F4
330
2BE
100
AcDbEntity
  8
CSLAYER1
  6
Continuous
 62
     3
100
AcDbLine
 10
419.696853
 20
352.260578
 30
0.0
 11
419.785307
 21
352.291051
 31
0.0
  0
LINE
  5
2F5
330
2BE
100
AcDbEntity
  8
CSLAYER1
  6
Continuous
 62
     3
100
AcDbLine
 10
419.785307
 20
352.291051
 30
0.0
 11
419.873949
 21
352.32391
 31
0.0
  0
LINE
  5
2F6
330
2BE
100
AcDbEntity
  8
CSLAYER1
  6
Continuous
 62
     3
100
AcDbLine
 10
419.873949
 20
352.32391
 30
0.0
 11
419.962759
 21
352.35889
 31
0.0
  0
LINE
  5
2F7
330
2BE
100
AcDbEntity
  8
CSLAYER1
  6
Continuous
 62
     3
100
AcDbLine
 10
419.962759
 20
352.35889
 30
0.0
 11
420.051715
 21
352.395725
 31
0.0
  0
LINE
  5
2F8
330
2BE
100
AcDbEntity
  8
CSLAYER1
  6
Continuous
 62
     3
100
AcDbLine
 10
420.051715
 20
352.395725
 30
0.0
 11
420.140796
 21
352.434152
 31
0.0
  0
LINE
  5
2F9
330
2BE
100
AcDbEntity
  8
CSLAYER1
  6
Continuous
 62
     3
100
AcDbLine
 10
420.140796
 20
352.434152
 30
0.0
 11
420.229982
 21
352.473904
 31
0.0
  0
LINE
  5
2FA
330
2BE
100
AcDbEntity
  8
CSLAYER1
  6
Continuous
 62
     3
100
AcDbLine
 10
420.229982
 20
352.473904
 30
0.0
 11
420.319252
 21
352.514717
 31
0.0
  0
LINE
  5
2FB
330
2BE
100
AcDbEntity
  8
CSLAYER1
  6
Continuous
 62
     3
100
AcDbLine
 10
420.319252
 20
352.514717
 30
0.0
 11
420.408585
 21
352.556325
 31
0.0
  0
LINE
  5
2FC
330
2BE
100
AcDbEntity
  8
CSLAYER1
  6
Continuous
 62
     3
100
AcDbLine
 10
420.408585
 20
352.556325
 30
0.0
 11
420.497959
 21
352.598463
 31
0.0
  0
LINE
  5
2FD
330
2BE
100
AcDbEntity
  8
CSLAYER1
  6
Continuous
 62
     3
100
AcDbLine
 10
420.497959
 20
352.598463
 30
0.0
 11
420.587355
 21
352.640867
 31
0.0
  0
ENDBLK
  5
2FE
330
2BE
100
AcDbEntity
  8
0
100
AcDbBlockEnd
  0
BLOCK
  5
2FF
330
300
100
AcDbEntity
  8
CSLAYER1
100
AcDbBlockBegin
  2
BLKF0001
 70
     0
 10
0.0
 20
0.0
 30
0.0
  3
BLKF0001
  1

  0
LINE
  5
301
330
300
100
AcDbEntity
  8
CSLAYER1
  6
Continuous
 62
     7
100
AcDbLine
 10
418.233801
 20
361.99442
 30
0.0
 11
419.648015
 21
363.408634
 31
0.0
  0
LINE
  5
302
330
300
100
AcDbEntity
  8
CSLAYER1
  6
Continuous
 62
     7
100
AcDbLine
 10
417.173141
 20
363.05508
 30
0.0
 11
418.587355
 21
364.469294
 31
0.0
  0
LINE
  5
303
330
300
100
AcDbEntity
  8
CSLAYER1
  6
Continuous
 62
     7
100
AcDbLine
 10
416.587355
 20
364.590614
 30
0.0
 11
418.587355
 21
366.590614
 31
0.0
  0
LINE
  5
304
330
300
100
AcDbEntity
  8
CSLAYER1
  6
Continuous
 62
     7
100
AcDbLine
 10
416.587355
 20
366.711935
 30
0.0
 11
418.587355
 21
368.711935
 31
0.0
  0
LINE
  5
305
330
300
100
AcDbEntity
  8
CSLAYER1
  6
Continuous
 62
     7
100
AcDbLine
 10
416.587355
 20
368.833255
 30
0.0
 11
418.587355
 21
370.833255
 31
0.0
  0
LINE
  5
306
330
300
100
AcDbEntity
  8
CSLAYER1
  6
Continuous
 62
     7
100
AcDbLine
 10
416.587355
 20
370.954575
 30
0.0
 11
417.273646
 21
371.640867
 31
0.0
  0
ENDBLK
  5
307
330
300
100
AcDbEntity
  8
0
100
AcDbBlockEnd
  0
BLOCK
  5
308
330
309
100
AcDbEntity
  8
CSLAYER1
100
AcDbBlockBegin
  2
BLKF0002
 70
     0
 10
0.0
 20
0.0
 30
0.0
  3
BLKF0002
  1

  0
LINE
  5
30A
330
309
100
AcDbEntity
  8
CSLAYER1
  6
Continuous
 62
     7
100
AcDbLine
 10
470.223688
 20
223.818242
 30
0.0
 11
480.264729
 21
213.7772
 31
0.0
  0
LINE
  5
30B
330
309
100
AcDbEntity
  8
CSLAYER1
  6
Continuous
 62
     7
100
AcDbLine
 10
469.613422
 20
227.256935
 30
0.0
 11
483.703423
 21
213.166934
 31
0.0
  0
LINE
  5
30C
330
309
100
AcDbEntity
  8
CSLAYER1
  6
Continuous
 62
     7
100
AcDbLine
 10
469.702544
 20
229.99624
 30
0.0
 11
486.442728
 21
213.256056
 31
0.0
  0
LINE
  5
30D
330
309
100
AcDbEntity
  8
CSLAYER1
  6
Continuous
 62
     7
100
AcDbLine
 10
470.187127
 20
232.340085
 30
0.0
 11
488.786573
 21
213.740639
 31
0.0
  0
LINE
  5
30E
330
309
100
AcDbEntity
  8
CSLAYER1
  6
Continuous
 62
     7
100
AcDbLine
 10
470.955649
 20
234.399989
 30
0.0
 11
490.846477
 21
214.509162
 31
0.0
  0
LINE
  5
30F
330
309
100
AcDbEntity
  8
CSLAYER1
  6
Continuous
 62
     7
100
AcDbLine
 10
471.954888
 20
236.229178
 30
0.0
 11
492.675666
 21
215.5084
 31
0.0
  0
LINE
  5
310
330
309
100
AcDbEntity
  8
CSLAYER1
  6
Continuous
 62
     7
100
AcDbLine
 10
473.157638
 20
237.854855
 30
0.0
 11
494.301343
 21
216.71115
 31
0.0
  0
LINE
  5
311
330
309
100
AcDbEntity
  8
CSLAYER1
  6
Continuous
 62
     7
100
AcDbLine
 10
474.551703
 20
239.289217
 30
0.0
 11
495.735704
 21
218.105216
 31
0.0
  0
LINE
  5
312
330
309
100
AcDbEntity
  8
CSLAYER1
  6
Continuous
 62
     7
100
AcDbLine
 10
476.135975
 20
240.533372
 30
0.0
 11
496.97986
 21
219.689487
 31
0.0
  0
LINE
  5
313
330
309
100
AcDbEntity
  8
CSLAYER1
  6
Continuous
 62
     7
100
AcDbLine
 10
477.920102
 20
241.577672
 30
0.0
 11
498.02416
 21
221.473614
 31
0.0
  0
LINE
  5
314
330
309
100
AcDbEntity
  8
CSLAYER1
  6
Continuous
 62
     7
100
AcDbLine
 10
479.927502
 20
242.398699
 30
0.0
 11
498.845187
 21
223.481015
 31
0.0
  0
LINE
  5
315
330
309
100
AcDbEntity
  8
CSLAYER1
  6
Continuous
 62
     7
100
AcDbLine
 10
482.204274
 20
242.950355
 30
0.0
 11
499.396842
 21
225.757786
 31
0.0
  0
LINE
  5
316
330
309
100
AcDbEntity
  8
CSLAYER1
  6
Continuous
 62
     7
100
AcDbLine
 10
484.844391
 20
243.138664
 30
0.0
 11
499.585152
 21
228.397903
 31
0.0
  0
LINE
  5
317
330
309
100
AcDbEntity
  8
CSLAYER1
  6
Continuous
 62
     7
100
AcDbLine
 10
488.083815
 20
242.727668
 30
0.0
 11
499.174156
 21
231.637327
 31
0.0
  0
LINE
  5
318
330
309
100
AcDbEntity
  8
CSLAYER1
  6
Continuous
 62
     7
100
AcDbLine
 10
493.261255
 20
240.378655
 30
0.0
 11
496.825143
 21
236.814767
 31
0.0
  0
ENDBLK
  5
319
330
309
100
AcDbEntity
  8
0
100
AcDbBlockEnd
  0
BLOCK
  5
31A
330
31B
100
AcDbEntity
  8
CSLAYER1
100
AcDbBlockBegin
  2
BLKF0003
 70
     0
 10
0.0
 20
0.0
 30
0.0
  3
BLKF0003
  1

  0
LINE
  5
31C
330
31B
100
AcDbEntity
  8
CSLAYER1
  6
Continuous
 62
     7
100
AcDbLine
 10
501.656066
 20
227.314796
 30
0.0
 11
505.761284
 21
223.209578
 31
0.0
  0
LINE
  5
31D
330
31B
100
AcDbEntity
  8
CSLAYER1
  6
Continuous
 62
     7
100
AcDbLine
 10
501.737041
 20
229.355141
 30
0.0
 11
507.801629
 21
223.290554
 31
0.0
  0
LINE
  5
31E
330
31B
100
AcDbEntity
  8
CSLAYER1
  6
Continuous
 62
     7
100
AcDbLine
 10
502.376532
 20
230.836971
 30
0.0
 11
509.283458
 21
223.930045
 31
0.0
  0
LINE
  5
31F
330
31B
100
AcDbEntity
  8
CSLAYER1
  6
Continuous
 62
     7
100
AcDbLine
 10
503.368155
 20
231.966668
 30
0.0
 11
510.413156
 21
224.921667
 31
0.0
  0
LINE
  5
320
330
31B
100
AcDbEntity
  8
CSLAYER1
  6
Continuous
 62
     7
100
AcDbLine
 10
504.689474
 20
232.766669
 30
0.0
 11
511.213157
 21
226.242986
 31
0.0
  0
LINE
  5
321
330
31B
100
AcDbEntity
  8
CSLAYER1
  6
Continuous
 62
     7
100
AcDbLine
 10
506.438804
 20
233.13866
 30
0.0
 11
511.585147
 21
227.992316
 31
0.0
  0
LINE
  5
322
330
31B
100
AcDbEntity
  8
CSLAYER1
  6
Continuous
 62
     7
100
AcDbLine
 10
509.478655
 20
232.22013
 30
0.0
 11
510.666617
 21
231.032167
 31
0.0
  0
ENDBLK
  5
323
330
31B
100
AcDbEntity
  8
0
100
AcDbBlockEnd
  0
BLOCK
  5
324
330
325
100
AcDbEntity
  8
CSLAYER1
100
AcDbBlockBegin
  2
BLKF0004
 70
     0
 10
0.0
 20
0.0
 30
0.0
  3
BLKF0004
  1

  0
LINE
  5
326
330
325
100
AcDbEntity
  8
CSLAYER1
  6
Continuous
 62
     7
100
AcDbLine
 10
457.656066
 20
227.314796
 30
0.0
 11
461.761284
 21
223.209578
 31
0.0
  0
LINE
  5
327
330
325
100
AcDbEntity
  8
CSLAYER1
  6
Continuous
 62
     7
100
AcDbLine
 10
457.737041
 20
229.355141
 30
0.0
 11
463.801629
 21
223.290554
 31
0.0
  0
LINE
  5
328
330
325
100
AcDbEntity
  8
CSLAYER1
  6
Continuous
 62
     7
100
AcDbLine
 10
458.376532
 20
230.836971
 30
0.0
 11
465.283458
 21
223.930045
 31
0.0
  0
LINE
  5
329
330
325
100
AcDbEntity
  8
CSLAYER1
  6
Continuous
 62
     7
100
AcDbLine
 10
459.368155
 20
231.966668
 30
0.0
 11
466.413156
 21
224.921667
 31
0.0
  0
LINE
  5
32A
330
325
100
AcDbEntity
  8
CSLAYER1
  6
Continuous
 62
     7
100
AcDbLine
 10
460.689474
 20
232.766669
 30
0.0
 11
467.213157
 21
226.242986
 31
0.0
  0
LINE
  5
32B
330
325
100
AcDbEntity
  8
CSLAYER1
  6
Continuous
 62
     7
100
AcDbLine
 10
462.438804
 20
233.13866
 30
0.0
 11
467.585147
 21
227.992316
 31
0.0
  0
LINE
  5
32C
330
325
100
AcDbEntity
  8
CSLAYER1
  6
Continuous
 62
     7
100
AcDbLine
 10
465.478655
 20
232.22013
 30
0.0
 11
466.666617
 21
231.032167
 31
0.0
  0
ENDBLK
  5
32D
330
325
100
AcDbEntity
  8
0
100
AcDbBlockEnd
  0
BLOCK
  5
32E
330
32F
100
AcDbEntity
  8
CSLAYER1
100
AcDbBlockBegin
  2
BLKF0005
 70
     0
 10
0.0
 20
0.0
 30
0.0
  3
BLKF0005
  1

  0
LINE
  5
330
330
32F
100
AcDbEntity
  8
CSLAYER1
  6
Continuous
 62
     7
100
AcDbLine
 10
417.7142
 20
352.665728
 30
0.0
 11
418.587355
 21
353.538883
 31
0.0
  0
LINE
  5
331
330
32F
100
AcDbEntity
  8
CSLAYER1
  6
Continuous
 62
     7
100
AcDbLine
 10
416.587355
 20
353.660203
 30
0.0
 11
419.077687
 21
356.150535
 31
0.0
  0
ENDBLK
  5
332
330
32F
100
AcDbEntity
  8
0
100
AcDbBlockEnd
  0
BLOCK
  5
333
330
334
100
AcDbEntity
  8
CSLAYER1
100
AcDbBlockBegin
  2
BLKF0006
 70
     0
 10
0.0
 20
0.0
 30
0.0
  3
BLKF0006
  1

  0
LINE
  5
335
330
334
100
AcDbEntity
  8
CSLAYER1
  6
Continuous
 62
     7
100
AcDbLine
 10
491.951425
 20
297.818645
 30
0.0
 11
499.909576
 21
305.776797
 31
0.0
  0
LINE
  5
336
330
334
100
AcDbEntity
  8
CSLAYER1
  6
Continuous
 62
     7
100
AcDbLine
 10
487.74013
 20
296.435778
 30
0.0
 11
501.292444
 21
309.988092
 31
0.0
  0
LINE
  5
337
330
334
100
AcDbEntity
  8
CSLAYER1
  6
Continuous
 62
     7
100
AcDbLine
 10
484.616817
 20
296.140892
 30
0.0
 11
501.587329
 21
313.111404
 31
0.0
  0
LINE
  5
338
330
334
100
AcDbEntity
  8
CSLAYER1
  6
Continuous
 62
     7
100
AcDbLine
 10
481.988229
 20
296.340732
 30
0.0
 11
501.38749
 21
315.739992
 31
0.0
  0
LINE
  5
339
330
334
100
AcDbEntity
  8
CSLAYER1
  6
Continuous
 62
     7
100
AcDbLine
 10
479.682797
 20
296.863726
 30
0.0
 11
500.864495
 21
318.045425
 31
0.0
  0
LINE
  5
33A
330
334
100
AcDbEntity
  8
CSLAYER1
  6
Continuous
 62
     7
100
AcDbLine
 10
477.623359
 20
297.632715
 30
0.0
 11
500.095506
 21
320.104863
 31
0.0
  0
LINE
  5
33B
330
334
100
AcDbEntity
  8
CSLAYER1
  6
Continuous
 62
     7
100
AcDbLine
 10
475.769063
 20
298.606847
 30
0.0
 11
499.121375
 21
321.959158
 31
0.0
  0
LINE
  5
33C
330
334
100
AcDbEntity
  8
CSLAYER1
  6
Continuous
 62
     7
100
AcDbLine
 10
474.097193
 20
299.763404
 30
0.0
 11
497.964818
 21
323.631028
 31
0.0
  0
LINE
  5
33D
330
334
100
AcDbEntity
  8
CSLAYER1
  6
Continuous
 62
     7
100
AcDbLine
 10
472.596013
 20
301.09065
 30
0.0
 11
496.637571
 21
325.132209
 31
0.0
  0
LINE
  5
33E
330
334
100
AcDbEntity
  8
CSLAYER1
  6
Continuous
 62
     7
100
AcDbLine
 10
471.261791
 20
302.584856
 30
0.0
 11
495.143365
 21
326.46643
 31
0.0
  0
LINE
  5
33F
330
334
100
AcDbEntity
  8
CSLAYER1
  6
Continuous
 62
     7
100
AcDbLine
 10
470.097956
 20
304.249448
 30
0.0
 11
493.478773
 21
327.630265
 31
0.0
  0
LINE
  5
340
330
334
100
AcDbEntity
  8
CSLAYER1
  6
Continuous
 62
     7
100
AcDbLine
 10
469.115869
 20
306.095788
 30
0.0
 11
491.632433
 21
328.612352
 31
0.0
  0
LINE
  5
341
330
334
100
AcDbEntity
  8
CSLAYER1
  6
Continuous
 62
     7
100
AcDbLine
 10
468.337688
 20
308.146035
 30
0.0
 11
489.582187
 21
329.390533
 31
0.0
  0
LINE
  5
342
330
334
100
AcDbEntity
  8
CSLAYER1
  6
Continuous
 62
     7
100
AcDbLine
 10
467.803269
 20
310.440042
 30
0.0
 11
487.28818
 21
329.924953
 31
0.0
  0
LINE
  5
343
330
334
100
AcDbEntity
  8
CSLAYER1
  6
Continuous
 62
     7
100
AcDbLine
 10
467.587583
 20
313.052783
 30
0.0
 11
484.675438
 21
330.140639
 31
0.0
  0
LINE
  5
344
330
334
100
AcDbEntity
  8
CSLAYER1
  6
Continuous
 62
     7
100
AcDbLine
 10
467.855667
 20
316.149295
 30
0.0
 11
481.578927
 21
329.872554
 31
0.0
  0
LINE
  5
345
330
334
100
AcDbEntity
  8
CSLAYER1
  6
Continuous
 62
     7
100
AcDbLine
 10
469.15999
 20
320.282045
 30
0.0
 11
477.446177
 21
328.568231
 31
0.0
  0
ENDBLK
  5
346
330
334
100
AcDbEntity
  8
0
100
AcDbBlockEnd
  0
BLOCK
  5
82D
330
805
100
AcDbEntity
  8
0
100
AcDbBlockBegin
  2
A910178
 70
     0
 10
0.0
 20
0.0
 30
0.0
  3
A910178
  1

  0
TEXT
  5
82C
330
805
100
AcDbEntity
  8
CSLAYER1
 62
     7
100
AcDbText
 10
-0.454545454545
 20
0.0
 30
0.0
 40
4.0
  1
38
 41
0.681818181818
  7
FX_FONT
 72
     5
 11
4.545454545455
 21
0.0
 31
0.0
100
AcDbText
  0
ENDBLK
  5
82E
330
805
100
AcDbEntity
  8
0
100
AcDbBlockEnd
  0
BLOCK
  5
859
330
831
100
AcDbEntity
  8
0
100
AcDbBlockBegin
  2
A910158
 70
     0
 10
0.0
 20
0.0
 30
0.0
  3
A910158
  1

  0
TEXT
  5
858
330
831
100
AcDbEntity
  8
CSLAYER1
 62
     7
100
AcDbText
 10
-9.956896551724
 20
0.0
 30
0.0
 40
4.0
  1
    H    
 41
0.969827586207
  7
FX_FONT
 72
     5
 11
12.543103448276
 21
0.0
 31
0.0
100
AcDbText
  0
ENDBLK
  5
85A
330
831
100
AcDbEntity
  8
0
100
AcDbBlockEnd
  0
BLOCK
  5
8B2
330
86F
100
AcDbEntity
  8
0
100
AcDbBlockBegin
  2
A9101D8
 70
     0
 10
0.0
 20
0.0
 30
0.0
  3
A9101D8
  1

  0
LINE
  5
896
330
86F
100
AcDbEntity
  8
CSLAYER1
  6
Continuous
 62
     3
100
AcDbLine
 10
0.0
 20
0.0
 30
0.0
 11
87.557071326858
 21
0.0
 31
0.0
  0
LINE
  5
897
330
86F
100
AcDbEntity
  8
CSLAYER1
  6
Continuous
 62
     3
100
AcDbLine
 10
0.03556
 20
32.0
 30
0.0
 11
87.557071326858
 21
32.0
 31
0.0
  0
LINE
  5
898
330
86F
100
AcDbEntity
  8
CSLAYER1
  6
Continuous
 62
     3
100
AcDbLine
 10
25.03556
 20
0.0
 30
0.0
 11
25.03556
 21
40.0
 31
0.0
  0
TEXT
  5
899
330
86F
100
AcDbEntity
  8
CSLAYER1
 62
     7
100
AcDbText
 10
32.210685476965
 20
33.471132672362
 30
0.0
 40
4.0
  1
高さ(H)
 41
0.89552238806
  7
FX_FONT
 72
     5
 11
50.210685476965
 21
33.471132672362
 31
0.0
100
AcDbText
  0
TEXT
  5
89A
330
86F
100
AcDbEntity
  8
CSLAYER1
 62
     7
100
AcDbText
 10
62.847607331655
 20
33.946842760778
 30
0.0
 40
4.0
  1
直径(D)
 41
0.89552238806
  7
FX_FONT
 72
     5
 11
80.847607331655
 21
33.946842760778
 31
0.0
100
AcDbText
  0
TEXT
  5
89B
330
86F
100
AcDbEntity
  8
CSLAYER1
 62
     7
100
AcDbText
 10
35.132227633649
 20
25.162432896848
 30
0.0
 40
4.0
  1
21.0
 41
0.662739322533
  7
FX_FONT
 72
     5
 11
45.132227633649
 21
25.162432896848
 31
0.0
100
AcDbText
  0
TEXT
  5
89C
330
86F
100
AcDbEntity
  8
CSLAYER1
 62
     7
100
AcDbText
 10
35.139063633649
 20
17.462519896848
 30
0.0
 40
4.0
  1
18.5
 41
0.652173913043
  7
FX_FONT
 72
     5
 11
45.139063633649
 21
17.462519896848
 31
0.0
100
AcDbText
  0
TEXT
  5
89D
330
86F
100
AcDbEntity
  8
CSLAYER1
 62
     7
100
AcDbText
 10
35.132227633649
 20
9.462100896848
 30
0.0
 40
4.0
  1
16.0
 41
0.661521499449
  7
FX_FONT
 72
     5
 11
45.132227633649
 21
9.462100896848
 31
0.0
100
AcDbText
  0
TEXT
  5
89E
330
86F
100
AcDbEntity
  8
CSLAYER1
 62
     7
100
AcDbText
 10
34.729639633649
 20
1.410647896848
 30
0.0
 40
4.0
  1
13.5
 41
0.652173913043
  7
FX_FONT
 72
     5
 11
44.729639633649
 21
1.410647896848
 31
0.0
100
AcDbText
  0
TEXT
  5
89F
330
86F
100
AcDbEntity
  8
CSLAYER1
 62
     7
100
AcDbText
 10
64.986953488339
 20
25.828648985264
 30
0.0
 40
4.0
  1
48.5
 41
0.652173913043
  7
FX_FONT
 72
     5
 11
74.986953488339
 21
25.828648985264
 31
0.0
100
AcDbText
  0
TEXT
  5
8A0
330
86F
100
AcDbEntity
  8
CSLAYER1
 62
     7
100
AcDbText
 10
64.986953488339
 20
17.938229985264
 30
0.0
 40
4.0
  1
47.5
 41
0.652173913043
  7
FX_FONT
 72
     5
 11
74.986953488339
 21
17.938229985264
 31
0.0
100
AcDbText
  0
TEXT
  5
8A1
330
86F
100
AcDbEntity
  8
CSLAYER1
 62
     7
100
AcDbText
 10
65.092818488339
 20
9.535237985264
 30
0.0
 40
4.0
  1
46.5
 41
0.650994575045
  7
FX_FONT
 72
     5
 11
75.092818488339
 21
9.535237985264
 31
0.0
100
AcDbText
  0
TEXT
  5
8A2
330
86F
100
AcDbEntity
  8
CSLAYER1
 62
     7
100
AcDbText
 10
64.986953488339
 20
2.157376985264
 30
0.0
 40
4.0
  1
45.5
 41
0.650994575045
  7
FX_FONT
 72
     5
 11
74.986953488339
 21
2.157376985264
 31
0.0
100
AcDbText
  0
LINE
  5
8A3
330
86F
100
AcDbEntity
  8
CSLAYER1
  6
Continuous
 62
     7
100
AcDbLine
 10
0.03556
 20
24.0
 30
0.0
 11
87.557071326858
 21
24.0
 31
0.0
  0
LINE
  5
8A4
330
86F
100
AcDbEntity
  8
CSLAYER1
  6
Continuous
 62
     7
100
AcDbLine
 10
87.557071326858
 20
16.0
 30
0.0
 11
0.03556
 21
16.0
 31
0.0
  0
LINE
  5
8A5
330
86F
100
AcDbEntity
  8
CSLAYER1
  6
Continuous
 62
     7
100
AcDbLine
 10
0.03556
 20
8.0
 30
0.0
 11
87.557071326858
 21
8.0
 31
0.0
  0
TEXT
  5
8A6
330
86F
100
AcDbEntity
  8
CSLAYER1
 62
     7
100
AcDbText
 10
6.469615
 20
41.026002368393
 30
0.0
 40
5.0
  1
扉厚
 41
1.125
  7
FX_FONT
 72
     5
 11
18.469615
 21
41.026002368393
 31
0.0
100
AcDbText
  0
TEXT
  5
8A7
330
86F
100
AcDbEntity
  8
CSLAYER1
 62
     7
100
AcDbText
 10
2.035563
 20
25.999998
 30
0.0
 40
4.0
  1
35 ~ 37
 41
0.869165325362
  7
FX_FONT
 72
     5
 11
23.035563
 21
25.999998
 31
0.0
100
AcDbText
  0
TEXT
  5
8A8
330
86F
100
AcDbEntity
  8
CSLAYER1
 62
     7
100
AcDbText
 10
2.035563
 20
18.000006
 30
0.0
 40
4.0
  1
37 ~ 42
 41
0.870165745856
  7
FX_FONT
 72
     5
 11
23.035563
 21
18.000006
 31
0.0
100
AcDbText
  0
TEXT
  5
8A9
330
86F
100
AcDbEntity
  8
CSLAYER1
 62
     7
100
AcDbText
 10
2.035563
 20
10.000006
 30
0.0
 40
4.0
  1
42 ~ 47
 41
0.870165745856
  7
FX_FONT
 72
     5
 11
23.035563
 21
10.000006
 31
0.0
100
AcDbText
  0
TEXT
  5
8AA
330
86F
100
AcDbEntity
  8
CSLAYER1
 62
     7
100
AcDbText
 10
2.035563
 20
2.000006
 30
0.0
 40
4.0
  1
47 ~ 51
 41
0.89382832821
  7
FX_FONT
 72
     5
 11
23.035563
 21
2.000006
 31
0.0
100
AcDbText
  0
LINE
  5
8AB
330
86F
100
AcDbEntity
  8
CSLAYER1
  6
Continuous
 62
     3
100
AcDbLine
 10
25.03556
 20
8.0
 30
0.0
 11
25.03556
 21
56.0
 31
0.0
  0
LINE
  5
8AC
330
86F
100
AcDbEntity
  8
CSLAYER1
  6
Continuous
 62
     3
100
AcDbLine
 10
25.03556
 20
48.0
 30
0.0
 11
87.557071326858
 21
48.0
 31
0.0
  0
LINE
  5
8AD
330
86F
100
AcDbEntity
  8
CSLAYER1
  6
Continuous
 62
     3
100
AcDbLine
 10
0.03556
 20
56.0
 30
0.0
 11
87.557071326858
 21
56.0
 31
0.0
  0
LINE
  5
8AE
330
86F
100
AcDbEntity
  8
CSLAYER1
  6
Continuous
 62
     3
100
AcDbLine
 10
25.03556
 20
40.0
 30
0.0
 11
87.557071326858
 21
40.0
 31
0.0
  0
LINE
  5
8AF
330
86F
100
AcDbEntity
  8
CSLAYER1
  6
Continuous
 62
     3
100
AcDbLine
 10
56.099017873703
 20
40.0
 30
0.0
 11
56.099017873703
 21
0.0
 31
0.0
  0
TEXT
  5
8B0
330
86F
100
AcDbEntity
  8
CSLAYER1
100
AcDbText
 10
31.288591054036
 20
50.133991014118
 30
0.0
 40
4.0
  1
Xキーシリンダー、ピンシリンダー、サムターン
 41
0.5
  7
FX_FONT
100
AcDbText
  0
TEXT
  5
8B1
330
86F
100
AcDbEntity
  8
CSLAYER1
100
AcDbText
 10
47.298618789554
 20
41.913961584618
 30
0.0
 40
4.0
  1
Ａ＝47
  7
FX_FONT
100
AcDbText
  0
ENDBLK
  5
8B3
330
86F
100
AcDbEntity
  8
0
100
AcDbBlockEnd
  0
BLOCK
  5
8FB
330
8D1
100
AcDbEntity
  8
0
100
AcDbBlockBegin
  2
A910168
 70
     0
 10
0.0
 20
0.0
 30
0.0
  3
A910168
  1

  0
TEXT
  5
8F8
330
8D1
100
AcDbEntity
  8
CSLAYER1
 62
     7
100
AcDbText
 10
0.41837756635
 20
15.652027
 30
0.0
 40
4.0
  1
70
 41
0.846394984326
  7
FX_FONT
 72
     5
 11
6.41837756635
 21
15.652027
 31
0.0
100
AcDbText
  0
TEXT
  5
8F9
330
8D1
100
AcDbEntity
  8
CSLAYER1
 62
     7
100
AcDbText
 10
0.41837756635
 20
7.826019
 30
0.0
 40
4.0
  1
90
 41
0.846173935753
  7
FX_FONT
 72
     5
 11
6.41837756635
 21
7.826019
 31
0.0
100
AcDbText
  0
TEXT
  5
8FA
330
8D1
100
AcDbEntity
  8
CSLAYER1
 62
     7
100
AcDbText
 10
-1.08162243365
 20
0.0
 30
0.0
 40
4.0
  1
100
 41
0.811216825238
  7
FX_FONT
 72
     5
 11
7.91837756635
 21
0.0
 31
0.0
100
AcDbText
  0
ENDBLK
  5
8FC
330
8D1
100
AcDbEntity
  8
0
100
AcDbBlockEnd
  0
BLOCK
  5
917
330
916
100
AcDbEntity
  8
0
100
AcDbBlockBegin
  2
_Open30
 70
     0
 10
0.0
 20
0.0
 30
0.0
  3
_Open30
  1

  0
LINE
  5
919
330
916
100
AcDbEntity
  8
0
  6
ByBlock
 62
     0
370
    -2
100
AcDbLine
 10
-1.0
 20
0.267949
 30
0.0
 11
0.0
 21
0.0
 31
0.0
  0
LINE
  5
91A
330
916
100
AcDbEntity
  8
0
  6
ByBlock
 62
     0
370
    -2
100
AcDbLine
 10
0.0
 20
0.0
 30
0.0
 11
-1.0
 21
-0.267949
 31
0.0
  0
LINE
  5
91B
330
916
100
AcDbEntity
  8
0
  6
ByBlock
 62
     0
370
    -2
100
AcDbLine
 10
0.0
 20
0.0
 30
0.0
 11
-1.0
 21
0.0
 31
0.0
  0
ENDBLK
  5
918
330
916
100
AcDbEntity
  8
0
100
AcDbBlockEnd
  0
BLOCK
  5
94B
330
923
100
AcDbEntity
  8
0
100
AcDbBlockBegin
  2
A910118
 70
     0
 10
0.0
 20
0.0
 30
0.0
  3
A910118
  1

  0
TEXT
  5
94A
330
923
100
AcDbEntity
  8
CSLAYER1
 62
     7
100
AcDbText
 10
-0.454545454545
 20
0.0
 30
0.0
 40
4.0
  1
44
 41
0.681818181818
  7
FX_FONT
 72
     5
 11
4.545454545455
 21
0.0
 31
0.0
100
AcDbText
  0
ENDBLK
  5
94C
330
923
100
AcDbEntity
  8
0
100
AcDbBlockEnd
  0
BLOCK
  5
978
330
950
100
AcDbEntity
  8
0
100
AcDbBlockBegin
  2
A9100E8
 70
     0
 10
0.0
 20
0.0
 30
0.0
  3
A9100E8
  1

  0
LINE
  5
976
330
950
100
AcDbEntity
  8
CSLAYER1
  6
Continuous
 62
     7
100
AcDbLine
 10
0.517638
 20
1.931852
 30
0.0
 11
0.0
 21
0.0
 31
0.0
  0
LINE
  5
977
330
950
100
AcDbEntity
  8
CSLAYER1
  6
Continuous
 62
     7
100
AcDbLine
 10
0.517638
 20
1.931852
 30
0.0
 11
1.035276
 21
0.0
 31
0.0
  0
ENDBLK
  5
979
330
950
100
AcDbEntity
  8
0
100
AcDbBlockEnd
  0
BLOCK
  5
9A5
330
97D
100
AcDbEntity
  8
0
100
AcDbBlockBegin
  2
A9100B8
 70
     0
 10
0.0
 20
0.0
 30
0.0
  3
A9100B8
  1

  0
LINE
  5
9A3
330
97D
100
AcDbEntity
  8
CSLAYER1
  6
Continuous
 62
     7
100
AcDbLine
 10
0.517638
 20
0.0
 30
0.0
 11
0.0
 21
1.931852
 31
0.0
  0
LINE
  5
9A4
330
97D
100
AcDbEntity
  8
CSLAYER1
  6
Continuous
 62
     7
100
AcDbLine
 10
0.517638
 20
0.0
 30
0.0
 11
1.035276
 21
1.931852
 31
0.0
  0
ENDBLK
  5
9A6
330
97D
100
AcDbEntity
  8
0
100
AcDbBlockEnd
  0
BLOCK
  5
9D2
330
9AA
100
AcDbEntity
  8
0
100
AcDbBlockBegin
  2
A910188
 70
     0
 10
0.0
 20
0.0
 30
0.0
  3
A910188
  1

  0
TEXT
  5
9D1
330
9AA
100
AcDbEntity
  8
CSLAYER1
 62
     7
100
AcDbText
 10
4.0
 20
-0.454545454545
 30
0.0
 40
4.0
  1
22
 50
90.0
 41
0.681818181818
  7
FX_FONT
 72
     5
 11
4.0
 21
4.545454545455
 31
0.0
100
AcDbText
  0
ENDBLK
  5
9D3
330
9AA
100
AcDbEntity
  8
0
100
AcDbBlockEnd
  0
BLOCK
  5
A3F
330
A14
100
AcDbEntity
  8
0
100
AcDbBlockBegin
  2
152202F0
 70
     0
 10
0.0
 20
0.0
 30
0.0
  3
152202F0
  1

  0
LINE
  5
A3C
330
A14
100
AcDbEntity
  8
CSLAYER1
100
AcDbLine
 10
21.063570992918
 20
0.0
 30
0.0
 11
43.594250108424
 21
0.0
 31
0.0
  0
TEXT
  5
A3D
330
A14
100
AcDbEntity
  8
CSLAYER10
 62
     7
100
AcDbText
 10
4.005555555556
 20
5.673726183224
 30
0.0
 40
4.0
  1
5
 50
90.0
 41
0.75
  7
FX_FONT
 72
     5
 11
4.005555555556
 21
8.173726183224
 31
0.0
100
AcDbText
  0
TEXT
  5
A3E
330
A14
100
AcDbEntity
  8
CSLAYER10
 62
     7
100
AcDbText
 10
30.229568554148
 20
0.83973764061
 30
0.0
 40
4.0
  1
10.5
 41
0.488953277798
  7
FX_FONT
 72
     5
 11
37.729568554148
 21
0.83973764061
 31
0.0
100
AcDbText
  0
ENDBLK
  5
A40
330
A14
100
AcDbEntity
  8
0
100
AcDbBlockEnd
  0
BLOCK
  5
A75
330
A45
100
AcDbEntity
  8
0
100
AcDbBlockBegin
  2
152202B0
 70
     0
 10
0.0
 20
0.0
 30
0.0
  3
152202B0
  1

  0
TEXT
  5
A6D
330
A45
100
AcDbEntity
  8
CSLAYER10
 62
     7
100
AcDbText
 10
4.500017
 20
2.000002
 30
0.0
 40
4.0
  1
14
 41
0.681818181818
  7
FX_FONT
 72
     5
 11
9.500017
 21
2.000002
 31
0.0
100
AcDbText
  0
LINE
  5
A6E
330
A45
100
AcDbEntity
  8
CSLAYER10
  6
Continuous
 62
     7
100
AcDbLine
 10
0.0
 20
15.0
 30
0.0
 11
0.0
 21
0.0
 31
0.0
  0
LINE
  5
A6F
330
A45
100
AcDbEntity
  8
CSLAYER10
  6
Continuous
 62
     7
100
AcDbLine
 10
14.0
 20
15.0
 30
0.0
 11
14.0
 21
0.0
 31
0.0
  0
LINE
  5
A70
330
A45
100
AcDbEntity
  8
CSLAYER10
  6
Continuous
 62
     7
100
AcDbLine
 10
0.0
 20
1.0
 30
0.0
 11
14.0
 21
1.0
 31
0.0
  0
LINE
  5
A71
330
A45
100
AcDbEntity
  8
CSLAYER10
  6
Continuous
 62
     7
100
AcDbLine
 10
0.0
 20
1.0
 30
0.0
 11
1.931851
 21
1.517638
 31
0.0
  0
LINE
  5
A72
330
A45
100
AcDbEntity
  8
CSLAYER10
  6
Continuous
 62
     7
100
AcDbLine
 10
0.0
 20
1.0
 30
0.0
 11
1.931851
 21
0.482362
 31
0.0
  0
LINE
  5
A73
330
A45
100
AcDbEntity
  8
CSLAYER10
  6
Continuous
 62
     7
100
AcDbLine
 10
14.0
 20
1.0
 30
0.0
 11
12.068148
 21
1.517638
 31
0.0
  0
LINE
  5
A74
330
A45
100
AcDbEntity
  8
CSLAYER10
  6
Continuous
 62
     7
100
AcDbLine
 10
14.0
 20
1.0
 30
0.0
 11
12.068148
 21
0.482362
 31
0.0
  0
ENDBLK
  5
A76
330
A45
100
AcDbEntity
  8
0
100
AcDbBlockEnd
  0
BLOCK
  5
B51
330
B28
100
AcDbEntity
  8
0
100
AcDbBlockBegin
  2
AD40128
 70
     0
 10
0.0
 20
0.0
 30
0.0
  3
AD40128
  1

  0
TEXT
  5
B50
330
B28
100
AcDbEntity
  8
CSLAYER10
 62
     7
100
AcDbText
 10
4.0
 20
-0.454545454545
 30
0.0
 40
4.0
  1
38
 50
90.0
 41
0.681818181818
  7
FX_FONT
 72
     5
 11
4.0
 21
4.545454545455
 31
0.0
100
AcDbText
  0
ENDBLK
  5
B52
330
B28
100
AcDbEntity
  8
0
100
AcDbBlockEnd
  0
BLOCK
  5
B82
330
B55
100
AcDbEntity
  8
0
100
AcDbBlockBegin
  2
AD40138
 70
     0
 10
0.0
 20
0.0
 30
0.0
  3
AD40138
  1

  0
LINE
  5
B7D
330
B55
100
AcDbEntity
  8
CSLAYER10
  6
Continuous
 62
     7
100
AcDbLine
 10
46.193768
 20
0.0
 30
0.0
 11
24.5
 21
21.693768
 31
0.0
  0
LINE
  5
B7E
330
B55
100
AcDbEntity
  8
CSLAYER10
  6
Continuous
 62
     7
100
AcDbLine
 10
46.193768
 20
0.0
 30
0.0
 11
44.461717
 21
1.0
 31
0.0
  0
LINE
  5
B7F
330
B55
100
AcDbEntity
  8
CSLAYER10
  6
Continuous
 62
     7
100
AcDbLine
 10
46.193768
 20
0.0
 30
0.0
 11
45.193768
 21
1.732051
 31
0.0
  0
LINE
  5
B80
330
B55
100
AcDbEntity
  8
CSLAYER10
  6
Continuous
 62
     7
100
AcDbLine
 10
24.5
 20
21.693768
 30
0.0
 11
0.0
 21
21.693768
 31
0.0
  0
TEXT
  5
B81
330
B55
100
AcDbEntity
  8
CSLAYER10
 62
     7
100
AcDbText
 10
0.999998
 20
22.693789
 30
0.0
 40
4.0
  1
2-4mmネジ用穴
 41
0.590034965035
  7
FX_FONT
 72
     5
 11
23.499998
 21
22.693789
 31
0.0
100
AcDbText
  0
ENDBLK
  5
B83
330
B55
100
AcDbEntity
  8
0
100
AcDbBlockEnd
  0
BLOCK
  5
BD3
330
BAA
100
AcDbEntity
  8
0
100
AcDbBlockBegin
  2
AD40178
 70
     0
 10
0.0
 20
0.0
 30
0.0
  3
AD40178
  1

  0
TEXT
  5
BD2
330
BAA
100
AcDbEntity
  8
CSLAYER10
 62
     7
100
AcDbText
 10
-0.459732791118
 20
0.0
 30
0.0
 40
4.0
  1
%%C49.0
 41
0.689599186677
  7
FX_FONT
 72
     5
 11
12.705226496753
 21
0.0
 31
0.0
100
AcDbText
  0
ENDBLK
  5
BD4
330
BAA
100
AcDbEntity
  8
0
100
AcDbBlockEnd
  0
ENDSEC
  0
SECTION
  2
ENTITIES
  0
LINE
  5
393
330
1D
100
AcDbEntity
  8
CSLAYER1
  6
Continuous
100
AcDbLine
 10
631.467990661009
 20
331.640867
 30
0.0
 11
631.467990661009
 21
206.640867
 31
0.0
  0
LINE
  5
394
330
1D
100
AcDbEntity
  8
CSLAYER1
  6
Continuous
100
AcDbLine
 10
631.467990661009
 20
206.640867
 30
0.0
 11
633.467990661009
 21
206.640867
 31
0.0
  0
LINE
  5
395
330
1D
100
AcDbEntity
  8
CSLAYER1
  6
Continuous
100
AcDbLine
 10
633.467990661009
 20
206.640867
 30
0.0
 11
633.467990661009
 21
331.640867
 31
0.0
  0
LINE
  5
396
330
1D
100
AcDbEntity
  8
CSLAYER1
  6
Continuous
100
AcDbLine
 10
633.467990661009
 20
331.640867
 30
0.0
 11
631.467990661009
 21
331.640867
 31
0.0
  0
LINE
  5
397
330
1D
100
AcDbEntity
  8
CSLAYER1
  6
Continuous
100
AcDbLine
 10
631.467990661009
 20
330.640867
 30
0.0
 11
630.967990661009
 21
330.640867
 31
0.0
  0
LINE
  5
398
330
1D
100
AcDbEntity
  8
CSLAYER1
  6
Continuous
100
AcDbLine
 10
630.967990661009
 20
330.640867
 30
0.0
 11
630.967990661009
 21
311.640867
 31
0.0
  0
LINE
  5
399
330
1D
100
AcDbEntity
  8
CSLAYER1
  6
Continuous
100
AcDbLine
 10
630.967990661009
 20
311.640867
 30
0.0
 11
613.967990661009
 21
311.640867
 31
0.0
  0
ARC
  5
39A
330
1D
100
AcDbEntity
  8
CSLAYER1
  6
Continuous
100
AcDbCircle
 10
613.967990661009
 20
311.140867
 30
0.0
 40
0.5
100
AcDbArc
 50
90.0
 51
180.0
  0
LINE
  5
39B
330
1D
100
AcDbEntity
  8
CSLAYER1
  6
Continuous
100
AcDbLine
 10
613.467990661009
 20
311.140867
 30
0.0
 11
613.467990661009
 21
227.140867
 31
0.0
  0
LINE
  5
39C
330
1D
100
AcDbEntity
  8
CSLAYER1
  6
Continuous
100
AcDbLine
 10
613.467990661009
 20
227.140867
 30
0.0
 11
631.467990661009
 21
227.140867
 31
0.0
  0
LINE
  5
39D
330
1D
100
AcDbEntity
  8
CSLAYER1
  6
Continuous
100
AcDbLine
 10
630.967990661009
 20
226.640867
 30
0.0
 11
630.967990661009
 21
207.640867
 31
0.0
  0
LINE
  5
39E
330
1D
100
AcDbEntity
  8
CSLAYER1
  6
Continuous
100
AcDbLine
 10
630.967990661009
 20
207.640867
 30
0.0
 11
631.467990661009
 21
207.640867
 31
0.0
  0
LINE
  5
39F
330
1D
100
AcDbEntity
  8
CSLAYER1
  6
Continuous
100
AcDbLine
 10
630.967990661009
 20
226.640867
 30
0.0
 11
613.967990661009
 21
226.640867
 31
0.0
  0
ARC
  5
3A0
330
1D
100
AcDbEntity
  8
CSLAYER1
  6
Continuous
100
AcDbCircle
 10
613.967990661009
 20
227.140867
 30
0.0
 40
0.5
100
AcDbArc
 50
180.0
 51
270.0
  0
LINE
  5
3A1
330
1D
100
AcDbEntity
  8
CSLAYER1
  6
Continuous
100
AcDbLine
 10
655.835923661009
 20
207.640867
 30
0.0
 11
655.835923661009
 21
330.640867
 31
0.0
  0
LINE
  5
3A2
330
1D
100
AcDbEntity
  8
CSLAYER1
  6
Continuous
100
AcDbLine
 10
656.835923661009
 20
331.640867
 30
0.0
 11
693.335923661009
 21
331.640867
 31
0.0
  0
LINE
  5
3A3
330
1D
100
AcDbEntity
  8
CSLAYER1
  6
Continuous
100
AcDbLine
 10
695.335923661009
 20
329.640867
 30
0.0
 11
695.335923661009
 21
208.640867
 31
0.0
  0
LINE
  5
3A4
330
1D
100
AcDbEntity
  8
CSLAYER1
  6
Continuous
100
AcDbLine
 10
693.335923661009
 20
206.640867
 30
0.0
 11
656.835923661009
 21
206.640867
 31
0.0
  0
ARC
  5
3A5
330
1D
100
AcDbEntity
  8
CSLAYER1
  6
Continuous
100
AcDbCircle
 10
656.835923661009
 20
207.640867
 30
0.0
 40
1.0
100
AcDbArc
 50
180.0
 51
270.0
  0
CIRCLE
  5
3A6
330
1D
100
AcDbEntity
  8
CSLAYER1
  6
Continuous
100
AcDbCircle
 10
669.835923661009
 20
216.640867
 30
0.0
 40
4.1
  0
CIRCLE
  5
3A7
330
1D
100
AcDbEntity
  8
CSLAYER1
  6
Continuous
100
AcDbCircle
 10
669.835923661009
 20
216.640867
 30
0.0
 40
2.75
  0
LINE
  5
3A8
330
1D
100
AcDbEntity
  8
CSLAYER1
  6
Continuous
100
AcDbLine
 10
678.335923661009
 20
228.140867
 30
0.0
 11
661.335923661009
 21
228.140867
 31
0.0
  0
LINE
  5
3A9
330
1D
100
AcDbEntity
  8
CSLAYER1
  6
Continuous
100
AcDbLine
 10
660.335923661009
 20
229.140867
 30
0.0
 11
660.335923661009
 21
265.140867
 31
0.0
  0
LINE
  5
3AA
330
1D
100
AcDbEntity
  8
CSLAYER1
  6
Continuous
100
AcDbLine
 10
661.335923661009
 20
266.140867
 30
0.0
 11
678.335923661009
 21
266.140867
 31
0.0
  0
LINE
  5
3AB
330
1D
100
AcDbEntity
  8
CSLAYER1
  6
Continuous
100
AcDbLine
 10
680.335923661009
 20
264.140867
 30
0.0
 11
680.335923661009
 21
263.140867
 31
0.0
  0
ARC
  5
3AC
330
1D
100
AcDbEntity
  8
CSLAYER1
  6
Continuous
100
AcDbCircle
 10
678.335923661009
 20
264.140867
 30
0.0
 40
2.0
100
AcDbArc
 50
0.0
 51
90.0
  0
LINE
  5
3AD
330
1D
100
AcDbEntity
  8
CSLAYER1
  6
Continuous
100
AcDbLine
 10
678.335923661009
 20
261.140867
 30
0.0
 11
678.335923661009
 21
233.140867
 31
0.0
  0
LINE
  5
3AE
330
1D
100
AcDbEntity
  8
CSLAYER1
  6
Continuous
100
AcDbLine
 10
680.335923661009
 20
231.140867
 30
0.0
 11
680.335923661009
 21
230.140867
 31
0.0
  0
ARC
  5
3AF
330
1D
100
AcDbEntity
  8
CSLAYER1
  6
Continuous
100
AcDbCircle
 10
678.335923661009
 20
231.140867
 30
0.0
 40
2.0
100
AcDbArc
 50
0.0
 51
90.0
  0
ARC
  5
3B0
330
1D
100
AcDbEntity
  8
CSLAYER1
  6
Continuous
100
AcDbCircle
 10
678.335923661009
 20
230.140867
 30
0.0
 40
2.0
100
AcDbArc
 50
270.0
 51
0.0
  0
ARC
  5
3B1
330
1D
100
AcDbEntity
  8
CSLAYER1
  6
Continuous
100
AcDbCircle
 10
661.335923661009
 20
229.140867
 30
0.0
 40
1.0
100
AcDbArc
 50
180.0
 51
270.0
  0
ARC
  5
3B2
330
1D
100
AcDbEntity
  8
CSLAYER1
  6
Continuous
100
AcDbCircle
 10
678.335923661009
 20
263.140867
 30
0.0
 40
2.0
100
AcDbArc
 50
270.0
 51
0.0
  0
LINE
  5
3B3
330
1D
100
AcDbEntity
  8
CSLAYER1
  6
Continuous
100
AcDbLine
 10
678.335923661009
 20
272.140867
 30
0.0
 11
661.335923661009
 21
272.140867
 31
0.0
  0
LINE
  5
3B4
330
1D
100
AcDbEntity
  8
CSLAYER1
  6
Continuous
100
AcDbLine
 10
660.335923661009
 20
273.140867
 30
0.0
 11
660.335923661009
 21
309.140867
 31
0.0
  0
ARC
  5
3B5
330
1D
100
AcDbEntity
  8
CSLAYER1
  6
Continuous
100
AcDbCircle
 10
661.335923661009
 20
309.140867
 30
0.0
 40
1.0
100
AcDbArc
 50
90.0
 51
180.0
  0
LINE
  5
3B6
330
1D
100
AcDbEntity
  8
CSLAYER1
  6
Continuous
100
AcDbLine
 10
661.335923661009
 20
310.140867
 30
0.0
 11
678.335923661009
 21
310.140867
 31
0.0
  0
LINE
  5
3B7
330
1D
100
AcDbEntity
  8
CSLAYER1
  6
Continuous
100
AcDbLine
 10
680.335923661009
 20
308.140867
 30
0.0
 11
680.335923661009
 21
307.140867
 31
0.0
  0
ARC
  5
3B8
330
1D
100
AcDbEntity
  8
CSLAYER1
  6
Continuous
100
AcDbCircle
 10
678.335923661009
 20
308.140867
 30
0.0
 40
2.0
100
AcDbArc
 50
0.0
 51
90.0
  0
LINE
  5
3B9
330
1D
100
AcDbEntity
  8
CSLAYER1
  6
Continuous
100
AcDbLine
 10
678.335923661009
 20
305.140867
 30
0.0
 11
678.335923661009
 21
277.140867
 31
0.0
  0
LINE
  5
3BA
330
1D
100
AcDbEntity
  8
CSLAYER1
  6
Continuous
100
AcDbLine
 10
680.335923661009
 20
275.140867
 30
0.0
 11
680.335923661009
 21
274.140867
 31
0.0
  0
ARC
  5
3BB
330
1D
100
AcDbEntity
  8
CSLAYER1
  6
Continuous
100
AcDbCircle
 10
678.335923661009
 20
275.140867
 30
0.0
 40
2.0
100
AcDbArc
 50
0.0
 51
90.0
  0
ARC
  5
3BC
330
1D
100
AcDbEntity
  8
CSLAYER1
  6
Continuous
100
AcDbCircle
 10
678.335923661009
 20
274.140867
 30
0.0
 40
2.0
100
AcDbArc
 50
270.0
 51
0.0
  0
ARC
  5
3BD
330
1D
100
AcDbEntity
  8
CSLAYER1
  6
Continuous
100
AcDbCircle
 10
661.335923661009
 20
273.140867
 30
0.0
 40
1.0
100
AcDbArc
 50
180.0
 51
270.0
  0
ARC
  5
3BE
330
1D
100
AcDbEntity
  8
CSLAYER1
  6
Continuous
100
AcDbCircle
 10
661.335923661009
 20
265.140867
 30
0.0
 40
1.0
100
AcDbArc
 50
90.0
 51
180.0
  0
ARC
  5
3BF
330
1D
100
AcDbEntity
  8
CSLAYER1
  6
Continuous
100
AcDbCircle
 10
678.335923661009
 20
307.140867
 30
0.0
 40
2.0
100
AcDbArc
 50
270.0
 51
0.0
  0
CIRCLE
  5
3C0
330
1D
100
AcDbEntity
  8
CSLAYER1
  6
Continuous
100
AcDbCircle
 10
669.835923661009
 20
321.640867
 30
0.0
 40
4.1
  0
CIRCLE
  5
3C1
330
1D
100
AcDbEntity
  8
CSLAYER1
  6
Continuous
100
AcDbCircle
 10
669.835923661009
 20
321.640867
 30
0.0
 40
2.75
  0
ARC
  5
3C2
330
1D
100
AcDbEntity
  8
CSLAYER1
  6
Continuous
100
AcDbCircle
 10
656.835923661009
 20
330.640867
 30
0.0
 40
1.0
100
AcDbArc
 50
90.0
 51
180.0
  0
LINE
  5
3C3
330
1D
100
AcDbEntity
  8
CSLAYER1
  6
Continuous
100
AcDbLine
 10
631.467990661009
 20
311.140867
 30
0.0
 11
613.467990661009
 21
311.140867
 31
0.0
  0
ARC
  5
3C4
330
1D
100
AcDbEntity
  8
CSLAYER1
  6
Continuous
100
AcDbCircle
 10
693.335923661009
 20
329.640867
 30
0.0
 40
2.0
100
AcDbArc
 50
0.0
 51
90.0
  0
ARC
  5
3C5
330
1D
100
AcDbEntity
  8
CSLAYER1
  6
Continuous
100
AcDbCircle
 10
693.335923661009
 20
208.640867
 30
0.0
 40
2.0
100
AcDbArc
 50
270.0
 51
0.0
  0
LINE
  5
3C6
330
1D
100
AcDbEntity
  8
CSLAYER1
  6
Continuous
100
AcDbLine
 10
693.335923661009
 20
173.140867
 30
0.0
 11
656.109375661009
 21
173.140867
 31
0.0
  0
LINE
  5
3C7
330
1D
100
AcDbEntity
  8
CSLAYER1
  6
Continuous
100
AcDbLine
 10
656.109375661009
 20
173.140867
 30
0.0
 11
656.109375661009
 21
171.140867
 31
0.0
  0
LINE
  5
3C8
330
1D
100
AcDbEntity
  8
CSLAYER1
  6
Continuous
100
AcDbLine
 10
656.109375661009
 20
171.140867
 30
0.0
 11
695.335923661009
 21
171.140867
 31
0.0
  0
ARC
  5
3C9
330
1D
100
AcDbEntity
  8
CSLAYER1
  6
Continuous
100
AcDbCircle
 10
693.335923661009
 20
171.140867
 30
0.0
 40
2.0
100
AcDbArc
 50
0.0
 51
90.0
  0
LINE
  5
3CA
330
1D
100
AcDbEntity
  8
CSLAYER1
  6
Continuous
100
AcDbLine
 10
681.835923661009
 20
171.140867
 30
0.0
 11
681.833789661009
 21
153.603054
 31
0.0
  0
LINE
  5
3CB
330
1D
100
AcDbEntity
  8
CSLAYER1
  6
Continuous
100
AcDbLine
 10
681.333789661009
 20
153.140867
 30
0.0
 11
658.335923661009
 21
153.140867
 31
0.0
  0
LINE
  5
3CC
330
1D
100
AcDbEntity
  8
CSLAYER1
  6
Continuous
100
AcDbLine
 10
657.835923661009
 20
153.640867
 30
0.0
 11
657.835923661009
 21
171.140867
 31
0.0
  0
LINE
  5
3CD
330
1D
100
AcDbEntity
  8
CSLAYER1
  6
Continuous
100
AcDbLine
 10
657.835923661009
 20
170.640867
 30
0.0
 11
681.835923661009
 21
170.640867
 31
0.0
  0
LINE
  5
3CE
330
1D
100
AcDbEntity
  8
CSLAYER1
  6
Continuous
100
AcDbLine
 10
673.335923661009
 20
170.640867
 30
0.0
 11
673.335923661009
 21
171.140867
 31
0.0
  0
LINE
  5
3CF
330
1D
100
AcDbEntity
  8
CSLAYER1
  6
Continuous
100
AcDbLine
 10
666.335923661009
 20
171.140867
 30
0.0
 11
666.335923661009
 21
170.640867
 31
0.0
  0
ARC
  5
3D0
330
1D
100
AcDbEntity
  8
CSLAYER1
  6
Continuous
100
AcDbCircle
 10
658.335923661009
 20
153.640867
 30
0.0
 40
0.5
100
AcDbArc
 50
180.0
 51
270.0
  0
ARC
  5
3D1
330
1D
100
AcDbEntity
  8
CSLAYER1
  6
Continuous
100
AcDbCircle
 10
681.333789661009
 20
153.640867
 30
0.0
 40
0.5
100
AcDbArc
 50
270.0
 51
0.0
  0
LINE
  5
3D2
330
1D
100
AcDbEntity
  8
CSLAYER10
  6
Continuous
100
AcDbLine
 10
123.506272082915
 20
40.483775814719
 30
0.0
 11
211.063343409772
 21
40.483775814719
 31
0.0
  0
LINE
  5
3DA
330
1D
100
AcDbEntity
  8
CSLAYER10
  6
Continuous
100
AcDbLine
 10
315.093367
 20
88.483775814719
 30
0.0
 11
360.093367
 21
88.483775814719
 31
0.0
  0
LINE
  5
3DB
330
1D
100
AcDbEntity
  8
CSLAYER10
  6
Continuous
100
AcDbLine
 10
360.093367
 20
96.483775814719
 30
0.0
 11
315.093367
 21
96.483775814719
 31
0.0
  0
LINE
  5
3DD
330
1D
100
AcDbEntity
  8
CSLAYER10
  6
Continuous
100
AcDbLine
 10
315.093367
 20
64.483775814719
 30
0.0
 11
360.093367
 21
64.483775814719
 31
0.0
  0
LINE
  5
3E3
330
1D
100
AcDbEntity
  8
CSLAYER1
  6
Continuous
100
AcDbLine
 10
420.587355
 20
89.212214853033
 30
0.0
 11
420.587355
 21
115.212214853033
 31
0.0
  0
LINE
  5
3E4
330
1D
100
AcDbEntity
  8
CSLAYER1
  6
Continuous
100
AcDbLine
 10
420.587355
 20
115.212214853033
 30
0.0
 11
418.587355
 21
115.212214853033
 31
0.0
  0
ARC
  5
3E5
330
1D
100
AcDbEntity
  8
CSLAYER1
  6
Continuous
100
AcDbCircle
 10
418.587355
 20
113.212214853033
 30
0.0
 40
2.0
100
AcDbArc
 50
90.0
 51
180.0
  0
LINE
  5
3E6
330
1D
100
AcDbEntity
  8
CSLAYER1
  6
Continuous
100
AcDbLine
 10
416.587355
 20
115.212214853033
 30
0.0
 11
416.587355
 21
89.212214853033
 31
0.0
  0
LINE
  5
3E7
330
1D
100
AcDbEntity
  8
CSLAYER1
  6
Continuous
100
AcDbLine
 10
416.587355
 20
89.212214853033
 30
0.0
 11
414.587355
 21
89.212214853033
 31
0.0
  0
LINE
  5
3E8
330
1D
100
AcDbEntity
  8
CSLAYER1
  6
Continuous
100
AcDbLine
 10
414.587355
 20
89.212214853033
 30
0.0
 11
414.587355
 21
115.212214853033
 31
0.0
  0
LINE
  5
3E9
330
1D
100
AcDbEntity
  8
CSLAYER1
  6
Continuous
100
AcDbLine
 10
414.587355
 20
115.212214853033
 30
0.0
 11
416.587355
 21
115.212214853033
 31
0.0
  0
LINE
  5
3EA
330
1D
100
AcDbEntity
  8
CSLAYER1
  6
Continuous
100
AcDbLine
 10
418.587355
 20
112.712214853033
 30
0.0
 11
418.587355
 21
91.712214853033
 31
0.0
  0
LINE
  5
3EB
330
1D
100
AcDbEntity
  8
CSLAYER1
  6
Continuous
100
AcDbLine
 10
418.587355
 20
91.712214853033
 30
0.0
 11
506.587355
 21
91.712214853033
 31
0.0
  0
ARC
  5
3EC
330
1D
100
AcDbEntity
  8
CSLAYER1
  6
Continuous
100
AcDbCircle
 10
506.587355
 20
93.712214853033
 30
0.0
 40
2.0
100
AcDbArc
 50
270.0
 51
0.0
  0
LINE
  5
3ED
330
1D
100
AcDbEntity
  8
CSLAYER1
  6
Continuous
100
AcDbLine
 10
508.587355
 20
93.712214853033
 30
0.0
 11
508.587355
 21
112.712214853033
 31
0.0
  0
LINE
  5
3EE
330
1D
100
AcDbEntity
  8
CSLAYER1
  6
Continuous
100
AcDbLine
 10
508.587355
 20
112.712214853033
 30
0.0
 11
418.587355
 21
112.712214853033
 31
0.0
  0
LINE
  5
3EF
330
1D
100
AcDbEntity
  8
CSLAYER1
  6
Continuous
100
AcDbLine
 10
414.587355
 20
109.212214853033
 30
0.0
 11
401.587355
 21
109.212214853033
 31
0.0
  0
LINE
  5
3F0
330
1D
100
AcDbEntity
  8
CSLAYER1
  6
Continuous
100
AcDbLine
 10
401.587355
 20
109.212214853033
 30
0.0
 11
401.587355
 21
107.412214853033
 31
0.0
  0
LINE
  5
3F1
330
1D
100
AcDbEntity
  8
CSLAYER1
  6
Continuous
100
AcDbLine
 10
401.587355
 20
107.412214853033
 30
0.0
 11
413.587355
 21
95.212214853033
 31
0.0
  0
LINE
  5
3F2
330
1D
100
AcDbEntity
  8
CSLAYER1
  6
Continuous
100
AcDbLine
 10
413.587355
 20
95.212214853033
 30
0.0
 11
414.587355
 21
95.212214853033
 31
0.0
  0
LINE
  5
3F3
330
1D
100
AcDbEntity
  8
CSLAYER1
  6
Continuous
100
AcDbLine
 10
414.587355
 20
94.568243853033
 30
0.0
 11
404.587355
 21
96.212214853033
 31
0.0
  0
ARC
  5
3F4
330
1D
100
AcDbEntity
  8
CSLAYER1
  6
Continuous
100
AcDbCircle
 10
404.587355
 20
97.212214853033
 30
0.0
 40
1.0
100
AcDbArc
 50
284.622958999998
 51
285.181602999999
  0
ARC
  5
3F5
330
1D
100
AcDbEntity
  8
CSLAYER1
  6
Continuous
100
AcDbCircle
 10
404.587355
 20
97.212214853033
 30
0.0
 40
1.0
100
AcDbArc
 50
149.843870000001
 51
270.0
  0
ARC
  5
3F6
330
1D
100
AcDbEntity
  8
CSLAYER1
  6
Continuous
100
AcDbCircle
 10
404.587355
 20
97.212214853033
 30
0.0
 40
1.0
100
AcDbArc
 50
139.892374
 51
140.228341000001
  0
ARC
  5
3F7
330
1D
100
AcDbEntity
  8
CSLAYER1
  6
Continuous
100
AcDbCircle
 10
418.587355
 20
93.212214853033
 30
0.0
 40
15.531559
100
AcDbArc
 50
142.528646
 51
163.14896
  0
ARC
  5
3F8
330
1D
100
AcDbEntity
  8
CSLAYER1
  6
Continuous
100
AcDbCircle
 10
418.587355
 20
91.212214853033
 30
0.0
 40
2.0
100
AcDbArc
 50
180.0
 51
270.0
  0
LINE
  5
3F9
330
1D
100
AcDbEntity
  8
CSLAYER1
  6
Continuous
100
AcDbLine
 10
418.587355
 20
89.212214853033
 30
0.0
 11
420.587355
 21
89.212214853033
 31
0.0
  0
LINE
  5
3FA
330
1D
100
AcDbEntity
  8
CSLAYER1
  6
Continuous
100
AcDbLine
 10
440.587355
 20
111.212214853033
 30
0.0
 11
508.587355
 21
111.212214853033
 31
0.0
  0
LINE
  5
3FB
330
1D
100
AcDbEntity
  8
CSLAYER1
  6
Continuous
100
AcDbLine
 10
440.587355
 20
111.212214853033
 30
0.0
 11
440.587355
 21
112.712214853033
 31
0.0
  0
LINE
  5
3FC
330
1D
100
AcDbEntity
  8
CSLAYER1
  6
Continuous
100
AcDbLine
 10
420.587355
 20
174.640867
 30
0.0
 11
414.587355
 21
174.640867
 31
0.0
  0
LINE
  5
3FD
102
{ACAD_REACTORS
330
13B0
102
}
330
1D
100
AcDbEntity
  8
CSLAYER1
  6
Continuous
100
AcDbLine
 10
414.587355
 20
174.640867
 30
0.0
 11
414.587355
 21
371.640867
 31
0.0
  0
LINE
  5
3FE
102
{ACAD_REACTORS
330
13AC
330
13B0
102
}
330
1D
100
AcDbEntity
  8
CSLAYER1
  6
Continuous
100
AcDbLine
 10
414.587355
 20
371.640867
 30
0.0
 11
420.587355
 21
371.640867
 31
0.0
  0
LINE
  5
3FF
330
1D
100
AcDbEntity
  8
CSLAYER1
  6
Continuous
100
AcDbLine
 10
420.587355
 20
371.640867
 30
0.0
 11
420.587355
 21
174.640867
 31
0.0
  0
LINE
  5
400
102
{ACAD_REACTORS
330
13AC
330
13B0
102
}
330
1D
100
AcDbEntity
  8
CSLAYER1
  6
Continuous
100
AcDbLine
 10
416.587355
 20
174.640867
 30
0.0
 11
416.587355
 21
371.640867
 31
0.0
  0
LINE
  5
401
102
{ACAD_REACTORS
330
13AC
102
}
330
1D
100
AcDbEntity
  8
CSLAYER1
  6
Continuous
100
AcDbLine
 10
418.587355
 20
371.640867
 30
0.0
 11
418.587355
 21
364.469294
 31
0.0
  0
LINE
  5
402
102
{ACAD_REACTORS
330
13AC
102
}
330
1D
100
AcDbEntity
  8
CSLAYER1
  6
Continuous
100
AcDbLine
 10
418.587355
 20
364.469294
 30
0.0
 11
420.001568
 21
363.05508
 31
0.0
  0
LINE
  5
403
102
{ACAD_REACTORS
330
13AC
102
}
330
1D
100
AcDbEntity
  8
CSLAYER1
  6
Continuous
100
AcDbLine
 10
420.001568
 20
363.05508
 30
0.0
 11
418.587355
 21
361.640867
 31
0.0
  0
LINE
  5
404
330
1D
100
AcDbEntity
  8
CSLAYER1
  6
Continuous
100
AcDbLine
 10
418.587355
 20
361.640867
 30
0.0
 11
418.587355
 21
356.640867
 31
0.0
  0
LINE
  5
405
102
{ACAD_REACTORS
330
13AC
102
}
330
1D
100
AcDbEntity
  8
CSLAYER1
  6
Continuous
100
AcDbLine
 10
418.587355
 20
356.640867
 30
0.0
 11
420.001568
 21
355.226653
 31
0.0
  0
LINE
  5
406
330
1D
100
AcDbEntity
  8
CSLAYER1
  6
Continuous
100
AcDbLine
 10
420.001568
 20
355.226653
 30
0.0
 11
420.001568
 21
363.05508
 31
0.0
  0
LINE
  5
407
102
{ACAD_REACTORS
330
13AC
102
}
330
1D
100
AcDbEntity
  8
CSLAYER1
  6
Continuous
100
AcDbLine
 10
418.587355
 20
361.640867
 30
0.0
 11
417.17272147883
 21
363.05550052117
 31
0.0
  0
ARC
  5
408
102
{ACAD_REACTORS
330
13AC
102
}
330
1D
100
AcDbEntity
  8
CSLAYER1
  6
Continuous
100
AcDbCircle
 10
418.587355
 20
364.469294
 30
0.0
 40
2.0
100
AcDbArc
 50
180.0
 51
225.0
  0
LINE
  5
409
102
{ACAD_REACTORS
330
13AC
102
}
330
1D
100
AcDbEntity
  8
CSLAYER1
  6
Continuous
100
AcDbLine
 10
418.587355
 20
356.640867
 30
0.0
 11
417.173141
 21
355.226653
 31
0.0
  0
ARC
  5
40A
102
{ACAD_REACTORS
330
13AC
102
}
330
1D
100
AcDbEntity
  8
CSLAYER1
  6
Continuous
100
AcDbCircle
 10
418.587355
 20
353.81244
 30
0.0
 40
2.0
100
AcDbArc
 50
135.0
 51
180.0
  0
LINE
  5
40B
102
{ACAD_REACTORS
330
13AC
102
}
330
1D
100
AcDbEntity
  8
CSLAYER1
  6
Continuous
100
AcDbLine
 10
418.587355
 20
353.81244
 30
0.0
 11
420.001568
 21
355.226653
 31
0.0
  0
LINE
  5
40C
102
{ACAD_REACTORS
330
13AC
102
}
330
1D
100
AcDbEntity
  8
CSLAYER1
  6
Continuous
100
AcDbLine
 10
418.587355
 20
353.81244
 30
0.0
 11
418.587355
 21
352.198049
 31
0.0
  0
LINE
  5
40D
330
1D
100
AcDbEntity
  8
CSLAYER1
  6
Continuous
100
AcDbLine
 10
420.587355
 20
341.140867
 30
0.0
 11
497.587355
 21
341.140867
 31
0.0
  0
LINE
  5
40E
330
1D
100
AcDbEntity
  8
CSLAYER1
  6
Continuous
100
AcDbLine
 10
496.587355
 20
341.140867
 30
0.0
 11
496.587355
 21
330.540867
 31
0.0
  0
LINE
  5
40F
330
1D
100
AcDbEntity
  8
CSLAYER1
  6
Continuous
100
AcDbLine
 10
496.587355
 20
331.746901
 30
0.0
 11
498.587355
 21
331.746901
 31
0.0
  0
LINE
  5
410
330
1D
100
AcDbEntity
  8
CSLAYER1
  6
Continuous
100
AcDbLine
 10
498.587355
 20
331.746901
 30
0.0
 11
498.587355
 21
340.140867
 31
0.0
  0
ARC
  5
411
330
1D
100
AcDbEntity
  8
CSLAYER1
  6
Continuous
100
AcDbCircle
 10
497.587355
 20
340.140867
 30
0.0
 40
1.0
100
AcDbArc
 50
0.0
 51
90.0
  0
LINE
  5
412
330
1D
100
AcDbEntity
  8
CSLAYER1
  6
Continuous
100
AcDbLine
 10
489.587355
 20
335.540867
 30
0.0
 11
489.587355
 21
333.040867
 31
0.0
  0
LINE
  5
413
330
1D
100
AcDbEntity
  8
CSLAYER1
  6
Continuous
100
AcDbLine
 10
489.587355
 20
333.040867
 30
0.0
 11
464.587355
 21
333.040867
 31
0.0
  0
LINE
  5
414
330
1D
100
AcDbEntity
  8
CSLAYER1
  6
Continuous
100
AcDbLine
 10
464.587355
 20
333.040867
 30
0.0
 11
464.587355
 21
335.540867
 31
0.0
  0
LINE
  5
415
330
1D
100
AcDbEntity
  8
CSLAYER1
  6
Continuous
100
AcDbLine
 10
464.587355
 20
335.540867
 30
0.0
 11
489.587355
 21
335.540867
 31
0.0
  0
LINE
  5
416
330
1D
100
AcDbEntity
  8
CSLAYER1
  6
Continuous
100
AcDbLine
 10
485.587355
 20
335.540867
 30
0.0
 11
485.587355
 21
333.040867
 31
0.0
  0
LINE
  5
417
102
{ACAD_REACTORS
330
FA2
102
}
330
1D
100
AcDbEntity
  8
CSLAYER1
  6
Continuous
100
AcDbLine
 10
508.587355
 20
330.540867
 30
0.0
 11
508.587355
 21
205.140867
 31
0.0
  0
LINE
  5
418
330
1D
100
AcDbEntity
  8
CSLAYER1
  6
Continuous
100
AcDbLine
 10
508.587355
 20
205.140867
 30
0.0
 11
420.587355
 21
205.140867
 31
0.0
  0
LINE
  5
419
330
1D
100
AcDbEntity
  8
CSLAYER1
  6
Continuous
100
AcDbLine
 10
414.587355
 20
236.140867
 30
0.0
 11
401.587355
 21
236.140867
 31
0.0
  0
LINE
  5
41A
330
1D
100
AcDbEntity
  8
CSLAYER1
  6
Continuous
100
AcDbLine
 10
401.587355
 20
236.140867
 30
0.0
 11
401.587355
 21
245.140867
 31
0.0
  0
LINE
  5
41B
330
1D
100
AcDbEntity
  8
CSLAYER1
  6
Continuous
100
AcDbLine
 10
401.587355
 20
245.140867
 30
0.0
 11
414.587355
 21
245.140867
 31
0.0
  0
LINE
  5
41C
330
1D
100
AcDbEntity
  8
CSLAYER1
  6
Continuous
100
AcDbLine
 10
414.587355
 20
251.140867
 30
0.0
 11
401.587355
 21
251.140867
 31
0.0
  0
LINE
  5
41D
330
1D
100
AcDbEntity
  8
CSLAYER1
  6
Continuous
100
AcDbLine
 10
401.587355
 20
251.140867
 30
0.0
 11
401.587355
 21
260.140867
 31
0.0
  0
LINE
  5
41E
330
1D
100
AcDbEntity
  8
CSLAYER1
  6
Continuous
100
AcDbLine
 10
401.587355
 20
260.140867
 30
0.0
 11
414.587355
 21
260.140867
 31
0.0
  0
LINE
  5
41F
330
1D
100
AcDbEntity
  8
CSLAYER1
  6
Continuous
100
AcDbLine
 10
414.587355
 20
267.640867
 30
0.0
 11
404.087355
 21
267.640867
 31
0.0
  0
LINE
  5
420
330
1D
100
AcDbEntity
  8
CSLAYER1
  6
Continuous
100
AcDbLine
 10
404.087355
 20
267.640867
 30
0.0
 11
404.087355
 21
272.640867
 31
0.0
  0
LINE
  5
421
330
1D
100
AcDbEntity
  8
CSLAYER1
  6
Continuous
100
AcDbLine
 10
404.087355
 20
272.640867
 30
0.0
 11
414.587355
 21
272.640867
 31
0.0
  0
LINE
  5
422
330
1D
100
AcDbEntity
  8
CSLAYER1
  6
Continuous
100
AcDbLine
 10
403.587355
 20
251.140867
 30
0.0
 11
403.587355
 21
245.140867
 31
0.0
  0
LINE
  5
423
330
1D
100
AcDbEntity
  8
CSLAYER1
  6
Continuous
100
AcDbLine
 10
339.587355
 20
250.140867
 30
0.0
 11
339.587355
 21
206.140867
 31
0.0
  0
ARC
  5
424
330
1D
100
AcDbEntity
  8
CSLAYER1
  6
Continuous
100
AcDbCircle
 10
338.587355
 20
206.140867
 30
0.0
 40
1.0
100
AcDbArc
 50
284.399257
 51
0.0
  0
LINE
  5
425
330
1D
100
AcDbEntity
  8
CSLAYER1
  6
Continuous
100
AcDbLine
 10
314.83867
 20
202.140867
 30
0.0
 11
305.587355
 21
202.140867
 31
0.0
  0
LINE
  5
426
330
1D
100
AcDbEntity
  8
CSLAYER1
  6
Continuous
100
AcDbLine
 10
300.587355
 20
207.140867
 30
0.0
 11
300.587355
 21
249.140867
 31
0.0
  0
LINE
  5
427
330
1D
100
AcDbEntity
  8
CSLAYER1
  6
Continuous
100
AcDbLine
 10
300.587355
 20
249.140867
 30
0.0
 11
298.287355
 21
245.640867
 31
0.0
  0
LINE
  5
428
330
1D
100
AcDbEntity
  8
CSLAYER1
  6
Continuous
100
AcDbLine
 10
298.287355
 20
245.640867
 30
0.0
 11
300.587355
 21
249.122639
 31
0.0
  0
LINE
  5
429
330
1D
100
AcDbEntity
  8
CSLAYER1
  6
Continuous
100
AcDbLine
 10
298.287355
 20
245.640867
 30
0.0
 11
298.287355
 21
210.640867
 31
0.0
  0
LINE
  5
42A
330
1D
100
AcDbEntity
  8
CSLAYER1
  6
Continuous
100
AcDbLine
 10
298.287355
 20
210.640867
 30
0.0
 11
300.587355
 21
207.159095
 31
0.0
  0
LINE
  5
42B
330
1D
100
AcDbEntity
  8
CSLAYER1
  6
Continuous
100
AcDbLine
 10
300.587355
 20
207.140867
 30
0.0
 11
298.287355
 21
210.640867
 31
0.0
  0
LINE
  5
42C
330
1D
100
AcDbEntity
  8
CSLAYER1
  6
Continuous
100
AcDbLine
 10
298.287355
 20
213.140867
 30
0.0
 11
286.087355
 21
212.640867
 31
0.0
  0
LINE
  5
42D
330
1D
100
AcDbEntity
  8
CSLAYER1
  6
Continuous
100
AcDbLine
 10
286.087355
 20
210.490867
 30
0.0
 11
283.587355
 21
210.490867
 31
0.0
  0
ARC
  5
42E
330
1D
100
AcDbEntity
  8
CSLAYER1
  6
Continuous
100
AcDbCircle
 10
283.587355
 20
207.490867
 30
0.0
 40
3.0
100
AcDbArc
 50
90.0
 51
180.0
  0
ARC
  5
42F
330
1D
100
AcDbEntity
  8
CSLAYER1
  6
Continuous
100
AcDbCircle
 10
285.687355
 20
210.890867
 30
0.0
 40
0.4
100
AcDbArc
 50
270.0
 51
0.0
  0
LINE
  5
430
330
1D
100
AcDbEntity
  8
CSLAYER1
  6
Continuous
100
AcDbLine
 10
286.087355
 20
210.490867
 30
0.0
 11
286.087355
 21
245.390867
 31
0.0
  0
ARC
  5
431
330
1D
100
AcDbEntity
  8
CSLAYER1
  6
Continuous
100
AcDbCircle
 10
285.687355
 20
245.390867
 30
0.0
 40
0.4
100
AcDbArc
 50
0.0
 51
90.0
  0
LINE
  5
432
330
1D
100
AcDbEntity
  8
CSLAYER1
  6
Continuous
100
AcDbLine
 10
285.687355
 20
245.790867
 30
0.0
 11
283.587355
 21
245.790867
 31
0.0
  0
LINE
  5
433
330
1D
100
AcDbEntity
  8
CSLAYER1
  6
Continuous
100
AcDbLine
 10
286.087355
 20
243.640867
 30
0.0
 11
298.287355
 21
243.140867
 31
0.0
  0
LINE
  5
434
330
1D
100
AcDbEntity
  8
CSLAYER1
  6
Continuous
100
AcDbLine
 10
305.587355
 20
254.140867
 30
0.0
 11
314.83867
 21
254.140867
 31
0.0
  0
ARC
  5
435
330
1D
100
AcDbEntity
  8
CSLAYER1
  6
Continuous
100
AcDbCircle
 10
305.587355
 20
249.140867
 30
0.0
 40
5.0
100
AcDbArc
 50
90.0
 51
180.0
  0
ARC
  5
436
330
1D
100
AcDbEntity
  8
CSLAYER1
  6
Continuous
100
AcDbCircle
 10
230.690385
 20
245.487747
 30
0.0
 40
50.0
100
AcDbArc
 50
3.573162
 51
23.468722
  0
ARC
  5
437
330
1D
100
AcDbEntity
  8
CSLAYER1
  6
Continuous
100
AcDbCircle
 10
276.187355
 20
265.240867
 30
0.0
 40
0.4
100
AcDbArc
 50
0.0
 51
90.0
  0
LINE
  5
438
330
1D
100
AcDbEntity
  8
CSLAYER1
  6
Continuous
100
AcDbLine
 10
276.087355
 20
265.640867
 30
0.0
 11
270.087355
 21
265.640867
 31
0.0
  0
ARC
  5
439
330
1D
100
AcDbEntity
  8
CSLAYER1
  6
Continuous
100
AcDbCircle
 10
270.087355
 20
265.140867
 30
0.0
 40
0.5
100
AcDbArc
 50
90.0
 51
180.0
  0
LINE
  5
43A
330
1D
100
AcDbEntity
  8
CSLAYER1
  6
Continuous
100
AcDbLine
 10
269.587355
 20
265.140867
 30
0.0
 11
269.587355
 21
191.140867
 31
0.0
  0
ARC
  5
43B
330
1D
100
AcDbEntity
  8
CSLAYER1
  6
Continuous
100
AcDbCircle
 10
270.087355
 20
191.140867
 30
0.0
 40
0.5
100
AcDbArc
 50
180.0
 51
270.0
  0
LINE
  5
43C
330
1D
100
AcDbEntity
  8
CSLAYER1
  6
Continuous
100
AcDbLine
 10
270.087355
 20
190.640867
 30
0.0
 11
276.087355
 21
190.640867
 31
0.0
  0
ARC
  5
43D
330
1D
100
AcDbEntity
  8
CSLAYER1
  6
Continuous
100
AcDbCircle
 10
276.087355
 20
191.140867
 30
0.0
 40
0.5
100
AcDbArc
 50
270.0
 51
0.0
  0
LINE
  5
43E
330
1D
100
AcDbEntity
  8
CSLAYER1
  6
Continuous
100
AcDbLine
 10
276.587355
 20
191.140867
 30
0.0
 11
276.587355
 21
265.140867
 31
0.0
  0
ARC
  5
43F
330
1D
100
AcDbEntity
  8
CSLAYER1
  6
Continuous
100
AcDbCircle
 10
276.087355
 20
265.140867
 30
0.0
 40
0.5
100
AcDbArc
 50
0.0
 51
90.0
  0
ARC
  5
440
330
1D
100
AcDbEntity
  8
CSLAYER1
  6
Continuous
100
AcDbCircle
 10
283.587355
 20
248.790867
 30
0.0
 40
3.0
100
AcDbArc
 50
180.0
 51
270.0
  0
LINE
  5
441
330
1D
100
AcDbEntity
  8
CSLAYER1
  6
Continuous
100
AcDbLine
 10
258.587355
 20
245.140867
 30
0.0
 11
240.587355
 21
245.140867
 31
0.0
  0
LINE
  5
442
330
1D
100
AcDbEntity
  8
CSLAYER1
  6
Continuous
100
AcDbLine
 10
240.587355
 20
245.140867
 30
0.0
 11
240.587355
 21
251.140867
 31
0.0
  0
LINE
  5
443
330
1D
100
AcDbEntity
  8
CSLAYER1
  6
Continuous
100
AcDbLine
 10
240.587355
 20
251.140867
 30
0.0
 11
258.587355
 21
251.140867
 31
0.0
  0
LINE
  5
444
330
1D
100
AcDbEntity
  8
CSLAYER1
  6
Continuous
100
AcDbLine
 10
258.587355
 20
251.140867
 30
0.0
 11
258.587355
 21
245.140867
 31
0.0
  0
LINE
  5
445
330
1D
100
AcDbEntity
  8
CSLAYER1
  6
Continuous
100
AcDbLine
 10
256.587355
 20
245.140867
 30
0.0
 11
256.587355
 21
236.140867
 31
0.0
  0
LINE
  5
446
330
1D
100
AcDbEntity
  8
CSLAYER1
  6
Continuous
100
AcDbLine
 10
256.587355
 20
236.140867
 30
0.0
 11
242.587355
 21
236.140867
 31
0.0
  0
LINE
  5
447
330
1D
100
AcDbEntity
  8
CSLAYER1
  6
Continuous
100
AcDbLine
 10
242.587355
 20
236.140867
 30
0.0
 11
242.587355
 21
245.140867
 31
0.0
  0
LINE
  5
448
330
1D
100
AcDbEntity
  8
CSLAYER1
  6
Continuous
100
AcDbLine
 10
245.440355
 20
246.140867
 30
0.0
 11
245.440355
 21
250.140867
 31
0.0
  0
LINE
  5
449
330
1D
100
AcDbEntity
  8
CSLAYER1
  6
Continuous
100
AcDbLine
 10
242.587355
 20
251.140867
 30
0.0
 11
242.587355
 21
260.140867
 31
0.0
  0
LINE
  5
44A
330
1D
100
AcDbEntity
  8
CSLAYER1
  6
Continuous
100
AcDbLine
 10
242.587355
 20
260.140867
 30
0.0
 11
256.587355
 21
260.140867
 31
0.0
  0
LINE
  5
44B
330
1D
100
AcDbEntity
  8
CSLAYER1
  6
Continuous
100
AcDbLine
 10
256.587355
 20
260.140867
 30
0.0
 11
256.587355
 21
251.140867
 31
0.0
  0
LINE
  5
44C
330
1D
100
AcDbEntity
  8
CSLAYER1
  6
Continuous
100
AcDbLine
 10
254.787355
 20
251.140867
 30
0.0
 11
254.787355
 21
260.140867
 31
0.0
  0
LINE
  5
44D
330
1D
100
AcDbEntity
  8
CSLAYER1
  6
Continuous
100
AcDbLine
 10
258.087355
 20
267.640867
 30
0.0
 11
241.087355
 21
267.640867
 31
0.0
  0
LINE
  5
44E
330
1D
100
AcDbEntity
  8
CSLAYER1
  6
Continuous
100
AcDbLine
 10
241.087355
 20
267.640867
 30
0.0
 11
241.087355
 21
272.640867
 31
0.0
  0
LINE
  5
44F
330
1D
100
AcDbEntity
  8
CSLAYER1
  6
Continuous
100
AcDbLine
 10
241.087355
 20
272.640867
 30
0.0
 11
258.087355
 21
272.640867
 31
0.0
  0
LINE
  5
450
330
1D
100
AcDbEntity
  8
CSLAYER1
  6
Continuous
100
AcDbLine
 10
258.087355
 20
272.640867
 30
0.0
 11
258.087355
 21
267.640867
 31
0.0
  0
LINE
  5
451
330
1D
100
AcDbEntity
  8
CSLAYER1
  6
Continuous
100
AcDbLine
 10
249.587355
 20
267.640867
 30
0.0
 11
249.587355
 21
272.640867
 31
0.0
  0
LINE
  5
452
330
1D
100
AcDbEntity
  8
CSLAYER1
  6
Continuous
100
AcDbLine
 10
243.587355
 20
277.140867
 30
0.0
 11
255.587355
 21
277.140867
 31
0.0
  0
LINE
  5
453
330
1D
100
AcDbEntity
  8
CSLAYER1
  6
Continuous
100
AcDbLine
 10
255.587355
 20
277.140867
 30
0.0
 11
255.587355
 21
307.140867
 31
0.0
  0
LINE
  5
454
330
1D
100
AcDbEntity
  8
CSLAYER1
  6
Continuous
100
AcDbLine
 10
255.587355
 20
307.140867
 30
0.0
 11
243.587355
 21
307.140867
 31
0.0
  0
LINE
  5
455
330
1D
100
AcDbEntity
  8
CSLAYER1
  6
Continuous
100
AcDbLine
 10
243.587355
 20
307.140867
 30
0.0
 11
243.587355
 21
277.140867
 31
0.0
  0
LINE
  5
456
330
1D
100
AcDbEntity
  8
CSLAYER1
  6
Continuous
100
AcDbLine
 10
221.587355
 20
265.640867
 30
0.0
 11
219.087355
 21
265.640867
 31
0.0
  0
ARC
  5
457
330
1D
100
AcDbEntity
  8
CSLAYER1
  6
Continuous
100
AcDbCircle
 10
219.087355
 20
265.140867
 30
0.0
 40
0.5
100
AcDbArc
 50
90.0
 51
180.0
  0
LINE
  5
458
330
1D
100
AcDbEntity
  8
CSLAYER1
  6
Continuous
100
AcDbLine
 10
218.587355
 20
265.140867
 30
0.0
 11
218.587355
 21
191.140867
 31
0.0
  0
ARC
  5
459
330
1D
100
AcDbEntity
  8
CSLAYER1
  6
Continuous
100
AcDbCircle
 10
219.087355
 20
191.140867
 30
0.0
 40
0.5
100
AcDbArc
 50
180.0
 51
270.0
  0
LINE
  5
45A
330
1D
100
AcDbEntity
  8
CSLAYER1
  6
Continuous
100
AcDbLine
 10
219.087355
 20
190.640867
 30
0.0
 11
221.587355
 21
190.640867
 31
0.0
  0
ARC
  5
45B
330
1D
100
AcDbEntity
  8
CSLAYER1
  6
Continuous
100
AcDbCircle
 10
218.987355
 20
191.040867
 30
0.0
 40
0.4
100
AcDbArc
 50
180.0
 51
270.0
  0
LINE
  5
45C
330
1D
100
AcDbEntity
  8
CSLAYER1
  6
Continuous
100
AcDbLine
 10
221.587355
 20
183.140867
 30
0.0
 11
229.587355
 21
180.140867
 31
0.0
  0
LINE
  5
45D
330
1D
100
AcDbEntity
  8
CSLAYER1
  6
Continuous
100
AcDbLine
 10
229.587355
 20
180.140867
 30
0.0
 11
229.587355
 21
348.140867
 31
0.0
  0
LINE
  5
45E
330
1D
100
AcDbEntity
  8
CSLAYER1
  6
Continuous
100
AcDbLine
 10
229.587355
 20
348.140867
 30
0.0
 11
221.587355
 21
345.140867
 31
0.0
  0
LINE
  5
45F
330
1D
100
AcDbEntity
  8
CSLAYER1
  6
Continuous
100
AcDbLine
 10
221.587355
 20
345.140867
 30
0.0
 11
221.587355
 21
183.140867
 31
0.0
  0
LINE
  5
460
330
1D
100
AcDbEntity
  8
CSLAYER1
  6
Continuous
100
AcDbLine
 10
236.587355
 20
174.640867
 30
0.0
 11
262.587355
 21
174.640867
 31
0.0
  0
LINE
  5
461
330
1D
100
AcDbEntity
  8
CSLAYER1
  6
Continuous
100
AcDbLine
 10
262.587355
 20
174.640867
 30
0.0
 11
262.587355
 21
371.640867
 31
0.0
  0
LINE
  5
462
330
1D
100
AcDbEntity
  8
CSLAYER1
  6
Continuous
100
AcDbLine
 10
262.587355
 20
371.640867
 30
0.0
 11
236.587355
 21
371.640867
 31
0.0
  0
LINE
  5
463
330
1D
100
AcDbEntity
  8
CSLAYER1
  6
Continuous
100
AcDbLine
 10
236.587355
 20
371.640867
 30
0.0
 11
236.587355
 21
174.640867
 31
0.0
  0
LINE
  5
464
330
1D
100
AcDbEntity
  8
CSLAYER1
  6
Continuous
100
AcDbLine
 10
248.385273
 20
197.231679
 30
0.0
 11
247.678166
 21
197.938785
 31
0.0
  0
LINE
  5
465
330
1D
100
AcDbEntity
  8
CSLAYER1
  6
Continuous
100
AcDbLine
 10
247.678166
 20
197.938785
 30
0.0
 11
248.385273
 21
198.645892
 31
0.0
  0
ARC
  5
466
330
1D
100
AcDbEntity
  8
CSLAYER1
  6
Continuous
100
AcDbCircle
 10
247.890298
 20
199.140867
 30
0.0
 40
0.7
100
AcDbArc
 50
315.0
 51
45.0
  0
LINE
  5
467
330
1D
100
AcDbEntity
  8
CSLAYER1
  6
Continuous
100
AcDbLine
 10
248.385273
 20
199.635842
 30
0.0
 11
247.678166
 21
200.342948
 31
0.0
  0
LINE
  5
468
330
1D
100
AcDbEntity
  8
CSLAYER1
  6
Continuous
100
AcDbLine
 10
247.678166
 20
200.342948
 30
0.0
 11
248.385273
 21
201.050055
 31
0.0
  0
LINE
  5
469
330
1D
100
AcDbEntity
  8
CSLAYER1
  6
Continuous
100
AcDbLine
 10
248.385273
 20
201.050055
 30
0.0
 11
249.09238
 21
200.342948
 31
0.0
  0
ARC
  5
46A
330
1D
100
AcDbEntity
  8
CSLAYER1
  6
Continuous
100
AcDbCircle
 10
249.587355
 20
200.837923
 30
0.0
 40
0.7
100
AcDbArc
 50
225.0
 51
315.0
  0
LINE
  5
46B
330
1D
100
AcDbEntity
  8
CSLAYER1
  6
Continuous
100
AcDbLine
 10
250.082329
 20
200.342948
 30
0.0
 11
250.789436
 21
201.050055
 31
0.0
  0
LINE
  5
46C
330
1D
100
AcDbEntity
  8
CSLAYER1
  6
Continuous
100
AcDbLine
 10
250.789436
 20
201.050055
 30
0.0
 11
251.496543
 21
200.342948
 31
0.0
  0
LINE
  5
46D
330
1D
100
AcDbEntity
  8
CSLAYER1
  6
Continuous
100
AcDbLine
 10
251.496543
 20
200.342948
 30
0.0
 11
250.789436
 21
199.635842
 31
0.0
  0
ARC
  5
46E
330
1D
100
AcDbEntity
  8
CSLAYER1
  6
Continuous
100
AcDbCircle
 10
251.284411
 20
199.140867
 30
0.0
 40
0.7
100
AcDbArc
 50
135.0
 51
225.0
  0
LINE
  5
46F
330
1D
100
AcDbEntity
  8
CSLAYER1
  6
Continuous
100
AcDbLine
 10
250.789436
 20
198.645892
 30
0.0
 11
251.496543
 21
197.938785
 31
0.0
  0
LINE
  5
470
330
1D
100
AcDbEntity
  8
CSLAYER1
  6
Continuous
100
AcDbLine
 10
251.496543
 20
197.938785
 30
0.0
 11
250.789436
 21
197.231679
 31
0.0
  0
LINE
  5
471
330
1D
100
AcDbEntity
  8
CSLAYER1
  6
Continuous
100
AcDbLine
 10
250.789436
 20
197.231679
 30
0.0
 11
250.082329
 21
197.938785
 31
0.0
  0
ARC
  5
472
330
1D
100
AcDbEntity
  8
CSLAYER1
  6
Continuous
100
AcDbCircle
 10
249.587355
 20
197.443811
 30
0.0
 40
0.7
100
AcDbArc
 50
45.0
 51
135.0
  0
LINE
  5
473
330
1D
100
AcDbEntity
  8
CSLAYER1
  6
Continuous
100
AcDbLine
 10
249.09238
 20
197.938785
 30
0.0
 11
248.385273
 21
197.231679
 31
0.0
  0
CIRCLE
  5
474
330
1D
100
AcDbEntity
  8
CSLAYER1
  6
Continuous
100
AcDbCircle
 10
249.587355
 20
199.140867
 30
0.0
 40
4.25
  0
ARC
  5
475
330
1D
100
AcDbEntity
  8
CSLAYER1
  6
Continuous
100
AcDbCircle
 10
276.187355
 20
191.040867
 30
0.0
 40
0.4
100
AcDbArc
 50
270.0
 51
0.0
  0
ARC
  5
476
330
1D
100
AcDbEntity
  8
CSLAYER1
  6
Continuous
100
AcDbCircle
 10
230.690385
 20
210.793987
 30
0.0
 40
50.0
100
AcDbArc
 50
336.531278
 51
356.426838
  0
ARC
  5
477
330
1D
100
AcDbEntity
  8
CSLAYER1
  6
Continuous
100
AcDbCircle
 10
305.587355
 20
207.140867
 30
0.0
 40
5.0
100
AcDbArc
 50
180.0
 51
270.0
  0
ARC
  5
478
330
1D
100
AcDbEntity
  8
CSLAYER1
  6
Continuous
100
AcDbCircle
 10
314.83867
 20
298.640867
 30
0.0
 40
96.5
100
AcDbArc
 50
270.0
 51
284.399257
  0
ARC
  5
479
330
1D
100
AcDbEntity
  8
CSLAYER1
  6
Continuous
100
AcDbCircle
 10
338.587355
 20
250.140867
 30
0.0
 40
1.0
100
AcDbArc
 50
0.0
 51
75.600743
  0
ARC
  5
47A
330
1D
100
AcDbEntity
  8
CSLAYER1
  6
Continuous
100
AcDbCircle
 10
314.83867
 20
157.640867
 30
0.0
 40
96.5
100
AcDbArc
 50
75.600743
 51
90.0
  0
ARC
  5
47B
330
1D
100
AcDbEntity
  8
CSLAYER1
  6
Continuous
100
AcDbCircle
 10
305.587355
 20
297.662137
 30
0.0
 40
2.0
100
AcDbArc
 50
275.355825
 51
0.0
  0
LINE
  5
47C
330
1D
100
AcDbEntity
  8
CSLAYER1
  6
Continuous
100
AcDbLine
 10
307.587355
 20
297.662137
 30
0.0
 11
307.587355
 21
321.56428
 31
0.0
  0
ARC
  5
47D
330
1D
100
AcDbEntity
  8
CSLAYER1
  6
Continuous
100
AcDbCircle
 10
305.087355
 20
321.56428
 30
0.0
 40
2.5
100
AcDbArc
 50
0.0
 51
84.644175
  0
LINE
  5
47E
330
1D
100
AcDbEntity
  8
CSLAYER1
  6
Continuous
100
AcDbLine
 10
305.320706
 20
324.053365
 30
0.0
 11
291.587355
 21
325.340867
 31
0.0
  0
LINE
  5
47F
330
1D
100
AcDbEntity
  8
CSLAYER1
  6
Continuous
100
AcDbLine
 10
291.587355
 20
325.340867
 30
0.0
 11
291.587355
 21
317.039437
 31
0.0
  0
LINE
  5
480
330
1D
100
AcDbEntity
  8
CSLAYER1
  6
Continuous
100
AcDbLine
 10
289.587355
 20
315.340867
 30
0.0
 11
289.587355
 21
299.340867
 31
0.0
  0
LINE
  5
481
330
1D
100
AcDbEntity
  8
CSLAYER1
  6
Continuous
100
AcDbLine
 10
289.587355
 20
299.340867
 30
0.0
 11
287.587355
 21
299.340867
 31
0.0
  0
LINE
  5
482
330
1D
100
AcDbEntity
  8
CSLAYER1
  6
Continuous
100
AcDbLine
 10
291.587355
 20
297.340867
 30
0.0
 11
291.587355
 21
294.340867
 31
0.0
  0
LINE
  5
483
330
1D
100
AcDbEntity
  8
CSLAYER1
  6
Continuous
100
AcDbLine
 10
291.587355
 20
294.340867
 30
0.0
 11
305.774036
 21
295.670868
 31
0.0
  0
ARC
  5
484
330
1D
100
AcDbEntity
  8
CSLAYER1
  6
Continuous
100
AcDbCircle
 10
289.587355
 20
297.340867
 30
0.0
 40
2.0
100
AcDbArc
 50
0.0
 51
90.0
  0
LINE
  5
485
330
1D
100
AcDbEntity
  8
CSLAYER1
  6
Continuous
100
AcDbLine
 10
287.587355
 20
293.261335
 30
0.0
 11
287.587355
 21
333.091473
 31
0.0
  0
ARC
  5
486
330
1D
100
AcDbEntity
  8
CSLAYER1
  6
Continuous
100
AcDbCircle
 10
286.887355
 20
333.091473
 30
0.0
 40
0.7
100
AcDbArc
 50
0.0
 51
79.878402
  0
LINE
  5
487
330
1D
100
AcDbEntity
  8
CSLAYER1
  6
Continuous
100
AcDbLine
 10
287.010371
 20
333.780578
 30
0.0
 11
269.587355
 21
336.890867
 31
0.0
  0
LINE
  5
488
330
1D
100
AcDbEntity
  8
CSLAYER1
  6
Continuous
100
AcDbLine
 10
269.587355
 20
336.890867
 30
0.0
 11
269.587355
 21
289.390867
 31
0.0
  0
LINE
  5
489
330
1D
100
AcDbEntity
  8
CSLAYER1
  6
Continuous
100
AcDbLine
 10
269.587355
 20
289.390867
 30
0.0
 11
287.013092
 21
292.57272
 31
0.0
  0
ARC
  5
48A
330
1D
100
AcDbEntity
  8
CSLAYER1
  6
Continuous
100
AcDbCircle
 10
286.887355
 20
293.261335
 30
0.0
 40
0.7
100
AcDbArc
 50
280.347927
 51
0.0
  0
LINE
  5
48B
330
1D
100
AcDbEntity
  8
CSLAYER1
  6
Continuous
100
AcDbLine
 10
287.587355
 20
315.340867
 30
0.0
 11
289.587355
 21
315.340867
 31
0.0
  0
ARC
  5
48C
330
1D
100
AcDbEntity
  8
CSLAYER1
  6
Continuous
100
AcDbCircle
 10
289.587355
 20
317.340867
 30
0.0
 40
2.0
100
AcDbArc
 50
270.0
 51
0.0
  0
CIRCLE
  5
48D
330
1D
100
AcDbEntity
  8
CSLAYER1
  6
Continuous
100
AcDbCircle
 10
249.587355
 20
347.140867
 30
0.0
 40
4.25
  0
LINE
  5
48E
330
1D
100
AcDbEntity
  8
CSLAYER1
  6
Continuous
100
AcDbLine
 10
251.496543
 20
348.342948
 30
0.0
 11
250.789436
 21
349.050055
 31
0.0
  0
LINE
  5
48F
330
1D
100
AcDbEntity
  8
CSLAYER1
  6
Continuous
100
AcDbLine
 10
250.789436
 20
349.050055
 30
0.0
 11
250.082329
 21
348.342948
 31
0.0
  0
ARC
  5
490
330
1D
100
AcDbEntity
  8
CSLAYER1
  6
Continuous
100
AcDbCircle
 10
249.587355
 20
348.837923
 30
0.0
 40
0.7
100
AcDbArc
 50
225.0
 51
315.0
  0
LINE
  5
491
330
1D
100
AcDbEntity
  8
CSLAYER1
  6
Continuous
100
AcDbLine
 10
249.09238
 20
348.342948
 30
0.0
 11
248.385273
 21
349.050055
 31
0.0
  0
LINE
  5
492
330
1D
100
AcDbEntity
  8
CSLAYER1
  6
Continuous
100
AcDbLine
 10
248.385273
 20
349.050055
 30
0.0
 11
247.678166
 21
348.342948
 31
0.0
  0
LINE
  5
493
330
1D
100
AcDbEntity
  8
CSLAYER1
  6
Continuous
100
AcDbLine
 10
247.678166
 20
348.342948
 30
0.0
 11
248.385273
 21
347.635842
 31
0.0
  0
ARC
  5
494
330
1D
100
AcDbEntity
  8
CSLAYER1
  6
Continuous
100
AcDbCircle
 10
247.890298
 20
347.140867
 30
0.0
 40
0.7
100
AcDbArc
 50
315.0
 51
45.0
  0
LINE
  5
495
330
1D
100
AcDbEntity
  8
CSLAYER1
  6
Continuous
100
AcDbLine
 10
248.385273
 20
346.645892
 30
0.0
 11
247.678166
 21
345.938785
 31
0.0
  0
LINE
  5
496
330
1D
100
AcDbEntity
  8
CSLAYER1
  6
Continuous
100
AcDbLine
 10
247.678166
 20
345.938785
 30
0.0
 11
248.385273
 21
345.231679
 31
0.0
  0
LINE
  5
497
330
1D
100
AcDbEntity
  8
CSLAYER1
  6
Continuous
100
AcDbLine
 10
248.385273
 20
345.231679
 30
0.0
 11
249.09238
 21
345.938785
 31
0.0
  0
ARC
  5
498
330
1D
100
AcDbEntity
  8
CSLAYER1
  6
Continuous
100
AcDbCircle
 10
249.587355
 20
345.443811
 30
0.0
 40
0.7
100
AcDbArc
 50
45.0
 51
135.0
  0
LINE
  5
499
330
1D
100
AcDbEntity
  8
CSLAYER1
  6
Continuous
100
AcDbLine
 10
250.082329
 20
345.938785
 30
0.0
 11
250.789436
 21
345.231679
 31
0.0
  0
LINE
  5
49A
330
1D
100
AcDbEntity
  8
CSLAYER1
  6
Continuous
100
AcDbLine
 10
250.789436
 20
345.231679
 30
0.0
 11
251.496543
 21
345.938785
 31
0.0
  0
LINE
  5
49B
330
1D
100
AcDbEntity
  8
CSLAYER1
  6
Continuous
100
AcDbLine
 10
251.496543
 20
345.938785
 30
0.0
 11
250.789436
 21
346.645892
 31
0.0
  0
LINE
  5
49C
330
1D
100
AcDbEntity
  8
CSLAYER1
  6
Continuous
100
AcDbLine
 10
250.789436
 20
347.635842
 30
0.0
 11
251.496543
 21
348.342948
 31
0.0
  0
ARC
  5
49D
330
1D
100
AcDbEntity
  8
CSLAYER1
  6
Continuous
100
AcDbCircle
 10
251.284411
 20
347.140867
 30
0.0
 40
0.7
100
AcDbArc
 50
135.0
 51
225.0
  0
LINE
  5
49E
330
1D
100
AcDbEntity
  8
CSLAYER1
  6
Continuous
100
AcDbLine
 10
221.587355
 20
336.890867
 30
0.0
 11
203.666236
 21
333.742562
 31
0.0
  0
ARC
  5
49F
330
1D
100
AcDbEntity
  8
CSLAYER1
  6
Continuous
100
AcDbCircle
 10
203.787355
 20
333.05312
 30
0.0
 40
0.7
100
AcDbArc
 50
99.963804
 51
180.0
  0
LINE
  5
4A0
330
1D
100
AcDbEntity
  8
CSLAYER1
  6
Continuous
100
AcDbLine
 10
203.087355
 20
333.05312
 30
0.0
 11
203.087355
 21
293.228614
 31
0.0
  0
ARC
  5
4A1
330
1D
100
AcDbEntity
  8
CSLAYER1
  6
Continuous
100
AcDbCircle
 10
203.787355
 20
293.228614
 30
0.0
 40
0.7
100
AcDbArc
 50
180.0
 51
260.036196
  0
LINE
  5
4A2
330
1D
100
AcDbEntity
  8
CSLAYER1
  6
Continuous
100
AcDbLine
 10
203.666236
 20
292.539171
 30
0.0
 11
221.587355
 21
289.390867
 31
0.0
  0
LINE
  5
4A3
330
1D
100
AcDbEntity
  8
CSLAYER1
  6
Continuous
100
AcDbLine
 10
203.087355
 20
300.190867
 30
0.0
 11
202.587355
 21
300.190867
 31
0.0
  0
LINE
  5
4A4
330
1D
100
AcDbEntity
  8
CSLAYER1
  6
Continuous
100
AcDbLine
 10
202.587355
 20
300.190867
 30
0.0
 11
201.087355
 21
301.690867
 31
0.0
  0
LINE
  5
4A5
330
1D
100
AcDbEntity
  8
CSLAYER1
  6
Continuous
100
AcDbLine
 10
201.087355
 20
301.690867
 30
0.0
 11
201.087355
 21
312.990867
 31
0.0
  0
LINE
  5
4A6
330
1D
100
AcDbEntity
  8
CSLAYER1
  6
Continuous
100
AcDbLine
 10
201.087355
 20
312.990867
 30
0.0
 11
202.587355
 21
314.490867
 31
0.0
  0
LINE
  5
4A7
330
1D
100
AcDbEntity
  8
CSLAYER1
  6
Continuous
100
AcDbLine
 10
202.587355
 20
314.490867
 30
0.0
 11
203.087355
 21
314.490867
 31
0.0
  0
LINE
  5
4A8
330
1D
100
AcDbEntity
  8
CSLAYER1
  6
Continuous
100
AcDbLine
 10
202.587355
 20
314.490867
 30
0.0
 11
202.587355
 21
300.190867
 31
0.0
  0
ARC
  5
4A9
330
1D
100
AcDbEntity
  8
CSLAYER1
  6
Continuous
100
AcDbCircle
 10
264.484324
 20
245.487747
 30
0.0
 40
50.0
100
AcDbArc
 50
156.531278
 51
176.426838
  0
LINE
  5
4AA
330
1D
100
AcDbEntity
  8
CSLAYER1
  6
Continuous
100
AcDbLine
 10
211.587355
 20
245.790867
 30
0.0
 11
209.487355
 21
245.790867
 31
0.0
  0
ARC
  5
4AB
330
1D
100
AcDbEntity
  8
CSLAYER1
  6
Continuous
100
AcDbCircle
 10
209.487355
 20
245.390867
 30
0.0
 40
0.4
100
AcDbArc
 50
90.0
 51
180.0
  0
LINE
  5
4AC
330
1D
100
AcDbEntity
  8
CSLAYER1
  6
Continuous
100
AcDbLine
 10
209.087355
 20
245.390867
 30
0.0
 11
209.087355
 21
210.490867
 31
0.0
  0
LINE
  5
4AD
330
1D
100
AcDbEntity
  8
CSLAYER1
  6
Continuous
100
AcDbLine
 10
209.087355
 20
210.490867
 30
0.0
 11
211.587355
 21
210.490867
 31
0.0
  0
ARC
  5
4AE
330
1D
100
AcDbEntity
  8
CSLAYER1
  6
Continuous
100
AcDbCircle
 10
209.487355
 20
210.890867
 30
0.0
 40
0.4
100
AcDbArc
 50
180.0
 51
270.0
  0
LINE
  5
4AF
330
1D
100
AcDbEntity
  8
CSLAYER1
  6
Continuous
100
AcDbLine
 10
209.087355
 20
212.640867
 30
0.0
 11
196.887355
 21
213.140867
 31
0.0
  0
LINE
  5
4B0
330
1D
100
AcDbEntity
  8
CSLAYER1
  6
Continuous
100
AcDbLine
 10
196.887355
 20
210.640867
 30
0.0
 11
194.587355
 21
207.140867
 31
0.0
  0
LINE
  5
4B1
330
1D
100
AcDbEntity
  8
CSLAYER1
  6
Continuous
100
AcDbLine
 10
194.587355
 20
207.140867
 30
0.0
 11
194.587355
 21
249.140867
 31
0.0
  0
ARC
  5
4B2
330
1D
100
AcDbEntity
  8
CSLAYER1
  6
Continuous
100
AcDbCircle
 10
189.587355
 20
249.140867
 30
0.0
 40
5.0
100
AcDbArc
 50
0.0
 51
90.0
  0
LINE
  5
4B3
330
1D
100
AcDbEntity
  8
CSLAYER1
  6
Continuous
100
AcDbLine
 10
189.587355
 20
254.140867
 30
0.0
 11
180.336039
 21
254.140867
 31
0.0
  0
ARC
  5
4B4
330
1D
100
AcDbEntity
  8
CSLAYER1
  6
Continuous
100
AcDbCircle
 10
180.336039
 20
157.640867
 30
0.0
 40
96.5
100
AcDbArc
 50
90.0
 51
104.399257
  0
ARC
  5
4B5
330
1D
100
AcDbEntity
  8
CSLAYER1
  6
Continuous
100
AcDbCircle
 10
156.587355
 20
250.140867
 30
0.0
 40
1.0
100
AcDbArc
 50
104.399257
 51
180.0
  0
LINE
  5
4B6
330
1D
100
AcDbEntity
  8
CSLAYER1
  6
Continuous
100
AcDbLine
 10
155.587355
 20
250.140867
 30
0.0
 11
155.587355
 21
206.140867
 31
0.0
  0
ARC
  5
4B7
330
1D
100
AcDbEntity
  8
CSLAYER1
  6
Continuous
100
AcDbCircle
 10
156.587355
 20
206.140867
 30
0.0
 40
1.0
100
AcDbArc
 50
180.0
 51
255.600743
  0
ARC
  5
4B8
330
1D
100
AcDbEntity
  8
CSLAYER1
  6
Continuous
100
AcDbCircle
 10
180.336039
 20
298.640867
 30
0.0
 40
96.5
100
AcDbArc
 50
255.600743
 51
270.0
  0
LINE
  5
4B9
330
1D
100
AcDbEntity
  8
CSLAYER1
  6
Continuous
100
AcDbLine
 10
180.336039
 20
202.140867
 30
0.0
 11
189.587355
 21
202.140867
 31
0.0
  0
ARC
  5
4BA
330
1D
100
AcDbEntity
  8
CSLAYER1
  6
Continuous
100
AcDbCircle
 10
189.587355
 20
207.140867
 30
0.0
 40
5.0
100
AcDbArc
 50
270.0
 51
0.0
  0
LINE
  5
4BB
330
1D
100
AcDbEntity
  8
CSLAYER1
  6
Continuous
100
AcDbLine
 10
194.587355
 20
207.159095
 30
0.0
 11
196.887355
 21
210.640867
 31
0.0
  0
LINE
  5
4BC
330
1D
100
AcDbEntity
  8
CSLAYER1
  6
Continuous
100
AcDbLine
 10
196.887355
 20
210.640867
 30
0.0
 11
196.887355
 21
245.640867
 31
0.0
  0
LINE
  5
4BD
330
1D
100
AcDbEntity
  8
CSLAYER1
  6
Continuous
100
AcDbLine
 10
196.887355
 20
245.640867
 30
0.0
 11
194.587355
 21
249.122639
 31
0.0
  0
LINE
  5
4BE
330
1D
100
AcDbEntity
  8
CSLAYER1
  6
Continuous
100
AcDbLine
 10
194.587355
 20
249.140867
 30
0.0
 11
196.887355
 21
245.640867
 31
0.0
  0
LINE
  5
4BF
330
1D
100
AcDbEntity
  8
CSLAYER1
  6
Continuous
100
AcDbLine
 10
196.887355
 20
243.140867
 30
0.0
 11
209.087355
 21
243.640867
 31
0.0
  0
ARC
  5
4C0
330
1D
100
AcDbEntity
  8
CSLAYER1
  6
Continuous
100
AcDbCircle
 10
211.587355
 20
248.790867
 30
0.0
 40
3.0
100
AcDbArc
 50
270.0
 51
0.0
  0
LINE
  5
4C1
330
1D
100
AcDbEntity
  8
CSLAYER1
  6
Continuous
100
AcDbLine
 10
254.587355
 20
251.140867
 30
0.0
 11
254.587355
 21
245.140867
 31
0.0
  0
LINE
  5
4C2
330
1D
100
AcDbEntity
  8
CSLAYER1
  6
Continuous
100
AcDbLine
 10
254.787355
 20
245.140867
 30
0.0
 11
254.787355
 21
236.140867
 31
0.0
  0
ARC
  5
4C3
330
1D
100
AcDbEntity
  8
CSLAYER1
  6
Continuous
100
AcDbCircle
 10
264.484324
 20
210.793987
 30
0.0
 40
50.0
100
AcDbArc
 50
183.573162
 51
203.468722
  0
ARC
  5
4C4
330
1D
100
AcDbEntity
  8
CSLAYER1
  6
Continuous
100
AcDbCircle
 10
211.587355
 20
207.490867
 30
0.0
 40
3.0
100
AcDbArc
 50
0.0
 51
90.0
  0
LINE
  5
4C5
330
1D
100
AcDbEntity
  8
CSLAYER1
  6
Continuous
100
AcDbLine
 10
123.022649
 20
235.482043
 30
0.0
 11
110.17559
 21
318.493808
 31
0.0
  0
ARC
  5
4C6
330
1D
100
AcDbEntity
  8
CSLAYER1
  6
Continuous
100
AcDbCircle
 10
75.587355
 20
313.140867
 30
0.0
 40
35.0
100
AcDbArc
 50
8.797411
 51
171.202589
  0
LINE
  5
4C7
330
1D
100
AcDbEntity
  8
CSLAYER1
  6
Continuous
100
AcDbLine
 10
40.999119
 20
318.493808
 30
0.0
 11
28.15206
 21
235.482043
 31
0.0
  0
ARC
  5
4C8
330
1D
100
AcDbEntity
  8
CSLAYER1
  6
Continuous
100
AcDbCircle
 10
75.587355
 20
228.140867
 30
0.0
 40
48.0
100
AcDbArc
 50
171.202589
 51
8.797411
  0
LINE
  5
4C9
330
1D
100
AcDbEntity
  8
CSLAYER1
  6
Continuous
100
AcDbLine
 10
120.057943
 20
235.02322
 30
0.0
 11
107.210884
 21
318.034985
 31
0.0
  0
ARC
  5
4CA
330
1D
100
AcDbEntity
  8
CSLAYER1
  6
Continuous
100
AcDbCircle
 10
75.587355
 20
313.140867
 30
0.0
 40
32.0
100
AcDbArc
 50
8.797411
 51
171.202589
  0
LINE
  5
4CB
330
1D
100
AcDbEntity
  8
CSLAYER1
  6
Continuous
100
AcDbLine
 10
43.963825
 20
318.034985
 30
0.0
 11
31.116766
 21
235.02322
 31
0.0
  0
ARC
  5
4CC
330
1D
100
AcDbEntity
  8
CSLAYER1
  6
Continuous
100
AcDbCircle
 10
75.587355
 20
228.140867
 30
0.0
 40
45.0
100
AcDbArc
 50
171.202589
 51
8.797411
  0
CIRCLE
  5
4CD
330
1D
100
AcDbEntity
  8
CSLAYER1
  6
Continuous
100
AcDbCircle
 10
75.587355
 20
228.140867
 30
0.0
 40
37.5
  0
CIRCLE
  5
4CE
330
1D
100
AcDbEntity
  8
CSLAYER1
  6
Continuous
100
AcDbCircle
 10
75.587355
 20
228.140867
 30
0.0
 40
26.0
  0
CIRCLE
  5
4CF
330
1D
100
AcDbEntity
  8
CSLAYER1
  6
Continuous
100
AcDbCircle
 10
75.587355
 20
228.140867
 30
0.0
 40
22.0
  0
CIRCLE
  5
4D0
330
1D
100
AcDbEntity
  8
CSLAYER1
  6
Continuous
100
AcDbCircle
 10
75.587355
 20
273.140867
 30
0.0
 40
4.0
  0
CIRCLE
  5
4D1
330
1D
100
AcDbEntity
  8
CSLAYER1
  6
Continuous
100
AcDbCircle
 10
75.587355
 20
273.140867
 30
0.0
 40
3.0
  0
LINE
  5
4D2
330
1D
100
AcDbEntity
  8
CSLAYER1
  6
Continuous
100
AcDbLine
 10
76.687355
 20
300.475989
 30
0.0
 11
76.687355
 21
314.605745
 31
0.0
  0
LINE
  5
4D3
330
1D
100
AcDbEntity
  8
CSLAYER1
  6
Continuous
100
AcDbLine
 10
74.487355
 20
314.605745
 30
0.0
 11
74.487355
 21
300.475989
 31
0.0
  0
ARC
  5
4D4
330
1D
100
AcDbEntity
  8
CSLAYER1
  6
Continuous
100
AcDbCircle
 10
75.587355
 20
307.540867
 30
0.0
 40
5.65
100
AcDbArc
 50
281.22663
 51
78.77337
  0
ARC
  5
4D5
330
1D
100
AcDbEntity
  8
CSLAYER1
  6
Continuous
100
AcDbCircle
 10
75.587355
 20
307.540867
 30
0.0
 40
5.65
100
AcDbArc
 50
101.22663
 51
258.77337
  0
ARC
  5
4D6
330
1D
100
AcDbEntity
  8
CSLAYER1
  6
Continuous
100
AcDbCircle
 10
75.587355
 20
305.540867
 30
0.0
 40
2.75
100
AcDbArc
 50
293.578178
 51
66.421822
  0
ARC
  5
4D7
330
1D
100
AcDbEntity
  8
CSLAYER1
  6
Continuous
100
AcDbCircle
 10
75.587355
 20
305.540867
 30
0.0
 40
2.75
100
AcDbArc
 50
113.578178
 51
246.421822
  0
CIRCLE
  5
4D8
330
1D
100
AcDbEntity
  8
CSLAYER1
  6
Continuous
100
AcDbCircle
 10
75.587355
 20
307.540867
 30
0.0
 40
7.15
  0
CIRCLE
  5
4D9
330
1D
100
AcDbEntity
  8
CSLAYER1
  6
Continuous
100
AcDbCircle
 10
75.587355
 20
313.140867
 30
0.0
 40
17.0
  0
CIRCLE
  5
4DA
330
1D
100
AcDbEntity
  8
CSLAYER1
  6
Continuous
100
AcDbCircle
 10
75.587355
 20
313.140867
 30
0.0
 40
20.5
  0
CIRCLE
  5
4DB
330
1D
100
AcDbEntity
  8
CSLAYER1
  6
Continuous
100
AcDbCircle
 10
75.587355
 20
313.140867
 30
0.0
 40
23.75
  0
LINE
  5
4DC
330
1D
100
AcDbEntity
  8
CSLAYER10
  6
Continuous
100
AcDbLine
 10
123.541832082915
 20
72.483775814719
 30
0.0
 11
211.063343409772
 21
72.483775814719
 31
0.0
  0
LINE
  5
4DF
330
1D
100
AcDbEntity
  8
CSLAYER10
  6
Continuous
100
AcDbLine
 10
148.541832082915
 20
40.483775814719
 30
0.0
 11
148.541832082915
 21
96.483775814719
 31
0.0
  0
LINE
  5
4E0
330
1D
100
AcDbEntity
  8
CSLAYER10
  6
Continuous
100
AcDbLine
 10
335.093367
 20
96.483775814719
 30
0.0
 11
335.093367
 21
64.483775814719
 31
0.0
  0
CIRCLE
  5
4E1
102
{ACAD_REACTORS
330
FA2
102
}
330
1D
100
AcDbEntity
  8
CSLAYER10
  6
PHANTOM
100
AcDbCircle
 10
462.587355
 20
228.140867
 30
0.0
 40
5.0
  0
CIRCLE
  5
4E2
102
{ACAD_REACTORS
330
FA6
102
}
330
1D
100
AcDbEntity
  8
CSLAYER10
  6
PHANTOM
100
AcDbCircle
 10
484.587355
 20
228.140867
 30
0.0
 40
15.0
  0
CIRCLE
  5
4E3
102
{ACAD_REACTORS
330
FA2
102
}
330
1D
100
AcDbEntity
  8
CSLAYER10
  6
PHANTOM
100
AcDbCircle
 10
506.587355
 20
228.140867
 30
0.0
 40
5.0
  0
CIRCLE
  5
4E5
102
{ACAD_REACTORS
330
F9A
102
}
330
1D
100
AcDbEntity
  8
CSLAYER10
  6
PHANTOM
100
AcDbCircle
 10
484.587355
 20
313.222855
 30
0.0
 40
17.0
  0
LINE
  5
4E6
330
1D
100
AcDbEntity
  8
CSLAYER1
  6
Continuous
100
AcDbLine
 10
508.587355
 20
330.540867
 30
0.0
 11
420.587355
 21
330.540867
 31
0.0
  0
TEXT
  5
4E8
330
1D
100
AcDbEntity
  8
CSLAYER10
  6
Continuous
100
AcDbText
 10
155.71695755988
 20
73.954908487081
 30
0.0
 40
4.0
  1
高さ(H)
 41
0.89552238806
  7
FX_FONT
 72
     5
 11
173.71695755988
 21
73.954908487081
 31
0.0
100
AcDbText
  0
TEXT
  5
4E9
330
1D
100
AcDbEntity
  8
CSLAYER10
  6
Continuous
100
AcDbText
 10
186.353879414569
 20
74.430618575497
 30
0.0
 40
4.0
  1
直径(D)
 41
0.89552238806
  7
FX_FONT
 72
     5
 11
204.353879414569
 21
74.430618575497
 31
0.0
100
AcDbText
  0
TEXT
  5
4EA
330
1D
100
AcDbEntity
  8
CSLAYER10
  6
Continuous
100
AcDbText
 10
158.638499716564
 20
65.646208711567
 30
0.0
 40
4.0
  1
21.0
 41
0.662739322533
  7
FX_FONT
 72
     5
 11
168.638499716564
 21
65.646208711567
 31
0.0
100
AcDbText
  0
TEXT
  5
4EB
330
1D
100
AcDbEntity
  8
CSLAYER10
  6
Continuous
100
AcDbText
 10
158.645335716564
 20
57.946295711567
 30
0.0
 40
4.0
  1
18.5
 41
0.652173913043
  7
FX_FONT
 72
     5
 11
168.645335716564
 21
57.946295711567
 31
0.0
100
AcDbText
  0
TEXT
  5
4EC
330
1D
100
AcDbEntity
  8
CSLAYER10
  6
Continuous
100
AcDbText
 10
158.638499716564
 20
49.945876711567
 30
0.0
 40
4.0
  1
16.0
 41
0.661521499449
  7
FX_FONT
 72
     5
 11
168.638499716564
 21
49.945876711567
 31
0.0
100
AcDbText
  0
TEXT
  5
4ED
330
1D
100
AcDbEntity
  8
CSLAYER10
  6
Continuous
100
AcDbText
 10
158.235911716564
 20
41.894423711567
 30
0.0
 40
4.0
  1
13.5
 41
0.652173913043
  7
FX_FONT
 72
     5
 11
168.235911716564
 21
41.894423711567
 31
0.0
100
AcDbText
  0
TEXT
  5
4EE
330
1D
100
AcDbEntity
  8
CSLAYER10
  6
Continuous
100
AcDbText
 10
188.493225571253
 20
66.312424799983
 30
0.0
 40
4.0
  1
%%C48.5
 41
0.67880649429
  7
FX_FONT
 72
     5
 11
201.616817794189
 21
66.312424799983
 31
0.0
100
AcDbText
  0
TEXT
  5
4EF
330
1D
100
AcDbEntity
  8
CSLAYER10
  6
Continuous
100
AcDbText
 10
188.493225571253
 20
58.422005799983
 30
0.0
 40
4.0
  1
%%C47.5
 41
0.67880649429
  7
FX_FONT
 72
     5
 11
201.616817794189
 21
58.422005799983
 31
0.0
100
AcDbText
  0
TEXT
  5
4F0
330
1D
100
AcDbEntity
  8
CSLAYER10
  6
Continuous
100
AcDbText
 10
188.599090571253
 20
50.019013799983
 30
0.0
 40
4.0
  1
%%C46.5
 41
0.655589346114
  7
FX_FONT
 72
     5
 11
201.29202874462
 21
50.019013799983
 31
0.0
100
AcDbText
  0
TEXT
  5
4F1
330
1D
100
AcDbEntity
  8
CSLAYER10
  6
Continuous
100
AcDbText
 10
188.493225571253
 20
42.641152799983
 30
0.0
 40
4.0
  1
%%C45.5
 41
0.661057265769
  7
FX_FONT
 72
     5
 11
201.29202874462
 21
42.641152799983
 31
0.0
100
AcDbText
  0
TEXT
  5
4F2
330
1D
100
AcDbEntity
  8
CSLAYER10
  6
Continuous
100
AcDbText
 10
317.089612
 20
90.406102814719
 30
0.0
 40
4.429919
  1
バックセットA
 41
0.489384836771
  7
FX_FONT
 72
     5
 11
334.505358
 21
90.406102814719
 31
0.0
100
AcDbText
  0
TEXT
  5
4F3
330
1D
100
AcDbEntity
  8
CSLAYER10
  6
Continuous
100
AcDbText
 10
340.666866
 20
90.838449814719
 30
0.0
 40
3.739113
  1
錠奥行B
 41
0.834060361334
  7
FX_FONT
 72
     5
 11
354.492863
 21
90.838449814719
 31
0.0
100
AcDbText
  0
TEXT
  5
4F4
330
1D
100
AcDbEntity
  8
CSLAYER10
  6
Continuous
100
AcDbText
 10
321.927948
 20
82.142881814719
 30
0.0
 40
4.0
  1
70
 41
0.846394984326
  7
FX_FONT
 72
     5
 11
327.927948
 21
82.142881814719
 31
0.0
100
AcDbText
  0
TEXT
  5
4F5
330
1D
100
AcDbEntity
  8
CSLAYER10
  6
Continuous
100
AcDbText
 10
321.927948
 20
74.316873814719
 30
0.0
 40
4.0
  1
90
 41
0.846173935753
  7
FX_FONT
 72
     5
 11
327.927948
 21
74.316873814719
 31
0.0
100
AcDbText
  0
TEXT
  5
4F6
330
1D
100
AcDbEntity
  8
CSLAYER10
  6
Continuous
100
AcDbText
 10
320.427948
 20
66.490854814719
 30
0.0
 40
4.0
  1
100
 41
0.811216825238
  7
FX_FONT
 72
     5
 11
329.427948
 21
66.490854814719
 31
0.0
100
AcDbText
  0
TEXT
  5
4F7
330
1D
100
AcDbEntity
  8
CSLAYER10
  6
Continuous
100
AcDbText
 10
343.66687
 20
82.142881814719
 30
0.0
 40
4.0
  1
94
 41
0.817975258773
  7
FX_FONT
 72
     5
 11
349.66687
 21
82.142881814719
 31
0.0
100
AcDbText
  0
TEXT
  5
4F8
330
1D
100
AcDbEntity
  8
CSLAYER10
  6
Continuous
100
AcDbText
 10
342.16687
 20
74.316873814719
 30
0.0
 40
4.0
  1
114
 41
0.794117647059
  7
FX_FONT
 72
     5
 11
351.16687
 21
74.316873814719
 31
0.0
100
AcDbText
  0
TEXT
  5
4F9
330
1D
100
AcDbEntity
  8
CSLAYER10
  6
Continuous
100
AcDbText
 10
342.16687
 20
66.490854814719
 30
0.0
 40
4.0
  1
124
 41
0.794117647059
  7
FX_FONT
 72
     5
 11
351.16687
 21
66.490854814719
 31
0.0
100
AcDbText
  0
TEXT
  5
4FE
330
1D
100
AcDbEntity
  8
CSLAYER10
100
AcDbText
 10
453.571198
 20
40.974617
 30
0.0
 40
4.0
  1
              
 41
1.041666666667
  7
FX_FONT
 72
     5
 11
488.571198
 21
40.974617
 31
0.0
100
AcDbText
  0
TEXT
  5
52A
330
1D
100
AcDbEntity
  8
CSLAYER10
100
AcDbText
 10
503.155914
 20
28.027534
 30
0.0
 40
4.0
  1
   
 41
1.041666666667
  7
FX_FONT
 72
     5
 11
510.655914
 21
28.027534
 31
0.0
100
AcDbText
  0
TEXT
  5
52C
330
1D
100
AcDbEntity
  8
CSLAYER10
100
AcDbText
 10
238.618169262216
 20
143.658870115852
 30
0.0
 40
4.0
  1
取付扉厚
 41
1.13014622149
  7
FX_FONT
 72
     5
 11
259.111487411894
 21
143.658870115852
 31
0.0
100
AcDbText
  0
TEXT
  5
52D
330
1D
100
AcDbEntity
  8
CSLAYER10
100
AcDbText
 10
459.107788
 20
357.499359
 30
0.0
 40
4.0
  1
%%C34貫通穴
 41
0.592105263158
  7
FX_FONT
 72
     5
 11
474.107788
 21
357.499359
 31
0.0
100
AcDbText
  0
TEXT
  5
52F
330
1D
100
AcDbEntity
  8
CSLAYER10
100
AcDbText
 10
238.467438
 20
151.791046
 30
0.0
 40
4.0
  1
35 ~ 50
 41
0.877030162413
  7
FX_FONT
 72
     5
 11
259.467438
 21
151.791046
 31
0.0
100
AcDbText
  0
LINE
  5
53A
330
1D
100
AcDbEntity
  8
CSLAYER10
  6
Continuous
100
AcDbLine
 10
663.161725661009
 20
321.640867
 30
0.0
 11
710.033388661009
 21
321.640867
 31
0.0
  0
LINE
  5
53B
330
1D
100
AcDbEntity
  8
CSLAYER10
  6
Continuous
100
AcDbLine
 10
669.835923661009
 20
334.907917
 30
0.0
 11
669.835923661009
 21
292.219227
 31
0.0
  0
LINE
  5
53C
330
1D
100
AcDbEntity
  8
CSLAYER10
  6
Continuous
100
AcDbLine
 10
669.835923661009
 20
284.108394
 30
0.0
 11
669.835923661009
 21
249.637355
 31
0.0
  0
LINE
  5
53D
330
1D
100
AcDbEntity
  8
CSLAYER10
  6
Continuous
100
AcDbLine
 10
669.835923661009
 20
242.202425
 30
0.0
 11
669.835923661009
 21
190.640867
 31
0.0
  0
LINE
  5
53E
330
1D
100
AcDbEntity
  8
CSLAYER10
  6
Continuous
100
AcDbLine
 10
669.835923661009
 20
174.573876
 30
0.0
 11
669.835923661009
 21
143.824788
 31
0.0
  0
LINE
  5
53F
330
1D
100
AcDbEntity
  8
CSLAYER10
  6
Continuous
100
AcDbLine
 10
669.835923661009
 20
136.5774
 30
0.0
 11
669.835923661009
 21
127.140867
 31
0.0
  0
LINE
  5
540
330
1D
100
AcDbEntity
  8
CSLAYER10
  6
Continuous
100
AcDbLine
 10
681.833789661009
 20
137.237219
 30
0.0
 11
681.833789661009
 21
152.420813
 31
0.0
  0
LINE
  5
541
330
1D
100
AcDbEntity
  8
CSLAYER10
  6
Continuous
100
AcDbLine
 10
695.335855661009
 20
170.511903
 30
0.0
 11
695.335855661009
 21
127.222508
 31
0.0
  0
LINE
  5
542
330
1D
100
AcDbEntity
  8
CSLAYER10
  6
Continuous
100
AcDbLine
 10
123.541832082915
 20
64.483775814719
 30
0.0
 11
211.063343409772
 21
64.483775814719
 31
0.0
  0
LINE
  5
543
330
1D
100
AcDbEntity
  8
CSLAYER10
  6
Continuous
100
AcDbLine
 10
211.063343409772
 20
56.483775814719
 30
0.0
 11
123.541832082915
 21
56.483775814719
 31
0.0
  0
LINE
  5
544
330
1D
100
AcDbEntity
  8
CSLAYER10
  6
Continuous
100
AcDbLine
 10
123.541832082915
 20
48.483775814719
 30
0.0
 11
211.063343409772
 21
48.483775814719
 31
0.0
  0
LINE
  5
545
330
1D
100
AcDbEntity
  8
CSLAYER10
  6
Continuous
100
AcDbLine
 10
315.093367
 20
80.483775814719
 30
0.0
 11
360.093367
 21
80.483775814719
 31
0.0
  0
LINE
  5
546
330
1D
100
AcDbEntity
  8
CSLAYER10
  6
Continuous
100
AcDbLine
 10
360.093367
 20
72.483775814719
 30
0.0
 11
315.093367
 21
72.483775814719
 31
0.0
  0
LINE
  5
54B
330
1D
100
AcDbEntity
  8
CSLAYER10
  6
Continuous
100
AcDbLine
 10
663.161725661009
 20
216.640867
 30
0.0
 11
710.033388661009
 21
216.640867
 31
0.0
  0
LINE
  5
54C
330
1D
100
AcDbEntity
  8
CSLAYER10
  6
Continuous
100
AcDbLine
 10
698.295692661009
 20
269.140867
 30
0.0
 11
652.406429661009
 21
269.140867
 31
0.0
  0
LINE
  5
54D
330
1D
100
AcDbEntity
  8
CSLAYER10
  6
Continuous
 48
0.5
100
AcDbLine
 10
636.197576661009
 20
269.140867
 30
0.0
 11
611.614043661009
 21
269.140867
 31
0.0
  0
LINE
  5
54E
330
1D
100
AcDbEntity
  8
CSLAYER10
  6
Continuous
100
AcDbLine
 10
75.587355
 20
175.934304
 30
0.0
 11
75.587355
 21
352.331263
 31
0.0
  0
LINE
  5
54F
330
1D
100
AcDbEntity
  8
CSLAYER10
  6
Continuous
 48
0.3
100
AcDbLine
 10
86.2152725
 20
307.340867
 30
0.0
 11
64.9594375
 21
307.340867
 31
0.0
  0
LINE
  5
550
330
1D
100
AcDbEntity
  8
CSLAYER10
  6
Continuous
100
AcDbLine
 10
34.428329
 20
313.140867
 30
0.0
 11
116.746381
 21
313.140867
 31
0.0
  0
LINE
  5
551
330
1D
100
AcDbEntity
  8
CSLAYER10
  6
Continuous
100
AcDbLine
 10
190.595698
 20
313.140867
 30
0.0
 11
308.579012
 21
313.140867
 31
0.0
  0
LINE
  5
552
330
1D
100
AcDbEntity
  8
CSLAYER10
  6
Continuous
 48
0.3
100
AcDbLine
 10
310.353286
 20
307.340867
 30
0.0
 11
282.012173
 21
307.340867
 31
0.0
  0
LINE
  5
553
330
1D
100
AcDbEntity
  8
CSLAYER10
  6
Continuous
 48
0.3
100
AcDbLine
 10
257.698799
 20
292.140867
 30
0.0
 11
241.599919
 21
292.140867
 31
0.0
  0
LINE
  5
554
330
1D
100
AcDbEntity
  8
CSLAYER10
  6
Continuous
100
AcDbLine
 10
249.587355
 20
272.640867
 30
0.0
 11
249.587355
 21
320.060134
 31
0.0
  0
LINE
  5
555
330
1D
100
AcDbEntity
  8
CSLAYER10
  6
Continuous
100
AcDbLine
 10
249.587355
 20
329.419761
 30
0.0
 11
249.587355
 21
382.640867
 31
0.0
  0
LINE
  5
556
330
1D
100
AcDbEntity
  8
CSLAYER10
  6
Continuous
 48
0.2
100
AcDbLine
 10
257.3167495
 20
347.140867
 30
0.0
 11
241.8579605
 21
347.140867
 31
0.0
  0
LINE
  5
557
330
1D
100
AcDbEntity
  8
CSLAYER10
  6
Continuous
100
AcDbLine
 10
249.587355
 20
267.640867
 30
0.0
 11
249.587355
 21
226.463867
 31
0.0
  0
LINE
  5
558
330
1D
100
AcDbEntity
  8
CSLAYER10
  6
Continuous
100
AcDbLine
 10
249.587355
 20
218.664178
 30
0.0
 11
249.587355
 21
168.329774
 31
0.0
  0
LINE
  5
559
330
1D
100
AcDbEntity
  8
CSLAYER10
  6
Continuous
 48
0.2
100
AcDbLine
 10
242.6309
 20
199.140867
 30
0.0
 11
256.54381
 21
199.140867
 31
0.0
  0
LINE
  5
55B
330
1D
100
AcDbEntity
  8
CSLAYER10
  6
Continuous
100
AcDbLine
 10
127.60779
 20
228.140867
 30
0.0
 11
23.56692
 21
228.140867
 31
0.0
  0
LINE
  5
55C
330
1D
100
AcDbEntity
  8
CSLAYER10
  6
Continuous
 48
0.3
100
AcDbLine
 10
239.180575
 20
248.140867
 30
0.0
 11
260.034107
 21
248.140867
 31
0.0
  0
LINE
  5
55E
330
1D
100
AcDbEntity
  8
CSLAYER10
  6
Continuous
100
AcDbLine
 10
151.546
 20
228.140867
 30
0.0
 11
347.62871
 21
228.140867
 31
0.0
  0
LINE
  5
55F
330
1D
100
AcDbEntity
  8
CSLAYER10
  6
Continuous
100
AcDbLine
 10
363.587355
 20
187.140867
 30
0.0
 11
422.602661
 21
187.140867
 31
0.0
  0
LINE
  5
560
102
{ACAD_REACTORS
330
FA2
102
}
330
1D
100
AcDbEntity
  8
CSLAYER10
  6
Continuous
100
AcDbLine
 10
462.587355
 20
190.457572
 30
0.0
 11
462.587355
 21
234.640867
 31
0.0
  0
LINE
  5
562
102
{ACAD_REACTORS
330
FA2
330
FA6
102
}
330
1D
100
AcDbEntity
  8
CSLAYER10
  6
Continuous
100
AcDbLine
 10
455.451092
 20
228.140867
 30
0.0
 11
524.587355
 21
228.140867
 31
0.0
  0
LINE
  5
564
102
{ACAD_REACTORS
330
FA2
102
}
330
1D
100
AcDbEntity
  8
CSLAYER10
  6
Continuous
100
AcDbLine
 10
506.587355
 20
234.640867
 30
0.0
 11
506.587355
 21
190.457572
 31
0.0
  0
LINE
  5
565
330
1D
100
AcDbEntity
  8
CSLAYER10
  6
Continuous
100
AcDbLine
 10
484.587355
 20
189.858454
 30
0.0
 11
484.587355
 21
153.640867
 31
0.0
  0
LINE
  5
566
330
1D
100
AcDbEntity
  8
CSLAYER10
  6
PHANTOM
100
AcDbLine
 10
485.238542
 20
125.877827853033
 30
0.0
 11
479.587355
 21
116.212214853033
 31
0.0
  0
LINE
  5
567
330
1D
100
AcDbEntity
  8
CSLAYER10
  6
PHANTOM
100
AcDbLine
 10
479.587355
 20
116.212214853033
 30
0.0
 11
475.054479
 21
112.812557853033
 31
0.0
  0
LINE
  5
568
330
1D
100
AcDbEntity
  8
CSLAYER10
  6
Continuous
 48
0.5
100
AcDbLine
 10
484.587355
 20
117.561907853033
 30
0.0
 11
484.587355
 21
88.164098853033
 31
0.0
  0
LINE
  5
569
330
1D
100
AcDbEntity
  8
CSLAYER10
  6
PHANTOM
100
AcDbLine
 10
479.587355
 20
88.212214853033
 30
0.0
 11
485.238542
 21
78.546601853033
 31
0.0
  0
ARC
  5
56A
330
1D
100
AcDbEntity
  8
CSLAYER10
  6
PHANTOM
100
AcDbCircle
 10
488.087355
 20
80.212214853033
 30
0.0
 40
3.3
100
AcDbArc
 50
210.313516
 51
3.828378
  0
ARC
  5
56B
330
1D
100
AcDbEntity
  8
CSLAYER10
  6
PHANTOM
100
AcDbCircle
 10
461.446935
 20
78.429506853033
 30
0.0
 40
30.0
100
AcDbArc
 50
3.828378
 51
26.363401
  0
LINE
  5
56C
330
1D
100
AcDbEntity
  8
CSLAYER10
  6
PHANTOM
100
AcDbLine
 10
479.587355
 20
88.212214853033
 30
0.0
 11
474.97217
 21
91.673602853033
 31
0.0
  0
ARC
  5
56D
330
1D
100
AcDbEntity
  8
CSLAYER10
  6
PHANTOM
100
AcDbCircle
 10
461.446935
 20
125.994922853033
 30
0.0
 40
30.0
100
AcDbArc
 50
333.745573
 51
356.171622
  0
ARC
  5
56E
330
1D
100
AcDbEntity
  8
CSLAYER10
  6
PHANTOM
100
AcDbCircle
 10
488.087355
 20
124.212214853033
 30
0.0
 40
3.3
100
AcDbArc
 50
356.171622
 51
149.686484
  0
LINE
  5
56F
330
1D
100
AcDbEntity
  8
CSLAYER10
  6
Continuous
100
AcDbLine
 10
511.021773
 20
102.212214853033
 30
0.0
 11
389.560907
 21
102.212214853033
 31
0.0
  0
LINE
  5
570
330
1D
100
AcDbEntity
  8
CSLAYER10
  6
PHANTOM
100
AcDbLine
 10
394.387355
 20
108.212214853033
 30
0.0
 11
414.587355
 21
108.212214853033
 31
0.0
  0
LINE
  5
571
330
1D
100
AcDbEntity
  8
CSLAYER10
  6
PHANTOM
100
AcDbLine
 10
414.587355
 20
96.212214853033
 30
0.0
 11
394.387355
 21
96.212214853033
 31
0.0
  0
ARC
  5
572
330
1D
100
AcDbEntity
  8
CSLAYER10
  6
PHANTOM
100
AcDbCircle
 10
454.237355
 20
102.212214853033
 30
0.0
 40
60.15
100
AcDbArc
 50
174.27519
 51
185.72481
  0
LINE
  5
59E
102
{ACAD_REACTORS
330
F9A
330
FA6
102
}
330
1D
100
AcDbEntity
  8
CSLAYER10
  6
Continuous
100
AcDbLine
 10
484.587355
 20
197.624336
 30
0.0
 11
484.587355
 21
345.204085
 31
0.0
  0
LINE
  5
59F
330
1D
100
AcDbEntity
  8
CSLAYER10
  6
Continuous
100
AcDbLine
 10
476.813091
 20
355.811874
 30
0.0
 11
457.731149
 21
355.811874
 31
0.0
  0
LINE
  5
5A0
102
{ACAD_REACTORS
330
F9A
102
}
330
1D
100
AcDbEntity
  8
CSLAYER10
  6
Continuous
100
AcDbLine
 10
457.731149
 20
355.811874
 30
0.0
 11
484.646229
 21
313.140867
 31
0.0
  0
LINE
  5
5A1
102
{ACAD_REACTORS
330
F9A
102
}
330
1D
100
AcDbEntity
  8
CSLAYER10
  6
Continuous
100
AcDbLine
 10
460.476607
 20
313.140867
 30
0.0
 11
524.587355
 21
313.140867
 31
0.0
  0
LINE
  5
5A2
330
1D
100
AcDbEntity
  8
CSLAYER10
  6
PHANTOM
100
AcDbLine
 10
414.587355
 20
307.140867
 30
0.0
 11
394.087355
 21
307.140867
 31
0.0
  0
LINE
  5
5A3
330
1D
100
AcDbEntity
  8
CSLAYER10
  6
PHANTOM
100
AcDbLine
 10
394.087355
 20
307.140867
 30
0.0
 11
394.087355
 21
277.140867
 31
0.0
  0
LINE
  5
5A4
330
1D
100
AcDbEntity
  8
CSLAYER10
  6
PHANTOM
100
AcDbLine
 10
394.087355
 20
277.140867
 30
0.0
 11
414.587355
 21
277.140867
 31
0.0
  0
LINE
  5
5A5
102
{ACAD_REACTORS
330
13B0
102
}
330
1D
100
AcDbEntity
  8
CSLAYER10
  6
Continuous
100
AcDbLine
 10
424.14854
 20
359.140867
 30
0.0
 11
363.587355
 21
359.140867
 31
0.0
  0
TEXT
  5
5A8
330
1D
100
AcDbEntity
  8
CSLAYER10
  6
Continuous
100
AcDbText
 10
129.975887082915
 20
81.509778183112
 30
0.0
 40
5.0
  1
扉厚
 41
1.125
  7
FX_FONT
 72
     5
 11
141.975887082915
 21
81.509778183112
 31
0.0
100
AcDbText
  0
TEXT
  5
5A9
330
1D
100
AcDbEntity
  8
CSLAYER10
  6
Continuous
100
AcDbText
 10
125.541835082915
 20
66.483773814719
 30
0.0
 40
4.0
  1
35 ~ 38未満
 41
0.629475437136
  7
FX_FONT
 72
     5
 11
146.541835082915
 21
66.483773814719
 31
0.0
100
AcDbText
  0
TEXT
  5
5AA
330
1D
100
AcDbEntity
  8
CSLAYER10
  6
Continuous
100
AcDbText
 10
125.541835082915
 20
58.483781814719
 30
0.0
 40
4.0
  1
38 ~ 43未満
 41
0.63
  7
FX_FONT
 72
     5
 11
146.541835082915
 21
58.483781814719
 31
0.0
100
AcDbText
  0
TEXT
  5
5AB
330
1D
100
AcDbEntity
  8
CSLAYER10
  6
Continuous
100
AcDbText
 10
125.541835082915
 20
50.483781814719
 30
0.0
 40
4.0
  1
43 ~ 48未満
 41
0.63
  7
FX_FONT
 72
     5
 11
146.541835082915
 21
50.483781814719
 31
0.0
100
AcDbText
  0
TEXT
  5
5AC
330
1D
100
AcDbEntity
  8
CSLAYER10
  6
Continuous
100
AcDbText
 10
126.44678668431
 20
42.276187126648
 30
0.0
 40
4.0
  1
48 ~ 50
 41
0.738312618664
  7
FX_FONT
 72
     5
 11
144.104763480691
 21
42.276187126648
 31
0.0
100
AcDbText
  0
LINE
  5
5FE
330
1D
100
AcDbEntity
  8
CSLAYER10
  6
Continuous
 48
0.3
100
AcDbLine
 10
69.151942
 20
273.140867
 30
0.0
 11
82.630074
 21
273.140867
 31
0.0
  0
LINE
  5
5FF
102
{ACAD_REACTORS
330
13B0
102
}
330
1D
100
AcDbEntity
  8
CSLAYER10
  6
Continuous
100
AcDbLine
 10
414.587355
 20
352.640867
 30
0.0
 11
414.666182
 21
352.697865
 31
0.0
  0
LINE
  5
600
102
{ACAD_REACTORS
330
13B0
102
}
330
1D
100
AcDbEntity
  8
CSLAYER10
  6
Continuous
100
AcDbLine
 10
414.666182
 20
352.697865
 30
0.0
 11
414.745002
 21
352.754589
 31
0.0
  0
LINE
  5
601
102
{ACAD_REACTORS
330
13B0
102
}
330
1D
100
AcDbEntity
  8
CSLAYER10
  6
Continuous
100
AcDbLine
 10
414.745002
 20
352.754589
 30
0.0
 11
414.823806
 21
352.810762
 31
0.0
  0
LINE
  5
602
102
{ACAD_REACTORS
330
13B0
102
}
330
1D
100
AcDbEntity
  8
CSLAYER10
  6
Continuous
100
AcDbLine
 10
414.823806
 20
352.810762
 30
0.0
 11
414.902585
 21
352.866112
 31
0.0
  0
LINE
  5
603
102
{ACAD_REACTORS
330
13B0
102
}
330
1D
100
AcDbEntity
  8
CSLAYER10
  6
Continuous
100
AcDbLine
 10
414.902585
 20
352.866112
 30
0.0
 11
414.981332
 21
352.920363
 31
0.0
  0
LINE
  5
604
102
{ACAD_REACTORS
330
13B0
102
}
330
1D
100
AcDbEntity
  8
CSLAYER10
  6
Continuous
100
AcDbLine
 10
414.981332
 20
352.920363
 30
0.0
 11
415.060038
 21
352.97324
 31
0.0
  0
LINE
  5
605
102
{ACAD_REACTORS
330
13B0
102
}
330
1D
100
AcDbEntity
  8
CSLAYER10
  6
Continuous
100
AcDbLine
 10
415.060038
 20
352.97324
 30
0.0
 11
415.138695
 21
353.024468
 31
0.0
  0
LINE
  5
606
102
{ACAD_REACTORS
330
13B0
102
}
330
1D
100
AcDbEntity
  8
CSLAYER10
  6
Continuous
100
AcDbLine
 10
415.138695
 20
353.024468
 30
0.0
 11
415.217295
 21
353.073773
 31
0.0
  0
LINE
  5
607
102
{ACAD_REACTORS
330
13B0
102
}
330
1D
100
AcDbEntity
  8
CSLAYER10
  6
Continuous
100
AcDbLine
 10
415.217295
 20
353.073773
 30
0.0
 11
415.29583
 21
353.12088
 31
0.0
  0
LINE
  5
608
102
{ACAD_REACTORS
330
13B0
102
}
330
1D
100
AcDbEntity
  8
CSLAYER10
  6
Continuous
100
AcDbLine
 10
415.29583
 20
353.12088
 30
0.0
 11
415.374293
 21
353.165515
 31
0.0
  0
LINE
  5
609
102
{ACAD_REACTORS
330
13B0
102
}
330
1D
100
AcDbEntity
  8
CSLAYER10
  6
Continuous
100
AcDbLine
 10
415.374293
 20
353.165515
 30
0.0
 11
415.452673
 21
353.207402
 31
0.0
  0
LINE
  5
60A
102
{ACAD_REACTORS
330
13B0
102
}
330
1D
100
AcDbEntity
  8
CSLAYER10
  6
Continuous
100
AcDbLine
 10
415.452673
 20
353.207402
 30
0.0
 11
415.530965
 21
353.246266
 31
0.0
  0
LINE
  5
60B
102
{ACAD_REACTORS
330
13B0
102
}
330
1D
100
AcDbEntity
  8
CSLAYER10
  6
Continuous
100
AcDbLine
 10
415.530965
 20
353.246266
 30
0.0
 11
415.609159
 21
353.281834
 31
0.0
  0
LINE
  5
60C
102
{ACAD_REACTORS
330
13B0
102
}
330
1D
100
AcDbEntity
  8
CSLAYER10
  6
Continuous
100
AcDbLine
 10
415.609159
 20
353.281834
 30
0.0
 11
415.687247
 21
353.31383
 31
0.0
  0
LINE
  5
60D
102
{ACAD_REACTORS
330
13B0
102
}
330
1D
100
AcDbEntity
  8
CSLAYER10
  6
Continuous
100
AcDbLine
 10
415.687247
 20
353.31383
 30
0.0
 11
415.765222
 21
353.341979
 31
0.0
  0
LINE
  5
60E
102
{ACAD_REACTORS
330
13B0
102
}
330
1D
100
AcDbEntity
  8
CSLAYER10
  6
Continuous
100
AcDbLine
 10
415.765222
 20
353.341979
 30
0.0
 11
415.843075
 21
353.366007
 31
0.0
  0
LINE
  5
60F
102
{ACAD_REACTORS
330
13B0
102
}
330
1D
100
AcDbEntity
  8
CSLAYER10
  6
Continuous
100
AcDbLine
 10
415.843075
 20
353.366007
 30
0.0
 11
415.920797
 21
353.385639
 31
0.0
  0
LINE
  5
610
102
{ACAD_REACTORS
330
13B0
102
}
330
1D
100
AcDbEntity
  8
CSLAYER10
  6
Continuous
100
AcDbLine
 10
415.920797
 20
353.385639
 30
0.0
 11
415.998382
 21
353.4006
 31
0.0
  0
LINE
  5
611
102
{ACAD_REACTORS
330
13B0
102
}
330
1D
100
AcDbEntity
  8
CSLAYER10
  6
Continuous
100
AcDbLine
 10
415.998382
 20
353.4006
 30
0.0
 11
416.07582
 21
353.410616
 31
0.0
  0
LINE
  5
612
102
{ACAD_REACTORS
330
13B0
102
}
330
1D
100
AcDbEntity
  8
CSLAYER10
  6
Continuous
100
AcDbLine
 10
416.07582
 20
353.410616
 30
0.0
 11
416.153104
 21
353.415412
 31
0.0
  0
LINE
  5
613
102
{ACAD_REACTORS
330
13B0
102
}
330
1D
100
AcDbEntity
  8
CSLAYER10
  6
Continuous
100
AcDbLine
 10
416.153104
 20
353.415412
 30
0.0
 11
416.230225
 21
353.414712
 31
0.0
  0
LINE
  5
614
102
{ACAD_REACTORS
330
13B0
102
}
330
1D
100
AcDbEntity
  8
CSLAYER10
  6
Continuous
100
AcDbLine
 10
416.230225
 20
353.414712
 30
0.0
 11
416.349174
 21
353.402544
 31
0.0
  0
LINE
  5
615
102
{ACAD_REACTORS
330
13B0
102
}
330
1D
100
AcDbEntity
  8
CSLAYER10
  6
Continuous
100
AcDbLine
 10
416.349174
 20
353.402544
 30
0.0
 11
416.467781
 21
353.377809
 31
0.0
  0
LINE
  5
616
102
{ACAD_REACTORS
330
13B0
102
}
330
1D
100
AcDbEntity
  8
CSLAYER10
  6
Continuous
100
AcDbLine
 10
416.467781
 20
353.377809
 30
0.0
 11
416.586109
 21
353.341737
 31
0.0
  0
LINE
  5
617
102
{ACAD_REACTORS
330
13AC
330
13B0
102
}
330
1D
100
AcDbEntity
  8
CSLAYER10
  6
Continuous
100
AcDbLine
 10
416.586109
 20
353.341737
 30
0.0
 11
416.704223
 21
353.295561
 31
0.0
  0
LINE
  5
618
102
{ACAD_REACTORS
330
13AC
102
}
330
1D
100
AcDbEntity
  8
CSLAYER10
  6
Continuous
100
AcDbLine
 10
416.704223
 20
353.295561
 30
0.0
 11
416.822188
 21
353.240513
 31
0.0
  0
LINE
  5
619
102
{ACAD_REACTORS
330
13AC
102
}
330
1D
100
AcDbEntity
  8
CSLAYER10
  6
Continuous
100
AcDbLine
 10
416.822188
 20
353.240513
 30
0.0
 11
416.940069
 21
353.177826
 31
0.0
  0
LINE
  5
61A
102
{ACAD_REACTORS
330
13AC
102
}
330
1D
100
AcDbEntity
  8
CSLAYER10
  6
Continuous
100
AcDbLine
 10
416.940069
 20
353.177826
 30
0.0
 11
417.057931
 21
353.108732
 31
0.0
  0
LINE
  5
61B
102
{ACAD_REACTORS
330
13AC
102
}
330
1D
100
AcDbEntity
  8
CSLAYER10
  6
Continuous
100
AcDbLine
 10
417.057931
 20
353.108732
 30
0.0
 11
417.175838
 21
353.034463
 31
0.0
  0
LINE
  5
61C
102
{ACAD_REACTORS
330
13AC
102
}
330
1D
100
AcDbEntity
  8
CSLAYER10
  6
Continuous
100
AcDbLine
 10
417.175838
 20
353.034463
 30
0.0
 11
417.293856
 21
352.956251
 31
0.0
  0
LINE
  5
61D
102
{ACAD_REACTORS
330
13AC
102
}
330
1D
100
AcDbEntity
  8
CSLAYER10
  6
Continuous
100
AcDbLine
 10
417.293856
 20
352.956251
 30
0.0
 11
417.412049
 21
352.875328
 31
0.0
  0
LINE
  5
61E
102
{ACAD_REACTORS
330
13AC
102
}
330
1D
100
AcDbEntity
  8
CSLAYER10
  6
Continuous
100
AcDbLine
 10
417.412049
 20
352.875328
 30
0.0
 11
417.530482
 21
352.792927
 31
0.0
  0
LINE
  5
61F
102
{ACAD_REACTORS
330
13AC
102
}
330
1D
100
AcDbEntity
  8
CSLAYER10
  6
Continuous
100
AcDbLine
 10
417.530482
 20
352.792927
 30
0.0
 11
417.64922
 21
352.710279
 31
0.0
  0
LINE
  5
620
102
{ACAD_REACTORS
330
13AC
102
}
330
1D
100
AcDbEntity
  8
CSLAYER10
  6
Continuous
100
AcDbLine
 10
417.64922
 20
352.710279
 30
0.0
 11
417.768327
 21
352.628618
 31
0.0
  0
LINE
  5
621
102
{ACAD_REACTORS
330
13AC
102
}
330
1D
100
AcDbEntity
  8
CSLAYER10
  6
Continuous
100
AcDbLine
 10
417.768327
 20
352.628618
 30
0.0
 11
417.88787
 21
352.549174
 31
0.0
  0
LINE
  5
622
102
{ACAD_REACTORS
330
13AC
102
}
330
1D
100
AcDbEntity
  8
CSLAYER10
  6
Continuous
100
AcDbLine
 10
417.88787
 20
352.549174
 30
0.0
 11
418.007911
 21
352.473182
 31
0.0
  0
LINE
  5
623
102
{ACAD_REACTORS
330
13AC
102
}
330
1D
100
AcDbEntity
  8
CSLAYER10
  6
Continuous
100
AcDbLine
 10
418.007911
 20
352.473182
 30
0.0
 11
418.128517
 21
352.401871
 31
0.0
  0
LINE
  5
624
102
{ACAD_REACTORS
330
13AC
102
}
330
1D
100
AcDbEntity
  8
CSLAYER10
  6
Continuous
100
AcDbLine
 10
418.128517
 20
352.401871
 30
0.0
 11
418.249752
 21
352.336476
 31
0.0
  0
LINE
  5
625
102
{ACAD_REACTORS
330
13AC
102
}
330
1D
100
AcDbEntity
  8
CSLAYER10
  6
Continuous
100
AcDbLine
 10
418.249752
 20
352.336476
 30
0.0
 11
418.371681
 21
352.278227
 31
0.0
  0
LINE
  5
626
102
{ACAD_REACTORS
330
13AC
102
}
330
1D
100
AcDbEntity
  8
CSLAYER10
  6
Continuous
100
AcDbLine
 10
418.371681
 20
352.278227
 30
0.0
 11
418.494368
 21
352.228358
 31
0.0
  0
LINE
  5
627
102
{ACAD_REACTORS
330
13AC
102
}
330
1D
100
AcDbEntity
  8
CSLAYER10
  6
Continuous
100
AcDbLine
 10
418.494368
 20
352.228358
 30
0.0
 11
418.617879
 21
352.1881
 31
0.0
  0
LINE
  5
628
330
1D
100
AcDbEntity
  8
CSLAYER10
  6
Continuous
100
AcDbLine
 10
418.617879
 20
352.1881
 30
0.0
 11
418.742278
 21
352.158686
 31
0.0
  0
LINE
  5
629
330
1D
100
AcDbEntity
  8
CSLAYER10
  6
Continuous
100
AcDbLine
 10
418.742278
 20
352.158686
 30
0.0
 11
418.827279
 21
352.145413
 31
0.0
  0
LINE
  5
62A
330
1D
100
AcDbEntity
  8
CSLAYER10
  6
Continuous
100
AcDbLine
 10
418.827279
 20
352.145413
 30
0.0
 11
418.912698
 21
352.137443
 31
0.0
  0
LINE
  5
62B
330
1D
100
AcDbEntity
  8
CSLAYER10
  6
Continuous
100
AcDbLine
 10
418.912698
 20
352.137443
 30
0.0
 11
418.998515
 21
352.13451
 31
0.0
  0
LINE
  5
62C
330
1D
100
AcDbEntity
  8
CSLAYER10
  6
Continuous
100
AcDbLine
 10
418.998515
 20
352.13451
 30
0.0
 11
419.084709
 21
352.136349
 31
0.0
  0
LINE
  5
62D
330
1D
100
AcDbEntity
  8
CSLAYER10
  6
Continuous
100
AcDbLine
 10
419.084709
 20
352.136349
 30
0.0
 11
419.171258
 21
352.142696
 31
0.0
  0
LINE
  5
62E
330
1D
100
AcDbEntity
  8
CSLAYER10
  6
Continuous
100
AcDbLine
 10
419.171258
 20
352.142696
 30
0.0
 11
419.258142
 21
352.153284
 31
0.0
  0
LINE
  5
62F
330
1D
100
AcDbEntity
  8
CSLAYER10
  6
Continuous
100
AcDbLine
 10
419.258142
 20
352.153284
 30
0.0
 11
419.34534
 21
352.16785
 31
0.0
  0
LINE
  5
630
330
1D
100
AcDbEntity
  8
CSLAYER10
  6
Continuous
100
AcDbLine
 10
419.34534
 20
352.16785
 30
0.0
 11
419.432832
 21
352.186127
 31
0.0
  0
LINE
  5
631
330
1D
100
AcDbEntity
  8
CSLAYER10
  6
Continuous
100
AcDbLine
 10
419.432832
 20
352.186127
 30
0.0
 11
419.520595
 21
352.207851
 31
0.0
  0
LINE
  5
632
330
1D
100
AcDbEntity
  8
CSLAYER10
  6
Continuous
100
AcDbLine
 10
419.520595
 20
352.207851
 30
0.0
 11
419.608609
 21
352.232756
 31
0.0
  0
LINE
  5
633
330
1D
100
AcDbEntity
  8
CSLAYER10
  6
Continuous
100
AcDbLine
 10
419.608609
 20
352.232756
 30
0.0
 11
419.696853
 21
352.260578
 31
0.0
  0
LINE
  5
634
330
1D
100
AcDbEntity
  8
CSLAYER10
  6
Continuous
100
AcDbLine
 10
419.696853
 20
352.260578
 30
0.0
 11
419.785307
 21
352.291051
 31
0.0
  0
LINE
  5
635
330
1D
100
AcDbEntity
  8
CSLAYER10
  6
Continuous
100
AcDbLine
 10
419.785307
 20
352.291051
 30
0.0
 11
419.873949
 21
352.32391
 31
0.0
  0
LINE
  5
636
330
1D
100
AcDbEntity
  8
CSLAYER10
  6
Continuous
100
AcDbLine
 10
419.873949
 20
352.32391
 30
0.0
 11
419.962759
 21
352.35889
 31
0.0
  0
LINE
  5
637
330
1D
100
AcDbEntity
  8
CSLAYER10
  6
Continuous
100
AcDbLine
 10
419.962759
 20
352.35889
 30
0.0
 11
420.051715
 21
352.395725
 31
0.0
  0
LINE
  5
638
330
1D
100
AcDbEntity
  8
CSLAYER10
  6
Continuous
100
AcDbLine
 10
420.051715
 20
352.395725
 30
0.0
 11
420.140796
 21
352.434152
 31
0.0
  0
LINE
  5
639
330
1D
100
AcDbEntity
  8
CSLAYER10
  6
Continuous
100
AcDbLine
 10
420.140796
 20
352.434152
 30
0.0
 11
420.229982
 21
352.473904
 31
0.0
  0
LINE
  5
63A
330
1D
100
AcDbEntity
  8
CSLAYER10
  6
Continuous
100
AcDbLine
 10
420.229982
 20
352.473904
 30
0.0
 11
420.319252
 21
352.514717
 31
0.0
  0
LINE
  5
63B
330
1D
100
AcDbEntity
  8
CSLAYER10
  6
Continuous
100
AcDbLine
 10
420.319252
 20
352.514717
 30
0.0
 11
420.408585
 21
352.556325
 31
0.0
  0
LINE
  5
63C
330
1D
100
AcDbEntity
  8
CSLAYER10
  6
Continuous
100
AcDbLine
 10
420.408585
 20
352.556325
 30
0.0
 11
420.497959
 21
352.598463
 31
0.0
  0
LINE
  5
63D
330
1D
100
AcDbEntity
  8
CSLAYER10
  6
Continuous
100
AcDbLine
 10
420.497959
 20
352.598463
 30
0.0
 11
420.587355
 21
352.640867
 31
0.0
  0
TEXT
  5
63E
330
1D
100
AcDbEntity
  8
CSLAYER10
100
AcDbText
 10
716.916605268829
 20
265.175941527727
 30
0.0
 40
4.0
  1
125
 50
90.0
 41
0.661764705882
  7
FX_FONT
 72
     5
 11
716.916605268829
 21
272.675941527727
 31
0.0
100
AcDbText
  0
LINE
  5
63F
330
1D
100
AcDbEntity
  8
CSLAYER10
  6
Continuous
100
AcDbLine
 10
695.891454661009
 20
331.640867
 30
0.0
 11
719.335923661009
 21
331.640867
 31
0.0
  0
LINE
  5
640
330
1D
100
AcDbEntity
  8
CSLAYER10
  6
Continuous
100
AcDbLine
 10
695.547171661009
 20
206.640867
 30
0.0
 11
719.335923661009
 21
206.640867
 31
0.0
  0
LINE
  5
641
330
1D
100
AcDbEntity
  8
CSLAYER10
  6
Continuous
100
AcDbLine
 10
718.335923661009
 20
331.640867
 30
0.0
 11
718.335923661009
 21
206.640867
 31
0.0
  0
LINE
  5
642
330
1D
100
AcDbEntity
  8
CSLAYER10
  6
Continuous
100
AcDbLine
 10
718.335923661009
 20
331.640867
 30
0.0
 11
718.853561661009
 21
329.709015
 31
0.0
  0
LINE
  5
643
330
1D
100
AcDbEntity
  8
CSLAYER10
  6
Continuous
100
AcDbLine
 10
718.335923661009
 20
331.640867
 30
0.0
 11
717.818285661009
 21
329.709015
 31
0.0
  0
LINE
  5
644
330
1D
100
AcDbEntity
  8
CSLAYER10
  6
Continuous
100
AcDbLine
 10
718.335923661009
 20
206.640867
 30
0.0
 11
718.853561661009
 21
208.572719
 31
0.0
  0
LINE
  5
645
330
1D
100
AcDbEntity
  8
CSLAYER10
  6
Continuous
100
AcDbLine
 10
718.335923661009
 20
206.640867
 30
0.0
 11
717.818285661009
 21
208.572719
 31
0.0
  0
TEXT
  5
646
330
1D
100
AcDbEntity
  8
CSLAYER10
100
AcDbText
 10
644.903078369754
 20
244.133366214122
 30
0.0
 40
4.0
  1
38
 50
90.0
 41
0.681818181818
  7
FX_FONT
 72
     5
 11
644.903078369754
 21
249.133366214122
 31
0.0
100
AcDbText
  0
LINE
  5
647
330
1D
100
AcDbEntity
  8
CSLAYER10
  6
Continuous
100
AcDbLine
 10
659.741709661009
 20
310.140867
 30
0.0
 11
645.335923661009
 21
310.140867
 31
0.0
  0
LINE
  5
648
330
1D
100
AcDbEntity
  8
CSLAYER10
  6
Continuous
100
AcDbLine
 10
659.741709661009
 20
272.140867
 30
0.0
 11
645.335923661009
 21
272.140867
 31
0.0
  0
LINE
  5
64A
330
1D
100
AcDbEntity
  8
CSLAYER10
  6
Continuous
100
AcDbLine
 10
646.335923661009
 20
310.140867
 30
0.0
 11
646.853561661009
 21
308.209015
 31
0.0
  0
LINE
  5
64B
330
1D
100
AcDbEntity
  8
CSLAYER10
  6
Continuous
100
AcDbLine
 10
646.335923661009
 20
310.140867
 30
0.0
 11
645.818285661009
 21
308.209015
 31
0.0
  0
TEXT
  5
64E
330
1D
100
AcDbEntity
  8
CSLAYER10
100
AcDbText
 10
644.903078369754
 20
288.133350214122
 30
0.0
 40
4.0
  1
38
 50
90.0
 41
0.681818181818
  7
FX_FONT
 72
     5
 11
644.903078369754
 21
293.133350214122
 31
0.0
100
AcDbText
  0
LINE
  5
64F
330
1D
100
AcDbEntity
  8
CSLAYER10
  6
Continuous
100
AcDbLine
 10
659.741709661009
 20
266.140867
 30
0.0
 11
645.335923661009
 21
266.140867
 31
0.0
  0
LINE
  5
650
330
1D
100
AcDbEntity
  8
CSLAYER10
  6
Continuous
100
AcDbLine
 10
659.741709661009
 20
228.140867
 30
0.0
 11
645.335923661009
 21
228.140867
 31
0.0
  0
LINE
  5
651
330
1D
100
AcDbEntity
  8
CSLAYER10
  6
Continuous
100
AcDbLine
 10
646.335923661009
 20
310.140867
 30
0.0
 11
646.335923661009
 21
228.140867
 31
0.0
  0
LINE
  5
652
330
1D
100
AcDbEntity
  8
CSLAYER10
  6
Continuous
100
AcDbLine
 10
645.818285661009
 20
268.072719
 30
0.0
 11
646.853561661009
 21
264.209015
 31
0.0
  0
LINE
  5
653
330
1D
100
AcDbEntity
  8
CSLAYER10
  6
Continuous
100
AcDbLine
 10
646.853561661009
 20
268.072719
 30
0.0
 11
645.818285661009
 21
264.209015
 31
0.0
  0
LINE
  5
654
330
1D
100
AcDbEntity
  8
CSLAYER10
  6
Continuous
100
AcDbLine
 10
646.335923661009
 20
228.140867
 30
0.0
 11
646.853561661009
 21
230.072719
 31
0.0
  0
LINE
  5
655
330
1D
100
AcDbEntity
  8
CSLAYER10
  6
Continuous
100
AcDbLine
 10
646.335923661009
 20
228.140867
 30
0.0
 11
645.818285661009
 21
230.072719
 31
0.0
  0
TEXT
  5
656
330
1D
100
AcDbEntity
  8
CSLAYER10
100
AcDbText
 10
634.717994661009
 20
192.640876
 30
0.0
 40
4.0
  1
2.5
 41
0.661764705882
  7
FX_FONT
 72
     5
 11
642.217994661009
 21
192.640876
 31
0.0
100
AcDbText
  0
LINE
  5
657
330
1D
100
AcDbEntity
  8
CSLAYER10
  6
Continuous
100
AcDbLine
 10
630.967990661009
 20
206.031512
 30
0.0
 11
630.967990661009
 21
190.640867
 31
0.0
  0
LINE
  5
658
330
1D
100
AcDbEntity
  8
CSLAYER10
  6
Continuous
100
AcDbLine
 10
633.467990661009
 20
205.640867
 30
0.0
 11
633.467990661009
 21
180.640867
 31
0.0
  0
LINE
  5
659
330
1D
100
AcDbEntity
  8
CSLAYER10
  6
Continuous
100
AcDbLine
 10
643.467990661009
 20
191.640867
 30
0.0
 11
625.967990661009
 21
191.640867
 31
0.0
  0
LINE
  5
65A
330
1D
100
AcDbEntity
  8
CSLAYER10
  6
Continuous
100
AcDbLine
 10
630.967990661009
 20
191.640867
 30
0.0
 11
629.036138661009
 21
192.158505
 31
0.0
  0
LINE
  5
65B
330
1D
100
AcDbEntity
  8
CSLAYER10
  6
Continuous
100
AcDbLine
 10
630.967990661009
 20
191.640867
 30
0.0
 11
629.036138661009
 21
191.123229
 31
0.0
  0
LINE
  5
65D
330
1D
100
AcDbEntity
  8
CSLAYER10
  6
Continuous
100
AcDbLine
 10
633.467990661009
 20
191.640867
 30
0.0
 11
635.399842661009
 21
192.158505
 31
0.0
  0
LINE
  5
65E
330
1D
100
AcDbEntity
  8
CSLAYER10
  6
Continuous
100
AcDbLine
 10
633.467990661009
 20
191.640867
 30
0.0
 11
635.399842661009
 21
191.123229
 31
0.0
  0
TEXT
  5
660
330
1D
100
AcDbEntity
  8
CSLAYER10
100
AcDbText
 10
620.967994661009
 20
182.640876
 30
0.0
 40
4.0
  1
20
 41
0.705329153605
  7
FX_FONT
 72
     5
 11
625.967994661009
 21
182.640876
 31
0.0
100
AcDbText
  0
LINE
  5
661
330
1D
100
AcDbEntity
  8
CSLAYER10
  6
Continuous
100
AcDbLine
 10
613.467990661009
 20
226.140867
 30
0.0
 11
613.467990661009
 21
180.640867
 31
0.0
  0
LINE
  5
662
330
1D
100
AcDbEntity
  8
CSLAYER10
  6
Continuous
100
AcDbLine
 10
613.467990661009
 20
181.640867
 30
0.0
 11
633.467990661009
 21
181.640867
 31
0.0
  0
LINE
  5
663
330
1D
100
AcDbEntity
  8
CSLAYER10
  6
Continuous
100
AcDbLine
 10
613.467990661009
 20
181.640867
 30
0.0
 11
615.399842661009
 21
182.158505
 31
0.0
  0
LINE
  5
664
330
1D
100
AcDbEntity
  8
CSLAYER10
  6
Continuous
100
AcDbLine
 10
613.467990661009
 20
181.640867
 30
0.0
 11
615.399842661009
 21
181.123229
 31
0.0
  0
LINE
  5
665
330
1D
100
AcDbEntity
  8
CSLAYER10
  6
Continuous
100
AcDbLine
 10
633.467990661009
 20
181.640867
 30
0.0
 11
631.536138661009
 21
182.158505
 31
0.0
  0
LINE
  5
666
330
1D
100
AcDbEntity
  8
CSLAYER10
  6
Continuous
100
AcDbLine
 10
633.467990661009
 20
181.640867
 30
0.0
 11
631.536138661009
 21
181.123229
 31
0.0
  0
TEXT
  5
667
330
1D
100
AcDbEntity
  8
CSLAYER10
100
AcDbText
 10
602.434219912566
 20
266.640858
 30
0.0
 40
4.0
  1
85
 50
90.0
 41
0.681818181818
  7
FX_FONT
 72
     5
 11
602.434219912566
 21
271.640858
 31
0.0
100
AcDbText
  0
LINE
  5
668
330
1D
100
AcDbEntity
  8
CSLAYER10
  6
Continuous
100
AcDbLine
 10
612.967990661009
 20
311.640867
 30
0.0
 11
602.826412661009
 21
311.640867
 31
0.0
  0
LINE
  5
669
330
1D
100
AcDbEntity
  8
CSLAYER10
  6
Continuous
100
AcDbLine
 10
612.967990661009
 20
226.640867
 30
0.0
 11
602.826412661009
 21
226.640867
 31
0.0
  0
LINE
  5
66A
330
1D
100
AcDbEntity
  8
CSLAYER10
  6
Continuous
100
AcDbLine
 10
603.826412661009
 20
311.640867
 30
0.0
 11
603.826412661009
 21
226.640867
 31
0.0
  0
LINE
  5
66B
330
1D
100
AcDbEntity
  8
CSLAYER10
  6
Continuous
100
AcDbLine
 10
603.826412661009
 20
311.640867
 30
0.0
 11
604.344050661009
 21
309.709015
 31
0.0
  0
LINE
  5
66C
330
1D
100
AcDbEntity
  8
CSLAYER10
  6
Continuous
100
AcDbLine
 10
603.826412661009
 20
311.640867
 30
0.0
 11
603.308774661009
 21
309.709015
 31
0.0
  0
LINE
  5
66D
330
1D
100
AcDbEntity
  8
CSLAYER10
  6
Continuous
100
AcDbLine
 10
603.826412661009
 20
226.640867
 30
0.0
 11
604.344050661009
 21
228.572719
 31
0.0
  0
LINE
  5
66E
330
1D
100
AcDbEntity
  8
CSLAYER10
  6
Continuous
100
AcDbLine
 10
603.826412661009
 20
226.640867
 30
0.0
 11
603.308774661009
 21
228.572719
 31
0.0
  0
TEXT
  5
66F
330
1D
100
AcDbEntity
  8
CSLAYER10
100
AcDbText
 10
706.50033891275
 20
265.100848852182
 30
0.0
 40
4.0
  1
105
 50
90.0
 41
0.661440470358
  7
FX_FONT
 72
     5
 11
706.50033891275
 21
272.600848852182
 31
0.0
100
AcDbText
  0
LINE
  5
670
330
1D
100
AcDbEntity
  8
CSLAYER10
  6
Continuous
100
AcDbLine
 10
709.033388661009
 20
321.640867
 30
0.0
 11
709.033388661009
 21
216.640867
 31
0.0
  0
LINE
  5
671
330
1D
100
AcDbEntity
  8
CSLAYER10
  6
Continuous
100
AcDbLine
 10
709.033388661009
 20
321.640867
 30
0.0
 11
709.551026661009
 21
319.709015
 31
0.0
  0
LINE
  5
672
330
1D
100
AcDbEntity
  8
CSLAYER10
  6
Continuous
100
AcDbLine
 10
709.033388661009
 20
321.640867
 30
0.0
 11
708.515750661009
 21
319.709015
 31
0.0
  0
LINE
  5
673
330
1D
100
AcDbEntity
  8
CSLAYER10
  6
Continuous
100
AcDbLine
 10
709.033388661009
 20
216.640867
 30
0.0
 11
709.551026661009
 21
218.572719
 31
0.0
  0
LINE
  5
674
330
1D
100
AcDbEntity
  8
CSLAYER10
  6
Continuous
100
AcDbLine
 10
709.033388661009
 20
216.640867
 30
0.0
 11
708.515750661009
 21
218.572719
 31
0.0
  0
TEXT
  5
675
330
1D
100
AcDbEntity
  8
CSLAYER10
100
AcDbText
 10
187.087357
 20
310.640869
 30
0.0
 40
4.0
  1
%%cD
 50
90.0
 41
0.681818181818
  7
FX_FONT
 72
     5
 11
187.087357
 21
315.640869
 31
0.0
100
AcDbText
  0
LINE
  5
676
330
1D
100
AcDbEntity
  8
CSLAYER10
  6
Continuous
100
AcDbLine
 10
218.299839
 20
289.390867
 30
0.0
 11
187.087355
 21
289.390867
 31
0.0
  0
LINE
  5
677
330
1D
100
AcDbEntity
  8
CSLAYER10
  6
Continuous
100
AcDbLine
 10
218.299839
 20
336.890867
 30
0.0
 11
187.087355
 21
336.890867
 31
0.0
  0
LINE
  5
678
330
1D
100
AcDbEntity
  8
CSLAYER10
  6
Continuous
100
AcDbLine
 10
188.087355
 20
289.390867
 30
0.0
 11
188.087355
 21
336.890867
 31
0.0
  0
LINE
  5
679
330
1D
100
AcDbEntity
  8
CSLAYER10
  6
Continuous
100
AcDbLine
 10
188.087355
 20
289.390867
 30
0.0
 11
187.569717
 21
291.322719
 31
0.0
  0
LINE
  5
67A
330
1D
100
AcDbEntity
  8
CSLAYER10
  6
Continuous
100
AcDbLine
 10
188.087355
 20
289.390867
 30
0.0
 11
188.604993
 21
291.322719
 31
0.0
  0
LINE
  5
67B
330
1D
100
AcDbEntity
  8
CSLAYER10
  6
Continuous
100
AcDbLine
 10
188.087355
 20
336.890867
 30
0.0
 11
187.569717
 21
334.959015
 31
0.0
  0
LINE
  5
67C
330
1D
100
AcDbEntity
  8
CSLAYER10
  6
Continuous
100
AcDbLine
 10
188.087355
 20
336.890867
 30
0.0
 11
188.604993
 21
334.959015
 31
0.0
  0
TEXT
  5
67D
330
1D
100
AcDbEntity
  8
CSLAYER10
100
AcDbText
 10
321.587372
 20
310.640869
 30
0.0
 40
4.0
  1
%%cD
 50
90.0
 41
0.681818181818
  7
FX_FONT
 72
     5
 11
321.587372
 21
315.640869
 31
0.0
100
AcDbText
  0
LINE
  5
67E
330
1D
100
AcDbEntity
  8
CSLAYER10
  6
Continuous
100
AcDbLine
 10
273.033121
 20
289.390867
 30
0.0
 11
323.587355
 21
289.390867
 31
0.0
  0
LINE
  5
67F
330
1D
100
AcDbEntity
  8
CSLAYER10
  6
Continuous
100
AcDbLine
 10
272.771352
 20
336.890867
 30
0.0
 11
323.587355
 21
336.890867
 31
0.0
  0
LINE
  5
680
330
1D
100
AcDbEntity
  8
CSLAYER10
  6
Continuous
100
AcDbLine
 10
322.587355
 20
289.390867
 30
0.0
 11
322.587355
 21
336.890867
 31
0.0
  0
LINE
  5
681
330
1D
100
AcDbEntity
  8
CSLAYER10
  6
Continuous
100
AcDbLine
 10
322.587355
 20
289.390867
 30
0.0
 11
322.069717
 21
291.322719
 31
0.0
  0
LINE
  5
682
330
1D
100
AcDbEntity
  8
CSLAYER10
  6
Continuous
100
AcDbLine
 10
322.587355
 20
289.390867
 30
0.0
 11
323.104993
 21
291.322719
 31
0.0
  0
LINE
  5
683
330
1D
100
AcDbEntity
  8
CSLAYER10
  6
Continuous
100
AcDbLine
 10
322.587355
 20
336.890867
 30
0.0
 11
322.069717
 21
334.959015
 31
0.0
  0
LINE
  5
684
330
1D
100
AcDbEntity
  8
CSLAYER10
  6
Continuous
100
AcDbLine
 10
322.587355
 20
336.890867
 30
0.0
 11
323.104993
 21
334.959015
 31
0.0
  0
TEXT
  5
685
330
1D
100
AcDbEntity
  8
CSLAYER10
100
AcDbText
 10
266.087372
 20
382.640869
 30
0.0
 40
4.0
  1
38
 41
0.681818181818
  7
FX_FONT
 72
     5
 11
271.087372
 21
382.640869
 31
0.0
100
AcDbText
  0
LINE
  5
686
330
1D
100
AcDbEntity
  8
CSLAYER10
  6
Continuous
100
AcDbLine
 10
287.587355
 20
334.091473
 30
0.0
 11
287.587355
 21
382.640867
 31
0.0
  0
LINE
  5
688
330
1D
100
AcDbEntity
  8
CSLAYER10
  6
Continuous
100
AcDbLine
 10
249.587355
 20
381.640867
 30
0.0
 11
251.519206
 21
382.158505
 31
0.0
  0
LINE
  5
689
330
1D
100
AcDbEntity
  8
CSLAYER10
  6
Continuous
100
AcDbLine
 10
249.587355
 20
381.640867
 30
0.0
 11
251.519206
 21
381.123229
 31
0.0
  0
LINE
  5
68A
330
1D
100
AcDbEntity
  8
CSLAYER10
  6
Continuous
100
AcDbLine
 10
287.587355
 20
381.640867
 30
0.0
 11
285.655503
 21
382.158505
 31
0.0
  0
LINE
  5
68B
330
1D
100
AcDbEntity
  8
CSLAYER10
  6
Continuous
100
AcDbLine
 10
287.587355
 20
381.640867
 30
0.0
 11
285.655503
 21
381.123229
 31
0.0
  0
TEXT
  5
68C
330
1D
100
AcDbEntity
  8
CSLAYER10
100
AcDbText
 10
277.337372
 20
373.813232
 30
0.0
 40
4.0
  1
H
 41
0.75
  7
FX_FONT
 72
     5
 11
279.837372
 21
373.813232
 31
0.0
100
AcDbText
  0
LINE
  5
68D
330
1D
100
AcDbEntity
  8
CSLAYER10
  6
Continuous
100
AcDbLine
 10
269.587355
 20
337.890867
 30
0.0
 11
269.587355
 21
373.813225
 31
0.0
  0
LINE
  5
68E
330
1D
100
AcDbEntity
  8
CSLAYER10
  6
Continuous
100
AcDbLine
 10
269.587355
 20
372.813225
 30
0.0
 11
287.587355
 21
372.813225
 31
0.0
  0
LINE
  5
68F
330
1D
100
AcDbEntity
  8
CSLAYER10
  6
Continuous
100
AcDbLine
 10
269.587355
 20
372.813225
 30
0.0
 11
271.519206
 21
373.330863
 31
0.0
  0
LINE
  5
690
330
1D
100
AcDbEntity
  8
CSLAYER10
  6
Continuous
100
AcDbLine
 10
269.587355
 20
372.813225
 30
0.0
 11
271.519206
 21
372.295587
 31
0.0
  0
LINE
  5
691
330
1D
100
AcDbEntity
  8
CSLAYER10
  6
Continuous
100
AcDbLine
 10
287.587355
 20
372.813225
 30
0.0
 11
285.655503
 21
373.330863
 31
0.0
  0
LINE
  5
692
330
1D
100
AcDbEntity
  8
CSLAYER10
  6
Continuous
100
AcDbLine
 10
287.587355
 20
372.813225
 30
0.0
 11
285.655503
 21
372.295587
 31
0.0
  0
TEXT
  5
693
330
1D
100
AcDbEntity
  8
CSLAYER10
100
AcDbText
 10
295.087372
 20
382.640869
 30
0.0
 40
4.0
  1
20
 41
0.705329153605
  7
FX_FONT
 72
     5
 11
300.087372
 21
382.640869
 31
0.0
100
AcDbText
  0
LINE
  5
694
330
1D
100
AcDbEntity
  8
CSLAYER10
  6
Continuous
100
AcDbLine
 10
307.587355
 20
322.56428
 30
0.0
 11
307.587355
 21
382.640867
 31
0.0
  0
LINE
  5
696
330
1D
100
AcDbEntity
  8
CSLAYER10
  6
Continuous
100
AcDbLine
 10
287.587355
 20
381.640867
 30
0.0
 11
289.519206
 21
382.158505
 31
0.0
  0
LINE
  5
697
330
1D
100
AcDbEntity
  8
CSLAYER10
  6
Continuous
100
AcDbLine
 10
287.587355
 20
381.640867
 30
0.0
 11
289.519206
 21
381.123229
 31
0.0
  0
LINE
  5
698
330
1D
100
AcDbEntity
  8
CSLAYER10
  6
Continuous
100
AcDbLine
 10
307.587355
 20
381.640867
 30
0.0
 11
305.655503
 21
382.158505
 31
0.0
  0
LINE
  5
699
330
1D
100
AcDbEntity
  8
CSLAYER10
  6
Continuous
100
AcDbLine
 10
307.587355
 20
381.640867
 30
0.0
 11
305.655503
 21
381.123229
 31
0.0
  0
TEXT
  5
69A
330
1D
100
AcDbEntity
  8
CSLAYER10
100
AcDbText
 10
247.087372
 20
323.140869
 30
0.0
 40
4.0
  1
12
 41
0.681818181818
  7
FX_FONT
 72
     5
 11
252.087372
 21
323.140869
 31
0.0
100
AcDbText
  0
LINE
  5
69B
330
1D
100
AcDbEntity
  8
CSLAYER10
  6
Continuous
100
AcDbLine
 10
243.587355
 20
308.140867
 30
0.0
 11
243.587355
 21
323.140867
 31
0.0
  0
LINE
  5
69C
330
1D
100
AcDbEntity
  8
CSLAYER10
  6
Continuous
100
AcDbLine
 10
255.587355
 20
308.140867
 30
0.0
 11
255.587355
 21
323.140867
 31
0.0
  0
LINE
  5
69D
330
1D
100
AcDbEntity
  8
CSLAYER10
  6
Continuous
100
AcDbLine
 10
243.587355
 20
322.140867
 30
0.0
 11
255.587355
 21
322.140867
 31
0.0
  0
LINE
  5
69E
330
1D
100
AcDbEntity
  8
CSLAYER10
  6
Continuous
100
AcDbLine
 10
243.587355
 20
322.140867
 30
0.0
 11
245.519206
 21
322.658505
 31
0.0
  0
LINE
  5
69F
330
1D
100
AcDbEntity
  8
CSLAYER10
  6
Continuous
100
AcDbLine
 10
243.587355
 20
322.140867
 30
0.0
 11
245.519206
 21
321.623229
 31
0.0
  0
LINE
  5
6A0
330
1D
100
AcDbEntity
  8
CSLAYER10
  6
Continuous
100
AcDbLine
 10
255.587355
 20
322.140867
 30
0.0
 11
253.655503
 21
322.658505
 31
0.0
  0
LINE
  5
6A1
330
1D
100
AcDbEntity
  8
CSLAYER10
  6
Continuous
100
AcDbLine
 10
255.587355
 20
322.140867
 30
0.0
 11
253.655503
 21
321.623229
 31
0.0
  0
TEXT
  5
6A2
330
1D
100
AcDbEntity
  8
CSLAYER10
100
AcDbText
 10
247.087372
 20
222.140869
 30
0.0
 40
4.0
  1
14
 41
0.681818181818
  7
FX_FONT
 72
     5
 11
252.087372
 21
222.140869
 31
0.0
100
AcDbText
  0
LINE
  5
6A3
330
1D
100
AcDbEntity
  8
CSLAYER10
  6
Continuous
100
AcDbLine
 10
242.587355
 20
235.140867
 30
0.0
 11
242.587355
 21
220.140867
 31
0.0
  0
LINE
  5
6A4
330
1D
100
AcDbEntity
  8
CSLAYER10
  6
Continuous
100
AcDbLine
 10
256.587355
 20
235.140867
 30
0.0
 11
256.587355
 21
220.140867
 31
0.0
  0
LINE
  5
6A5
330
1D
100
AcDbEntity
  8
CSLAYER10
  6
Continuous
100
AcDbLine
 10
242.587355
 20
221.140867
 30
0.0
 11
256.587355
 21
221.140867
 31
0.0
  0
LINE
  5
6A6
330
1D
100
AcDbEntity
  8
CSLAYER10
  6
Continuous
100
AcDbLine
 10
242.587355
 20
221.140867
 30
0.0
 11
244.519206
 21
221.658505
 31
0.0
  0
LINE
  5
6A7
330
1D
100
AcDbEntity
  8
CSLAYER10
  6
Continuous
100
AcDbLine
 10
242.587355
 20
221.140867
 30
0.0
 11
244.519206
 21
220.623229
 31
0.0
  0
LINE
  5
6A8
330
1D
100
AcDbEntity
  8
CSLAYER10
  6
Continuous
100
AcDbLine
 10
256.587355
 20
221.140867
 30
0.0
 11
254.655503
 21
221.658505
 31
0.0
  0
LINE
  5
6A9
330
1D
100
AcDbEntity
  8
CSLAYER10
  6
Continuous
100
AcDbLine
 10
256.587355
 20
221.140867
 30
0.0
 11
254.655503
 21
220.623229
 31
0.0
  0
TEXT
  5
6AA
330
1D
100
AcDbEntity
  8
CSLAYER10
100
AcDbText
 10
247.087372
 20
160.640869
 30
0.0
 40
4.0
  1
26
 41
0.681818181818
  7
FX_FONT
 72
     5
 11
252.087372
 21
160.640869
 31
0.0
100
AcDbText
  0
LINE
  5
6AB
330
1D
100
AcDbEntity
  8
CSLAYER10
  6
Continuous
100
AcDbLine
 10
236.587355
 20
173.640867
 30
0.0
 11
236.587355
 21
158.640867
 31
0.0
  0
LINE
  5
6AC
330
1D
100
AcDbEntity
  8
CSLAYER10
  6
Continuous
100
AcDbLine
 10
262.587355
 20
173.640867
 30
0.0
 11
262.587355
 21
158.640867
 31
0.0
  0
LINE
  5
6AD
330
1D
100
AcDbEntity
  8
CSLAYER10
  6
Continuous
100
AcDbLine
 10
236.587355
 20
159.640867
 30
0.0
 11
262.587355
 21
159.640867
 31
0.0
  0
LINE
  5
6AE
330
1D
100
AcDbEntity
  8
CSLAYER10
  6
Continuous
100
AcDbLine
 10
236.587355
 20
159.640867
 30
0.0
 11
238.519206
 21
160.158505
 31
0.0
  0
LINE
  5
6AF
330
1D
100
AcDbEntity
  8
CSLAYER10
  6
Continuous
100
AcDbLine
 10
236.587355
 20
159.640867
 30
0.0
 11
238.519206
 21
159.123229
 31
0.0
  0
LINE
  5
6B0
330
1D
100
AcDbEntity
  8
CSLAYER10
  6
Continuous
100
AcDbLine
 10
262.587355
 20
159.640867
 30
0.0
 11
260.655503
 21
160.158505
 31
0.0
  0
LINE
  5
6B1
330
1D
100
AcDbEntity
  8
CSLAYER10
  6
Continuous
100
AcDbLine
 10
262.587355
 20
159.640867
 30
0.0
 11
260.655503
 21
159.123229
 31
0.0
  0
TEXT
  5
6BA
330
1D
100
AcDbEntity
  8
CSLAYER10
100
AcDbText
 10
183.961708
 20
219.528778893742
 30
0.0
 40
4.0
  1
%%c52
 50
90.0
 41
0.660146699267
  7
FX_FONT
 72
     5
 11
183.961708
 21
227.028778893742
 31
0.0
100
AcDbText
  0
LINE
  5
6BB
330
1D
100
AcDbEntity
  8
CSLAYER10
  6
Continuous
100
AcDbLine
 10
184.961697
 20
202.140867
 30
0.0
 11
184.961697
 21
254.298177
 31
0.0
  0
LINE
  5
6BC
330
1D
100
AcDbEntity
  8
CSLAYER10
  6
Continuous
100
AcDbLine
 10
184.961697
 20
202.140867
 30
0.0
 11
184.444058
 21
204.072718
 31
0.0
  0
LINE
  5
6BD
330
1D
100
AcDbEntity
  8
CSLAYER10
  6
Continuous
100
AcDbLine
 10
184.961697
 20
202.140867
 30
0.0
 11
185.479335
 21
204.072718
 31
0.0
  0
LINE
  5
6BE
330
1D
100
AcDbEntity
  8
CSLAYER10
  6
Continuous
100
AcDbLine
 10
184.961697
 20
254.298177
 30
0.0
 11
184.444058
 21
252.366325
 31
0.0
  0
LINE
  5
6BF
330
1D
100
AcDbEntity
  8
CSLAYER10
  6
Continuous
100
AcDbLine
 10
184.961697
 20
254.298177
 30
0.0
 11
185.479335
 21
252.366325
 31
0.0
  0
TEXT
  5
6C0
330
1D
100
AcDbEntity
  8
CSLAYER10
100
AcDbText
 10
230.837372
 20
150.640854
 30
0.0
 40
4.0
  1
               
 41
1.041666666667
  7
FX_FONT
 72
     5
 11
268.337372
 21
150.640854
 31
0.0
100
AcDbText
  0
LINE
  5
6C1
330
1D
100
AcDbEntity
  8
CSLAYER10
  6
Continuous
100
AcDbLine
 10
229.587355
 20
179.140867
 30
0.0
 11
229.587355
 21
148.640867
 31
0.0
  0
LINE
  5
6C2
330
1D
100
AcDbEntity
  8
CSLAYER10
  6
Continuous
100
AcDbLine
 10
269.587355
 20
189.640867
 30
0.0
 11
269.587355
 21
148.63271
 31
0.0
  0
LINE
  5
6C4
330
1D
100
AcDbEntity
  8
CSLAYER10
  6
Continuous
100
AcDbLine
 10
229.587355
 20
149.640867
 30
0.0
 11
231.519206
 21
150.158505
 31
0.0
  0
LINE
  5
6C5
330
1D
100
AcDbEntity
  8
CSLAYER10
  6
Continuous
100
AcDbLine
 10
229.587355
 20
149.640867
 30
0.0
 11
231.519206
 21
149.123229
 31
0.0
  0
LINE
  5
6C6
330
1D
100
AcDbEntity
  8
CSLAYER10
  6
Continuous
100
AcDbLine
 10
269.587355
 20
149.640867
 30
0.0
 11
267.655503
 21
150.158505
 31
0.0
  0
LINE
  5
6C7
330
1D
100
AcDbEntity
  8
CSLAYER10
  6
Continuous
100
AcDbLine
 10
269.587355
 20
149.640867
 30
0.0
 11
267.655503
 21
149.123229
 31
0.0
  0
TEXT
  5
6C8
330
1D
100
AcDbEntity
  8
CSLAYER10
100
AcDbText
 10
399.337372
 20
323.140869
 30
0.0
 40
4.0
  1
20.5
 41
0.651937703731
  7
FX_FONT
 72
     5
 11
409.337372
 21
323.140869
 31
0.0
100
AcDbText
  0
LINE
  5
6C9
330
1D
100
AcDbEntity
  8
CSLAYER10
  6
Continuous
100
AcDbLine
 10
394.087355
 20
308.140867
 30
0.0
 11
394.087355
 21
323.140867
 31
0.0
  0
LINE
  5
6CA
330
1D
100
AcDbEntity
  8
CSLAYER10
  6
Continuous
100
AcDbLine
 10
394.087355
 20
322.140867
 30
0.0
 11
414.587355
 21
322.140867
 31
0.0
  0
LINE
  5
6CB
330
1D
100
AcDbEntity
  8
CSLAYER10
  6
Continuous
100
AcDbLine
 10
394.087355
 20
322.140867
 30
0.0
 11
396.019206
 21
322.658505
 31
0.0
  0
LINE
  5
6CC
330
1D
100
AcDbEntity
  8
CSLAYER10
  6
Continuous
100
AcDbLine
 10
394.087355
 20
322.140867
 30
0.0
 11
396.019206
 21
321.623229
 31
0.0
  0
LINE
  5
6CD
330
1D
100
AcDbEntity
  8
CSLAYER10
  6
Continuous
100
AcDbLine
 10
414.587355
 20
322.140867
 30
0.0
 11
412.655503
 21
322.658505
 31
0.0
  0
LINE
  5
6CE
330
1D
100
AcDbEntity
  8
CSLAYER10
  6
Continuous
100
AcDbLine
 10
414.587355
 20
322.140867
 30
0.0
 11
412.655503
 21
321.623229
 31
0.0
  0
TEXT
  5
6CF
330
1D
100
AcDbEntity
  8
CSLAYER10
100
AcDbText
 10
405.587372
 20
222.140854
 30
0.0
 40
4.0
  1
13
 41
0.681818181818
  7
FX_FONT
 72
     5
 11
410.587372
 21
222.140854
 31
0.0
100
AcDbText
  0
LINE
  5
6D0
330
1D
100
AcDbEntity
  8
CSLAYER10
  6
Continuous
100
AcDbLine
 10
401.587355
 20
235.140867
 30
0.0
 11
401.587355
 21
220.140867
 31
0.0
  0
LINE
  5
6D1
330
1D
100
AcDbEntity
  8
CSLAYER10
  6
Continuous
100
AcDbLine
 10
401.587355
 20
221.140867
 30
0.0
 11
414.587355
 21
221.140867
 31
0.0
  0
LINE
  5
6D2
330
1D
100
AcDbEntity
  8
CSLAYER10
  6
Continuous
100
AcDbLine
 10
401.587355
 20
221.140867
 30
0.0
 11
403.519206
 21
221.658505
 31
0.0
  0
LINE
  5
6D3
330
1D
100
AcDbEntity
  8
CSLAYER10
  6
Continuous
100
AcDbLine
 10
401.587355
 20
221.140867
 30
0.0
 11
403.519206
 21
220.623229
 31
0.0
  0
LINE
  5
6D4
330
1D
100
AcDbEntity
  8
CSLAYER10
  6
Continuous
100
AcDbLine
 10
414.587355
 20
221.140867
 30
0.0
 11
412.655503
 21
221.658505
 31
0.0
  0
LINE
  5
6D5
330
1D
100
AcDbEntity
  8
CSLAYER10
  6
Continuous
100
AcDbLine
 10
414.587355
 20
221.140867
 30
0.0
 11
412.655503
 21
220.623229
 31
0.0
  0
TEXT
  5
6D6
330
1D
100
AcDbEntity
  8
CSLAYER10
100
AcDbText
 10
383.087372
 20
289.640869
 30
0.0
 40
4.0
  1
30
 50
90.0
 41
0.705329153605
  7
FX_FONT
 72
     5
 11
383.087372
 21
294.640869
 31
0.0
100
AcDbText
  0
LINE
  5
6D7
330
1D
100
AcDbEntity
  8
CSLAYER10
  6
Continuous
100
AcDbLine
 10
393.087355
 20
277.140867
 30
0.0
 11
383.087355
 21
277.140867
 31
0.0
  0
LINE
  5
6D8
330
1D
100
AcDbEntity
  8
CSLAYER10
  6
Continuous
100
AcDbLine
 10
393.087355
 20
307.140867
 30
0.0
 11
383.087355
 21
307.140867
 31
0.0
  0
LINE
  5
6D9
330
1D
100
AcDbEntity
  8
CSLAYER10
  6
Continuous
100
AcDbLine
 10
384.087355
 20
277.140867
 30
0.0
 11
384.087355
 21
307.140867
 31
0.0
  0
LINE
  5
6DA
330
1D
100
AcDbEntity
  8
CSLAYER10
  6
Continuous
100
AcDbLine
 10
384.087355
 20
277.140867
 30
0.0
 11
383.569717
 21
279.072719
 31
0.0
  0
LINE
  5
6DB
330
1D
100
AcDbEntity
  8
CSLAYER10
  6
Continuous
100
AcDbLine
 10
384.087355
 20
277.140867
 30
0.0
 11
384.604993
 21
279.072719
 31
0.0
  0
LINE
  5
6DC
330
1D
100
AcDbEntity
  8
CSLAYER10
  6
Continuous
100
AcDbLine
 10
384.087355
 20
307.140867
 30
0.0
 11
383.569717
 21
305.209015
 31
0.0
  0
LINE
  5
6DD
330
1D
100
AcDbEntity
  8
CSLAYER10
  6
Continuous
100
AcDbLine
 10
384.087355
 20
307.140867
 30
0.0
 11
384.604993
 21
305.209015
 31
0.0
  0
TEXT
  5
6DE
330
1D
100
AcDbEntity
  8
CSLAYER10
100
AcDbText
 10
382.087372
 20
245.640854
 30
0.0
 40
4.0
  1
24
 50
90.0
 41
0.681818181818
  7
FX_FONT
 72
     5
 11
382.087372
 21
250.640854
 31
0.0
100
AcDbText
  0
LINE
  5
6DF
330
1D
100
AcDbEntity
  8
CSLAYER10
  6
Continuous
100
AcDbLine
 10
400.587355
 20
236.140867
 30
0.0
 11
382.087355
 21
236.140867
 31
0.0
  0
LINE
  5
6E0
330
1D
100
AcDbEntity
  8
CSLAYER10
  6
Continuous
100
AcDbLine
 10
400.587355
 20
260.140867
 30
0.0
 11
382.087355
 21
260.140867
 31
0.0
  0
LINE
  5
6E1
330
1D
100
AcDbEntity
  8
CSLAYER10
  6
Continuous
100
AcDbLine
 10
383.087355
 20
236.140867
 30
0.0
 11
383.087355
 21
260.140867
 31
0.0
  0
LINE
  5
6E2
330
1D
100
AcDbEntity
  8
CSLAYER10
  6
Continuous
100
AcDbLine
 10
383.087355
 20
236.140867
 30
0.0
 11
382.569717
 21
238.072719
 31
0.0
  0
LINE
  5
6E3
330
1D
100
AcDbEntity
  8
CSLAYER10
  6
Continuous
100
AcDbLine
 10
383.087355
 20
236.140867
 30
0.0
 11
383.604993
 21
238.072719
 31
0.0
  0
LINE
  5
6E4
330
1D
100
AcDbEntity
  8
CSLAYER10
  6
Continuous
100
AcDbLine
 10
383.087355
 20
260.140867
 30
0.0
 11
382.569717
 21
258.209015
 31
0.0
  0
LINE
  5
6E5
330
1D
100
AcDbEntity
  8
CSLAYER10
  6
Continuous
100
AcDbLine
 10
383.087355
 20
260.140867
 30
0.0
 11
383.604993
 21
258.209015
 31
0.0
  0
TEXT
  5
6E6
330
1D
100
AcDbEntity
  8
CSLAYER10
100
AcDbText
 10
353.587372
 20
269.390869
 30
0.0
 40
4.0
  1
197
 50
90.0
 41
0.66165659206
  7
FX_FONT
 72
     5
 11
353.587372
 21
276.890869
 31
0.0
100
AcDbText
  0
LINE
  5
6E7
330
1D
100
AcDbEntity
  8
CSLAYER10
  6
Continuous
100
AcDbLine
 10
413.587355
 20
174.640867
 30
0.0
 11
353.587355
 21
174.640867
 31
0.0
  0
LINE
  5
6E8
330
1D
100
AcDbEntity
  8
CSLAYER10
  6
Continuous
100
AcDbLine
 10
353.587355
 20
371.640867
 30
0.0
 11
414.130638
 21
371.640867
 31
0.0
  0
LINE
  5
6E9
330
1D
100
AcDbEntity
  8
CSLAYER10
  6
Continuous
100
AcDbLine
 10
354.587355
 20
174.640867
 30
0.0
 11
354.587355
 21
371.640867
 31
0.0
  0
LINE
  5
6EA
330
1D
100
AcDbEntity
  8
CSLAYER10
  6
Continuous
100
AcDbLine
 10
354.587355
 20
174.640867
 30
0.0
 11
354.069717
 21
176.572719
 31
0.0
  0
LINE
  5
6EB
330
1D
100
AcDbEntity
  8
CSLAYER10
  6
Continuous
100
AcDbLine
 10
354.587355
 20
174.640867
 30
0.0
 11
355.104993
 21
176.572719
 31
0.0
  0
LINE
  5
6EC
330
1D
100
AcDbEntity
  8
CSLAYER10
  6
Continuous
100
AcDbLine
 10
354.587355
 20
371.640867
 30
0.0
 11
354.069717
 21
369.709015
 31
0.0
  0
LINE
  5
6ED
330
1D
100
AcDbEntity
  8
CSLAYER10
  6
Continuous
100
AcDbLine
 10
354.587355
 20
371.640867
 30
0.0
 11
355.104993
 21
369.709015
 31
0.0
  0
TEXT
  5
6EE
330
1D
100
AcDbEntity
  8
CSLAYER10
100
AcDbText
 10
363.587372
 20
269.390869
 30
0.0
 40
4.0
  1
172
 50
90.0
 41
0.661764705882
  7
FX_FONT
 72
     5
 11
363.587372
 21
276.890869
 31
0.0
100
AcDbText
  0
LINE
  5
6F2
330
1D
100
AcDbEntity
  8
CSLAYER10
  6
Continuous
100
AcDbLine
 10
364.587355
 20
359.140867
 30
0.0
 11
364.069717
 21
357.209015
 31
0.0
  0
LINE
  5
6F3
330
1D
100
AcDbEntity
  8
CSLAYER10
  6
Continuous
100
AcDbLine
 10
364.587355
 20
359.140867
 30
0.0
 11
365.104993
 21
357.209015
 31
0.0
  0
TEXT
  5
6F4
330
1D
100
AcDbEntity
  8
CSLAYER10
100
AcDbText
 10
363.587372
 20
360.390869
 30
0.0
 40
4.0
  1
12.5
 50
90.0
 41
0.652173913043
  7
FX_FONT
 72
     5
 11
363.587372
 21
370.390869
 31
0.0
100
AcDbText
  0
LINE
  5
6F8
330
1D
100
AcDbEntity
  8
CSLAYER10
  6
Continuous
100
AcDbLine
 10
364.587355
 20
371.640867
 30
0.0
 11
364.069717
 21
369.709015
 31
0.0
  0
LINE
  5
6F9
330
1D
100
AcDbEntity
  8
CSLAYER10
  6
Continuous
100
AcDbLine
 10
364.587355
 20
371.640867
 30
0.0
 11
365.104993
 21
369.709015
 31
0.0
  0
TEXT
  5
6FA
330
1D
100
AcDbEntity
  8
CSLAYER10
100
AcDbText
 10
363.587372
 20
175.90271
 30
0.0
 40
4.0
  1
12.5
 50
90.0
 41
0.652173913043
  7
FX_FONT
 72
     5
 11
363.587372
 21
185.90271
 31
0.0
100
AcDbText
  0
LINE
  5
6FC
330
1D
100
AcDbEntity
  8
CSLAYER10
  6
Continuous
100
AcDbLine
 10
364.587355
 20
187.140867
 30
0.0
 11
364.587355
 21
359.140867
 31
0.0
  0
LINE
  5
6FD
330
1D
100
AcDbEntity
  8
CSLAYER10
  6
Continuous
100
AcDbLine
 10
364.587355
 20
174.640867
 30
0.0
 11
364.069717
 21
176.572719
 31
0.0
  0
LINE
  5
6FE
330
1D
100
AcDbEntity
  8
CSLAYER10
  6
Continuous
100
AcDbLine
 10
364.587355
 20
174.640867
 30
0.0
 11
365.104993
 21
176.572719
 31
0.0
  0
LINE
  5
6FF
330
1D
100
AcDbEntity
  8
CSLAYER10
  6
Continuous
100
AcDbLine
 10
365.104993
 20
189.072719
 30
0.0
 11
364.587355
 21
187.140867
 31
0.0
  0
LINE
  5
700
330
1D
100
AcDbEntity
  8
CSLAYER10
  6
Continuous
100
AcDbLine
 10
364.069717
 20
189.072719
 30
0.0
 11
364.587355
 21
187.140867
 31
0.0
  0
TEXT
  5
701
330
1D
100
AcDbEntity
  8
CSLAYER10
100
AcDbText
 10
373.587372
 20
323.140869
 30
0.0
 40
4.0
  1
67
 50
90.0
 41
0.679245283019
  7
FX_FONT
 72
     5
 11
373.587372
 21
328.140869
 31
0.0
100
AcDbText
  0
LINE
  5
702
330
1D
100
AcDbEntity
  8
CSLAYER10
  6
Continuous
100
AcDbLine
 10
429.122325
 20
292.140867
 30
0.0
 11
385.529747
 21
292.140867
 31
0.0
  0
LINE
  5
706
330
1D
100
AcDbEntity
  8
CSLAYER10
  6
Continuous
100
AcDbLine
 10
374.587355
 20
359.140867
 30
0.0
 11
374.069717
 21
357.209015
 31
0.0
  0
LINE
  5
707
330
1D
100
AcDbEntity
  8
CSLAYER10
  6
Continuous
100
AcDbLine
 10
374.587355
 20
359.140867
 30
0.0
 11
375.104993
 21
357.209015
 31
0.0
  0
LINE
  5
708
330
1D
100
AcDbEntity
  8
CSLAYER10
  6
Continuous
100
AcDbLine
 10
378.444469
 20
292.140867
 30
0.0
 11
373.587355
 21
292.140867
 31
0.0
  0
TEXT
  5
709
330
1D
100
AcDbEntity
  8
CSLAYER10
100
AcDbText
 10
374.071281240826
 20
279.271498082725
 30
0.0
 40
4.0
  1
22
 50
90.0
 41
0.681818181818
  7
FX_FONT
 72
     5
 11
374.071281240826
 21
284.271498082725
 31
0.0
100
AcDbText
  0
LINE
  5
70A
330
1D
100
AcDbEntity
  8
CSLAYER10
  6
Continuous
100
AcDbLine
 10
427.9898
 20
248.140867
 30
0.0
 11
384.112692
 21
248.140867
 31
0.0
  0
LINE
  5
70E
330
1D
100
AcDbEntity
  8
CSLAYER10
  6
Continuous
100
AcDbLine
 10
375.104993
 20
294.072719
 30
0.0
 11
374.587355
 21
292.140867
 31
0.0
  0
LINE
  5
70F
330
1D
100
AcDbEntity
  8
CSLAYER10
  6
Continuous
100
AcDbLine
 10
374.069717
 20
294.072719
 30
0.0
 11
374.587355
 21
292.140867
 31
0.0
  0
LINE
  5
710
330
1D
100
AcDbEntity
  8
CSLAYER10
  6
Continuous
100
AcDbLine
 10
377.735941
 20
248.140867
 30
0.0
 11
373.587355
 21
248.140867
 31
0.0
  0
TEXT
  5
711
330
1D
100
AcDbEntity
  8
CSLAYER10
100
AcDbText
 10
373.587372
 20
215.140854
 30
0.0
 40
4.0
  1
61
 50
90.0
 41
0.746887966805
  7
FX_FONT
 72
     5
 11
373.587372
 21
220.140854
 31
0.0
100
AcDbText
  0
LINE
  5
712
330
1D
100
AcDbEntity
  8
CSLAYER10
  6
Continuous
100
AcDbLine
 10
374.587355
 20
292.140867
 30
0.0
 11
374.587355
 21
359.140867
 31
0.0
  0
LINE
  5
713
330
1D
100
AcDbEntity
  8
CSLAYER10
  6
Continuous
100
AcDbLine
 10
374.587355
 20
187.140867
 30
0.0
 11
374.069717
 21
189.072719
 31
0.0
  0
LINE
  5
714
330
1D
100
AcDbEntity
  8
CSLAYER10
  6
Continuous
100
AcDbLine
 10
374.587355
 20
187.140867
 30
0.0
 11
375.104993
 21
189.072719
 31
0.0
  0
LINE
  5
715
330
1D
100
AcDbEntity
  8
CSLAYER10
  6
Continuous
100
AcDbLine
 10
374.587355
 20
248.140867
 30
0.0
 11
374.069717
 21
246.209015
 31
0.0
  0
LINE
  5
716
330
1D
100
AcDbEntity
  8
CSLAYER10
  6
Continuous
100
AcDbLine
 10
374.587355
 20
248.140867
 30
0.0
 11
375.104993
 21
246.209015
 31
0.0
  0
TEXT
  5
717
330
1D
100
AcDbEntity
  8
CSLAYER10
100
AcDbText
 10
416.337372
 20
165.640854
 30
0.0
 40
4.0
  1
6
 41
0.75
  7
FX_FONT
 72
     5
 11
418.837372
 21
165.640854
 31
0.0
100
AcDbText
  0
LINE
  5
718
330
1D
100
AcDbEntity
  8
CSLAYER10
  6
Continuous
100
AcDbLine
 10
414.587355
 20
173.640867
 30
0.0
 11
414.587355
 21
143.640867
 31
0.0
  0
LINE
  5
719
330
1D
100
AcDbEntity
  8
CSLAYER10
  6
Continuous
100
AcDbLine
 10
420.587355
 20
173.640867
 30
0.0
 11
420.587355
 21
163.640867
 31
0.0
  0
LINE
  5
71A
330
1D
100
AcDbEntity
  8
CSLAYER10
  6
Continuous
100
AcDbLine
 10
414.587355
 20
164.640867
 30
0.0
 11
420.587355
 21
164.640867
 31
0.0
  0
LINE
  5
71B
330
1D
100
AcDbEntity
  8
CSLAYER10
  6
Continuous
100
AcDbLine
 10
414.587355
 20
164.640867
 30
0.0
 11
416.519206
 21
165.158505
 31
0.0
  0
LINE
  5
71C
330
1D
100
AcDbEntity
  8
CSLAYER10
  6
Continuous
100
AcDbLine
 10
414.587355
 20
164.640867
 30
0.0
 11
416.519206
 21
164.123229
 31
0.0
  0
LINE
  5
71D
330
1D
100
AcDbEntity
  8
CSLAYER10
  6
Continuous
100
AcDbLine
 10
420.587355
 20
164.640867
 30
0.0
 11
418.655503
 21
165.158505
 31
0.0
  0
LINE
  5
71E
330
1D
100
AcDbEntity
  8
CSLAYER10
  6
Continuous
100
AcDbLine
 10
420.587355
 20
164.640867
 30
0.0
 11
418.655503
 21
164.123229
 31
0.0
  0
TEXT
  5
71F
330
1D
100
AcDbEntity
  8
CSLAYER10
100
AcDbText
 10
460.337372
 20
145.640854
 30
0.0
 40
4.0
  1
B
 41
0.75
  7
FX_FONT
 72
     5
 11
462.837372
 21
145.640854
 31
0.0
100
AcDbText
  0
LINE
  5
720
330
1D
100
AcDbEntity
  8
CSLAYER10
  6
Continuous
100
AcDbLine
 10
508.587355
 20
204.140867
 30
0.0
 11
508.587355
 21
143.640867
 31
0.0
  0
LINE
  5
721
330
1D
100
AcDbEntity
  8
CSLAYER10
  6
Continuous
100
AcDbLine
 10
414.587355
 20
144.640867
 30
0.0
 11
508.587355
 21
144.640867
 31
0.0
  0
LINE
  5
722
330
1D
100
AcDbEntity
  8
CSLAYER10
  6
Continuous
100
AcDbLine
 10
414.587355
 20
144.640867
 30
0.0
 11
416.519206
 21
145.158505
 31
0.0
  0
LINE
  5
723
330
1D
100
AcDbEntity
  8
CSLAYER10
  6
Continuous
100
AcDbLine
 10
414.587355
 20
144.640867
 30
0.0
 11
416.519206
 21
144.123229
 31
0.0
  0
LINE
  5
724
330
1D
100
AcDbEntity
  8
CSLAYER10
  6
Continuous
100
AcDbLine
 10
508.587355
 20
144.640867
 30
0.0
 11
506.655503
 21
145.158505
 31
0.0
  0
LINE
  5
725
330
1D
100
AcDbEntity
  8
CSLAYER10
  6
Continuous
100
AcDbLine
 10
508.587355
 20
144.640867
 30
0.0
 11
506.655503
 21
144.123229
 31
0.0
  0
TEXT
  5
726
330
1D
100
AcDbEntity
  8
CSLAYER10
100
AcDbText
 10
448.337372
 20
155.640854
 30
0.0
 40
4.0
  1
A
 41
0.75
  7
FX_FONT
 72
     5
 11
450.837372
 21
155.640854
 31
0.0
100
AcDbText
  0
LINE
  5
727
330
1D
100
AcDbEntity
  8
CSLAYER10
  6
Continuous
100
AcDbLine
 10
414.587355
 20
154.640867
 30
0.0
 11
484.587355
 21
154.640867
 31
0.0
  0
LINE
  5
728
330
1D
100
AcDbEntity
  8
CSLAYER10
  6
Continuous
100
AcDbLine
 10
414.587355
 20
154.640867
 30
0.0
 11
416.519206
 21
155.158505
 31
0.0
  0
LINE
  5
729
330
1D
100
AcDbEntity
  8
CSLAYER10
  6
Continuous
100
AcDbLine
 10
414.587355
 20
154.640867
 30
0.0
 11
416.519206
 21
154.123229
 31
0.0
  0
LINE
  5
72A
330
1D
100
AcDbEntity
  8
CSLAYER10
  6
Continuous
100
AcDbLine
 10
484.587355
 20
154.640867
 30
0.0
 11
482.655503
 21
155.158505
 31
0.0
  0
LINE
  5
72B
330
1D
100
AcDbEntity
  8
CSLAYER10
  6
Continuous
100
AcDbLine
 10
484.587355
 20
154.640867
 30
0.0
 11
482.655503
 21
154.123229
 31
0.0
  0
TEXT
  5
72C
330
1D
100
AcDbEntity
  8
CSLAYER10
100
AcDbText
 10
532.587402
 20
184.890854
 30
0.0
 40
4.0
  1
30.5
 50
90.0
 41
0.651937703731
  7
FX_FONT
 72
     5
 11
532.587402
 21
194.890854
 31
0.0
100
AcDbText
  0
LINE
  5
72D
330
1D
100
AcDbEntity
  8
CSLAYER10
  6
Continuous
100
AcDbLine
 10
421.587355
 20
174.640867
 30
0.0
 11
534.587355
 21
174.640867
 31
0.0
  0
LINE
  5
72E
330
1D
100
AcDbEntity
  8
CSLAYER10
  6
Continuous
100
AcDbLine
 10
509.587355
 20
205.140867
 30
0.0
 11
534.587355
 21
205.140867
 31
0.0
  0
LINE
  5
72F
330
1D
100
AcDbEntity
  8
CSLAYER10
  6
Continuous
100
AcDbLine
 10
533.587355
 20
205.140867
 30
0.0
 11
533.587355
 21
341.140867
 31
0.0
  0
LINE
  5
730
330
1D
100
AcDbEntity
  8
CSLAYER10
  6
Continuous
100
AcDbLine
 10
533.587355
 20
174.640867
 30
0.0
 11
533.069717
 21
176.572719
 31
0.0
  0
LINE
  5
731
330
1D
100
AcDbEntity
  8
CSLAYER10
  6
Continuous
100
AcDbLine
 10
533.587355
 20
174.640867
 30
0.0
 11
534.104993
 21
176.572719
 31
0.0
  0
LINE
  5
732
330
1D
100
AcDbEntity
  8
CSLAYER10
  6
Continuous
100
AcDbLine
 10
534.104993
 20
207.072719
 30
0.0
 11
533.587355
 21
205.140867
 31
0.0
  0
LINE
  5
733
330
1D
100
AcDbEntity
  8
CSLAYER10
  6
Continuous
100
AcDbLine
 10
533.069717
 20
207.072719
 30
0.0
 11
533.587355
 21
205.140867
 31
0.0
  0
TEXT
  5
734
330
1D
100
AcDbEntity
  8
CSLAYER10
100
AcDbText
 10
532.587402
 20
351.390869
 30
0.0
 40
4.0
  1
30.5
 50
90.0
 41
0.651937703731
  7
FX_FONT
 72
     5
 11
532.587402
 21
361.390869
 31
0.0
100
AcDbText
  0
LINE
  5
735
330
1D
100
AcDbEntity
  8
CSLAYER10
  6
Continuous
100
AcDbLine
 10
499.355146
 20
341.140867
 30
0.0
 11
534.587355
 21
341.140867
 31
0.0
  0
LINE
  5
736
330
1D
100
AcDbEntity
  8
CSLAYER10
  6
Continuous
100
AcDbLine
 10
421.587355
 20
371.640867
 30
0.0
 11
534.587355
 21
371.640867
 31
0.0
  0
LINE
  5
73A
330
1D
100
AcDbEntity
  8
CSLAYER10
  6
Continuous
100
AcDbLine
 10
533.587355
 20
371.640867
 30
0.0
 11
533.069717
 21
369.709015
 31
0.0
  0
LINE
  5
73B
330
1D
100
AcDbEntity
  8
CSLAYER10
  6
Continuous
100
AcDbLine
 10
533.587355
 20
371.640867
 30
0.0
 11
534.104993
 21
369.709015
 31
0.0
  0
TEXT
  5
73C
330
1D
100
AcDbEntity
  8
CSLAYER10
100
AcDbText
 10
532.587402
 20
269.390869
 30
0.0
 40
4.0
  1
136
 50
90.0
 41
0.661764705882
  7
FX_FONT
 72
     5
 11
532.587402
 21
276.890869
 31
0.0
100
AcDbText
  0
LINE
  5
740
330
1D
100
AcDbEntity
  8
CSLAYER10
  6
Continuous
100
AcDbLine
 10
534.104993
 20
343.072719
 30
0.0
 11
533.587355
 21
341.140867
 31
0.0
  0
LINE
  5
741
330
1D
100
AcDbEntity
  8
CSLAYER10
  6
Continuous
100
AcDbLine
 10
533.069717
 20
343.072719
 30
0.0
 11
533.587355
 21
341.140867
 31
0.0
  0
TEXT
  5
742
330
1D
100
AcDbEntity
  8
CSLAYER10
100
AcDbText
 10
522.587402
 20
268.140869
 30
0.0
 40
4.0
  1
85
 50
90.0
 41
0.681818181818
  7
FX_FONT
 72
     5
 11
522.587402
 21
273.140869
 31
0.0
100
AcDbText
  0
LINE
  5
746
330
1D
100
AcDbEntity
  8
CSLAYER10
  6
Continuous
100
AcDbLine
 10
523.587355
 20
313.140867
 30
0.0
 11
523.069717
 21
311.209015
 31
0.0
  0
LINE
  5
747
330
1D
100
AcDbEntity
  8
CSLAYER10
  6
Continuous
100
AcDbLine
 10
523.587355
 20
313.140867
 30
0.0
 11
524.104993
 21
311.209015
 31
0.0
  0
TEXT
  5
748
330
1D
100
AcDbEntity
  8
CSLAYER10
100
AcDbText
 10
522.587402
 20
214.140854
 30
0.0
 40
4.0
  1
23
 50
90.0
 41
0.681818181818
  7
FX_FONT
 72
     5
 11
522.587402
 21
219.140854
 31
0.0
100
AcDbText
  0
LINE
  5
749
330
1D
100
AcDbEntity
  8
CSLAYER10
  6
Continuous
100
AcDbLine
 10
523.587355
 20
313.125085
 30
0.0
 11
523.587355
 21
228.140867
 31
0.0
  0
LINE
  5
74A
330
1D
100
AcDbEntity
  8
CSLAYER10
  6
Continuous
100
AcDbLine
 10
523.587355
 20
228.140867
 30
0.0
 11
523.069717
 21
226.209015
 31
0.0
  0
LINE
  5
74B
330
1D
100
AcDbEntity
  8
CSLAYER10
  6
Continuous
100
AcDbLine
 10
523.587355
 20
228.140867
 30
0.0
 11
524.104993
 21
226.209015
 31
0.0
  0
LINE
  5
74C
330
1D
100
AcDbEntity
  8
CSLAYER10
  6
Continuous
100
AcDbLine
 10
523.587355
 20
205.140867
 30
0.0
 11
523.069717
 21
207.072719
 31
0.0
  0
LINE
  5
74D
330
1D
100
AcDbEntity
  8
CSLAYER10
  6
Continuous
100
AcDbLine
 10
523.587355
 20
205.140867
 30
0.0
 11
524.104993
 21
207.072719
 31
0.0
  0
TEXT
  5
74E
330
1D
100
AcDbEntity
  8
CSLAYER10
100
AcDbText
 10
522.587402
 20
324.632996
 30
0.0
 40
4.0
  1
28
 50
90.0
 41
0.681818181818
  7
FX_FONT
 72
     5
 11
522.587402
 21
329.632996
 31
0.0
100
AcDbText
  0
LINE
  5
750
330
1D
100
AcDbEntity
  8
CSLAYER10
  6
Continuous
100
AcDbLine
 10
523.587355
 20
313.125085
 30
0.0
 11
523.069717
 21
315.056937
 31
0.0
  0
LINE
  5
751
330
1D
100
AcDbEntity
  8
CSLAYER10
  6
Continuous
100
AcDbLine
 10
523.587355
 20
313.125085
 30
0.0
 11
524.104993
 21
315.056937
 31
0.0
  0
LINE
  5
752
330
1D
100
AcDbEntity
  8
CSLAYER10
  6
Continuous
100
AcDbLine
 10
523.587355
 20
341.140867
 30
0.0
 11
523.069717
 21
339.209015
 31
0.0
  0
LINE
  5
753
330
1D
100
AcDbEntity
  8
CSLAYER10
  6
Continuous
100
AcDbLine
 10
523.587355
 20
341.140867
 30
0.0
 11
524.104993
 21
339.209015
 31
0.0
  0
TEXT
  5
754
330
1D
100
AcDbEntity
  8
CSLAYER10
100
AcDbText
 10
532.383431612822
 20
96.439446658179
 30
0.0
 40
4.0
  1
21 ～ 48
 50
90.0
 41
0.495269892045
  7
FX_FONT
 72
     5
 11
532.383431612822
 21
108.788175966493
 31
0.0
100
AcDbText
  0
LINE
  5
755
330
1D
100
AcDbEntity
  8
CSLAYER10
  6
Continuous
100
AcDbLine
 10
488.782495
 20
76.926326853033
 30
0.0
 11
534.587355
 21
76.926326853033
 31
0.0
  0
LINE
  5
756
330
1D
100
AcDbEntity
  8
CSLAYER10
  6
Continuous
100
AcDbLine
 10
489.550107
 20
127.479607853033
 30
0.0
 11
534.587355
 21
127.479607853033
 31
0.0
  0
LINE
  5
757
330
1D
100
AcDbEntity
  8
CSLAYER10
  6
Continuous
100
AcDbLine
 10
533.587355
 20
76.926326853033
 30
0.0
 11
533.587355
 21
127.479607853033
 31
0.0
  0
LINE
  5
758
330
1D
100
AcDbEntity
  8
CSLAYER10
  6
Continuous
100
AcDbLine
 10
533.587355
 20
76.926326853033
 30
0.0
 11
533.069717
 21
78.858177853033
 31
0.0
  0
LINE
  5
759
330
1D
100
AcDbEntity
  8
CSLAYER10
  6
Continuous
100
AcDbLine
 10
533.587355
 20
76.926326853033
 30
0.0
 11
534.104993
 21
78.858177853033
 31
0.0
  0
LINE
  5
75A
330
1D
100
AcDbEntity
  8
CSLAYER10
  6
Continuous
100
AcDbLine
 10
533.587355
 20
127.479607853033
 30
0.0
 11
533.069717
 21
125.547756853033
 31
0.0
  0
LINE
  5
75B
330
1D
100
AcDbEntity
  8
CSLAYER10
  6
Continuous
100
AcDbLine
 10
533.587355
 20
127.479607853033
 30
0.0
 11
534.104993
 21
125.547756853033
 31
0.0
  0
TEXT
  5
75C
330
1D
100
AcDbEntity
  8
CSLAYER10
100
AcDbText
 10
666.835926661009
 20
285.926505
 30
0.0
 40
4.0
  1
18
 41
0.681818181818
  7
FX_FONT
 72
     5
 11
671.835926661009
 21
285.926505
 31
0.0
100
AcDbText
  0
LINE
  5
75D
330
1D
100
AcDbEntity
  8
CSLAYER10
  6
Continuous
100
AcDbLine
 10
660.335923661009
 20
284.9265
 30
0.0
 11
678.335923661009
 21
284.9265
 31
0.0
  0
LINE
  5
75E
330
1D
100
AcDbEntity
  8
CSLAYER10
  6
Continuous
100
AcDbLine
 10
660.335923661009
 20
284.9265
 30
0.0
 11
662.267775661009
 21
285.444138
 31
0.0
  0
LINE
  5
75F
330
1D
100
AcDbEntity
  8
CSLAYER10
  6
Continuous
100
AcDbLine
 10
660.335923661009
 20
284.9265
 30
0.0
 11
662.267775661009
 21
284.408862
 31
0.0
  0
LINE
  5
760
330
1D
100
AcDbEntity
  8
CSLAYER10
  6
Continuous
100
AcDbLine
 10
678.335923661009
 20
284.9265
 30
0.0
 11
676.404072661009
 21
285.444138
 31
0.0
  0
LINE
  5
761
330
1D
100
AcDbEntity
  8
CSLAYER10
  6
Continuous
100
AcDbLine
 10
678.335923661009
 20
284.9265
 30
0.0
 11
676.404072661009
 21
284.408862
 31
0.0
  0
TEXT
  5
762
330
1D
100
AcDbEntity
  8
CSLAYER10
100
AcDbText
 10
666.835926661009
 20
245.329528
 30
0.0
 40
4.0
  1
18
 41
0.681818181818
  7
FX_FONT
 72
     5
 11
671.835926661009
 21
245.329528
 31
0.0
100
AcDbText
  0
LINE
  5
763
330
1D
100
AcDbEntity
  8
CSLAYER10
  6
Continuous
100
AcDbLine
 10
660.335923661009
 20
244.329525
 30
0.0
 11
678.335923661009
 21
244.329525
 31
0.0
  0
LINE
  5
764
330
1D
100
AcDbEntity
  8
CSLAYER10
  6
Continuous
100
AcDbLine
 10
660.335923661009
 20
244.329525
 30
0.0
 11
662.267775661009
 21
244.847163
 31
0.0
  0
LINE
  5
765
330
1D
100
AcDbEntity
  8
CSLAYER10
  6
Continuous
100
AcDbLine
 10
660.335923661009
 20
244.329525
 30
0.0
 11
662.267775661009
 21
243.811887
 31
0.0
  0
LINE
  5
766
330
1D
100
AcDbEntity
  8
CSLAYER10
  6
Continuous
100
AcDbLine
 10
678.335923661009
 20
244.329525
 30
0.0
 11
676.404072661009
 21
244.847163
 31
0.0
  0
LINE
  5
767
330
1D
100
AcDbEntity
  8
CSLAYER10
  6
Continuous
100
AcDbLine
 10
678.335923661009
 20
244.329525
 30
0.0
 11
676.404072661009
 21
243.811887
 31
0.0
  0
TEXT
  5
768
330
1D
100
AcDbEntity
  8
CSLAYER10
100
AcDbText
 10
660.335926661009
 20
192.640861
 30
0.0
 40
4.0
  1
14
 41
0.681818181818
  7
FX_FONT
 72
     5
 11
665.335926661009
 21
192.640861
 31
0.0
100
AcDbText
  0
LINE
  5
769
330
1D
100
AcDbEntity
  8
CSLAYER10
  6
Continuous
100
AcDbLine
 10
655.835923661009
 20
206.640867
 30
0.0
 11
655.835923661009
 21
190.640867
 31
0.0
  0
LINE
  5
76A
330
1D
100
AcDbEntity
  8
CSLAYER10
  6
Continuous
100
AcDbLine
 10
655.835923661009
 20
191.640867
 30
0.0
 11
669.835923661009
 21
191.640867
 31
0.0
  0
LINE
  5
76B
330
1D
100
AcDbEntity
  8
CSLAYER10
  6
Continuous
100
AcDbLine
 10
655.835923661009
 20
191.640867
 30
0.0
 11
657.767775661009
 21
192.158505
 31
0.0
  0
LINE
  5
76C
330
1D
100
AcDbEntity
  8
CSLAYER10
  6
Continuous
100
AcDbLine
 10
655.835923661009
 20
191.640867
 30
0.0
 11
657.767775661009
 21
191.123229
 31
0.0
  0
LINE
  5
76E
330
1D
100
AcDbEntity
  8
CSLAYER10
  6
Continuous
100
AcDbLine
 10
669.835923661009
 20
191.640867
 30
0.0
 11
667.904072661009
 21
191.123229
 31
0.0
  0
LINE
  5
770
330
1D
100
AcDbEntity
  8
CSLAYER10
  6
Continuous
100
AcDbLine
 10
669.835923661009
 20
191.640867
 30
0.0
 11
667.904072661009
 21
192.158505
 31
0.0
  0
TEXT
  5
772
330
1D
100
AcDbEntity
  8
CSLAYER10
100
AcDbText
 10
670.335926661009
 20
192.640861
 30
0.0
 40
4.0
  1
8.5
 41
0.661764705882
  7
FX_FONT
 72
     5
 11
677.835926661009
 21
192.640861
 31
0.0
100
AcDbText
  0
LINE
  5
773
330
1D
100
AcDbEntity
  8
CSLAYER10
  6
Continuous
100
AcDbLine
 10
678.335923661009
 20
232.140867
 30
0.0
 11
678.335923661009
 21
190.640867
 31
0.0
  0
LINE
  5
775
330
1D
100
AcDbEntity
  8
CSLAYER10
  6
Continuous
100
AcDbLine
 10
669.835923661009
 20
191.640867
 30
0.0
 11
671.767775661009
 21
192.158505
 31
0.0
  0
LINE
  5
776
330
1D
100
AcDbEntity
  8
CSLAYER10
  6
Continuous
100
AcDbLine
 10
669.835923661009
 20
191.640867
 30
0.0
 11
671.767775661009
 21
191.123229
 31
0.0
  0
LINE
  5
777
330
1D
100
AcDbEntity
  8
CSLAYER10
  6
Continuous
100
AcDbLine
 10
678.335923661009
 20
191.640867
 30
0.0
 11
676.404072661009
 21
192.158505
 31
0.0
  0
LINE
  5
778
330
1D
100
AcDbEntity
  8
CSLAYER10
  6
Continuous
100
AcDbLine
 10
678.335923661009
 20
191.640867
 30
0.0
 11
676.404072661009
 21
191.123229
 31
0.0
  0
TEXT
  5
779
330
1D
100
AcDbEntity
  8
CSLAYER10
100
AcDbText
 10
482.087341
 20
192.457565
 30
0.0
 40
4.0
  1
44
 41
0.681818181818
  7
FX_FONT
 72
     5
 11
487.087341
 21
192.457565
 31
0.0
100
AcDbText
  0
LINE
  5
77A
330
1D
100
AcDbEntity
  8
CSLAYER10
  6
Continuous
100
AcDbLine
 10
462.587355
 20
191.457572
 30
0.0
 11
506.587355
 21
191.457572
 31
0.0
  0
LINE
  5
77B
330
1D
100
AcDbEntity
  8
CSLAYER10
  6
Continuous
100
AcDbLine
 10
462.587355
 20
191.457572
 30
0.0
 11
464.519206
 21
191.97521
 31
0.0
  0
LINE
  5
77C
330
1D
100
AcDbEntity
  8
CSLAYER10
  6
Continuous
100
AcDbLine
 10
462.587355
 20
191.457572
 30
0.0
 11
464.519206
 21
190.939934
 31
0.0
  0
LINE
  5
77D
330
1D
100
AcDbEntity
  8
CSLAYER10
  6
Continuous
100
AcDbLine
 10
506.587355
 20
191.457572
 30
0.0
 11
504.655503
 21
191.97521
 31
0.0
  0
LINE
  5
77E
330
1D
100
AcDbEntity
  8
CSLAYER10
  6
Continuous
100
AcDbLine
 10
506.587355
 20
191.457572
 30
0.0
 11
504.655503
 21
190.939934
 31
0.0
  0
TEXT
  5
77F
330
1D
100
AcDbEntity
  8
CSLAYER10
100
AcDbText
 10
644.903078369754
 20
267.383358214122
 30
0.0
 40
4.0
  1
6
 50
90.0
 41
0.75
  7
FX_FONT
 72
     5
 11
644.903078369754
 21
269.883358214122
 31
0.0
100
AcDbText
  0
LINE
  5
781
330
1D
100
AcDbEntity
  8
CSLAYER10
  6
Continuous
100
AcDbLine
 10
645.818285661009
 20
274.072719
 30
0.0
 11
646.853561661009
 21
270.209015
 31
0.0
  0
LINE
  5
782
330
1D
100
AcDbEntity
  8
CSLAYER10
  6
Continuous
100
AcDbLine
 10
646.853561661009
 20
274.072719
 30
0.0
 11
645.818285661009
 21
270.209015
 31
0.0
  0
LINE
  5
785
102
{ACAD_REACTORS
330
FA6
102
}
330
1D
100
AcDbEntity
  8
CSLAYER10
  6
Continuous
100
AcDbLine
 10
477.087355
 20
215.150486
 30
0.0
 11
492.087355
 21
241.131248
 31
0.0
  0
LINE
  5
786
330
1D
100
AcDbEntity
  8
CSLAYER10
  6
Continuous
100
AcDbLine
 10
477.087355
 20
215.150486
 30
0.0
 11
477.604993
 21
217.082337
 31
0.0
  0
LINE
  5
787
330
1D
100
AcDbEntity
  8
CSLAYER10
  6
Continuous
100
AcDbLine
 10
477.087355
 20
215.150486
 30
0.0
 11
478.501568
 21
216.564699
 31
0.0
  0
LINE
  5
788
330
1D
100
AcDbEntity
  8
CSLAYER10
  6
Continuous
100
AcDbLine
 10
492.087355
 20
241.131248
 30
0.0
 11
491.569717
 21
239.199396
 31
0.0
  0
LINE
  5
789
330
1D
100
AcDbEntity
  8
CSLAYER10
  6
Continuous
100
AcDbLine
 10
492.087355
 20
241.131248
 30
0.0
 11
490.673141
 21
239.717034
 31
0.0
  0
LINE
  5
78A
330
1D
100
AcDbEntity
  8
CSLAYER10
  6
Continuous
100
AcDbLine
 10
499.887137
 20
254.640867
 30
0.0
 11
458.346211903974
 21
254.640867
 31
0.0
  0
TEXT
  5
78B
330
1D
100
AcDbEntity
  8
CSLAYER10
100
AcDbText
 10
463.57276724234
 20
256.698425
 30
0.0
 40
4.0
  1
%%C30貫通穴
 41
0.770060334879
  7
FX_FONT
 72
     5
 11
483.085240505576
 21
256.698425
 31
0.0
100
AcDbText
  0
LINE
  5
78C
330
1D
100
AcDbEntity
  8
CSLAYER10
  6
Continuous
100
AcDbLine
 10
492.087355
 20
241.131248
 30
0.0
 11
499.887137
 21
254.640867
 31
0.0
  0
LINE
  5
78D
102
{ACAD_REACTORS
330
F9A
102
}
330
1D
100
AcDbEntity
  8
CSLAYER10
  6
Continuous
100
AcDbLine
 10
475.519643
 20
327.602584
 30
0.0
 11
493.655067
 21
298.843127
 31
0.0
  0
LINE
  5
78E
330
1D
100
AcDbEntity
  8
CSLAYER10
  6
Continuous
100
AcDbLine
 10
475.519643
 20
327.602584
 30
0.0
 11
476.987935
 21
326.244601
 31
0.0
  0
LINE
  5
78F
330
1D
100
AcDbEntity
  8
CSLAYER10
  6
Continuous
100
AcDbLine
 10
475.519643
 20
327.602584
 30
0.0
 11
476.11223
 21
325.69239
 31
0.0
  0
LINE
  5
790
330
1D
100
AcDbEntity
  8
CSLAYER10
  6
Continuous
100
AcDbLine
 10
493.655067
 20
298.843127
 30
0.0
 11
492.186774
 21
300.20111
 31
0.0
  0
LINE
  5
791
330
1D
100
AcDbEntity
  8
CSLAYER10
  6
Continuous
100
AcDbLine
 10
493.655067
 20
298.843127
 30
0.0
 11
493.06248
 21
300.753321
 31
0.0
  0
LINE
  5
797
102
{ACAD_REACTORS
330
13B0
102
}
330
1D
100
AcDbEntity
  8
CSLAYER10
  6
Continuous
100
AcDbLine
 10
416.587355
 20
359.140867
 30
0.0
 11
394.893587
 21
380.834635
 31
0.0
  0
LINE
  5
798
330
1D
100
AcDbEntity
  8
CSLAYER10
  6
Continuous
100
AcDbLine
 10
416.587355
 20
359.140867
 30
0.0
 11
414.855304
 21
360.140867
 31
0.0
  0
LINE
  5
799
330
1D
100
AcDbEntity
  8
CSLAYER10
  6
Continuous
100
AcDbLine
 10
416.587355
 20
359.140867
 30
0.0
 11
415.587355
 21
360.872918
 31
0.0
  0
LINE
  5
79A
330
1D
100
AcDbEntity
  8
CSLAYER10
  6
Continuous
100
AcDbLine
 10
394.893587
 20
380.834635
 30
0.0
 11
370.393587
 21
380.834635
 31
0.0
  0
TEXT
  5
79B
330
1D
100
AcDbEntity
  8
CSLAYER10
100
AcDbText
 10
371.393585
 20
381.834656
 30
0.0
 40
4.0
  1
2-4mmネジ用穴
 41
0.590034965035
  7
FX_FONT
 72
     5
 11
393.893585
 21
381.834656
 31
0.0
100
AcDbText
  0
TEXT
  5
79C
330
1D
100
AcDbEntity
  8
CSLAYER10
100
AcDbText
 10
667.386387661009
 20
139.140876
 30
0.0
 40
4.0
  1
24
 41
0.681818181818
  7
FX_FONT
 72
     5
 11
672.386387661009
 21
139.140876
 31
0.0
100
AcDbText
  0
LINE
  5
79D
330
1D
100
AcDbEntity
  8
CSLAYER10
  6
Continuous
100
AcDbLine
 10
657.938978661009
 20
152.140867
 30
0.0
 11
657.938978661009
 21
137.140867
 31
0.0
  0
LINE
  5
79E
330
1D
100
AcDbEntity
  8
CSLAYER10
  6
Continuous
100
AcDbLine
 10
657.938978661009
 20
138.140867
 30
0.0
 11
681.833789661009
 21
138.140867
 31
0.0
  0
LINE
  5
79F
330
1D
100
AcDbEntity
  8
CSLAYER10
  6
Continuous
100
AcDbLine
 10
657.938978661009
 20
138.140867
 30
0.0
 11
659.870829661009
 21
138.658505
 31
0.0
  0
LINE
  5
7A0
330
1D
100
AcDbEntity
  8
CSLAYER10
  6
Continuous
100
AcDbLine
 10
657.938978661009
 20
138.140867
 30
0.0
 11
659.870829661009
 21
137.623229
 31
0.0
  0
LINE
  5
7A1
330
1D
100
AcDbEntity
  8
CSLAYER10
  6
Continuous
100
AcDbLine
 10
681.833789661009
 20
138.140867
 30
0.0
 11
679.901937661009
 21
138.658505
 31
0.0
  0
LINE
  5
7A2
330
1D
100
AcDbEntity
  8
CSLAYER10
  6
Continuous
100
AcDbLine
 10
681.833789661009
 20
138.140867
 30
0.0
 11
679.901937661009
 21
137.623229
 31
0.0
  0
TEXT
  5
7A3
330
1D
100
AcDbEntity
  8
CSLAYER10
100
AcDbText
 10
681.335888661009
 20
129.140876
 30
0.0
 40
4.0
  1
L
 41
0.75
  7
FX_FONT
 72
     5
 11
683.835888661009
 21
129.140876
 31
0.0
100
AcDbText
  0
LINE
  5
7A4
330
1D
100
AcDbEntity
  8
CSLAYER10
  6
Continuous
100
AcDbLine
 10
669.835923661009
 20
128.140867
 30
0.0
 11
695.335855661009
 21
128.140867
 31
0.0
  0
LINE
  5
7A5
330
1D
100
AcDbEntity
  8
CSLAYER10
  6
Continuous
100
AcDbLine
 10
669.835923661009
 20
128.140867
 30
0.0
 11
671.767775661009
 21
128.658505
 31
0.0
  0
LINE
  5
7A6
330
1D
100
AcDbEntity
  8
CSLAYER10
  6
Continuous
100
AcDbLine
 10
669.835923661009
 20
128.140867
 30
0.0
 11
671.767775661009
 21
127.623229
 31
0.0
  0
LINE
  5
7A7
330
1D
100
AcDbEntity
  8
CSLAYER10
  6
Continuous
100
AcDbLine
 10
695.335855661009
 20
128.140867
 30
0.0
 11
693.404003661009
 21
128.658505
 31
0.0
  0
LINE
  5
7A8
330
1D
100
AcDbEntity
  8
CSLAYER10
  6
Continuous
100
AcDbLine
 10
695.335855661009
 20
128.140867
 30
0.0
 11
693.404003661009
 21
127.623229
 31
0.0
  0
TEXT
  5
7A9
330
1D
100
AcDbEntity
  8
CSLAYER10
100
AcDbText
 10
520.587402
 20
99.712219853033
 30
0.0
 40
4.0
  1
21
 50
90.0
 41
0.75
  7
FX_FONT
 72
     5
 11
520.587402
 21
104.712219853033
 31
0.0
100
AcDbText
  0
LINE
  5
7AA
330
1D
100
AcDbEntity
  8
CSLAYER10
  6
Continuous
100
AcDbLine
 10
508.606265
 20
91.712214853033
 30
0.0
 11
522.587355
 21
91.712214853033
 31
0.0
  0
LINE
  5
7AB
330
1D
100
AcDbEntity
  8
CSLAYER10
  6
Continuous
100
AcDbLine
 10
509.587355
 20
112.712214853033
 30
0.0
 11
522.587355
 21
112.712214853033
 31
0.0
  0
LINE
  5
7AC
330
1D
100
AcDbEntity
  8
CSLAYER10
  6
Continuous
100
AcDbLine
 10
521.587355
 20
91.712214853033
 30
0.0
 11
521.587355
 21
112.712214853033
 31
0.0
  0
LINE
  5
7AD
330
1D
100
AcDbEntity
  8
CSLAYER10
  6
Continuous
100
AcDbLine
 10
521.587355
 20
91.712214853033
 30
0.0
 11
521.069717
 21
93.644066853033
 31
0.0
  0
LINE
  5
7AE
330
1D
100
AcDbEntity
  8
CSLAYER10
  6
Continuous
100
AcDbLine
 10
521.587355
 20
91.712214853033
 30
0.0
 11
522.104993
 21
93.644066853033
 31
0.0
  0
LINE
  5
7AF
330
1D
100
AcDbEntity
  8
CSLAYER10
  6
Continuous
100
AcDbLine
 10
521.587355
 20
112.712214853033
 30
0.0
 11
521.069717
 21
110.780362853033
 31
0.0
  0
LINE
  5
7B0
330
1D
100
AcDbEntity
  8
CSLAYER10
  6
Continuous
100
AcDbLine
 10
521.587355
 20
112.712214853033
 30
0.0
 11
522.104993
 21
110.780362853033
 31
0.0
  0
TEXT
  5
7B1
330
1D
100
AcDbEntity
  8
CSLAYER10
100
AcDbText
 10
430.21756
 20
215.271057
 30
0.0
 40
4.0
  1
2-%%C10貫通穴
 41
0.524912514581
  7
FX_FONT
 72
     5
 11
447.71756
 21
215.271057
 31
0.0
100
AcDbText
  0
LINE
  5
7B2
102
{ACAD_REACTORS
330
FA2
102
}
330
1D
100
AcDbEntity
  8
CSLAYER10
  6
Continuous
100
AcDbLine
 10
459.051821
 20
224.605333
 30
0.0
 11
466.122889
 21
231.676401
 31
0.0
  0
LINE
  5
7B3
330
1D
100
AcDbEntity
  8
CSLAYER10
  6
Continuous
100
AcDbLine
 10
459.051821
 20
224.605333
 30
0.0
 11
460.051821
 21
226.337384
 31
0.0
  0
LINE
  5
7B4
330
1D
100
AcDbEntity
  8
CSLAYER10
  6
Continuous
100
AcDbLine
 10
459.051821
 20
224.605333
 30
0.0
 11
460.783872
 21
225.605333
 31
0.0
  0
LINE
  5
7B5
330
1D
100
AcDbEntity
  8
CSLAYER10
  6
Continuous
100
AcDbLine
 10
466.122889
 20
231.676401
 30
0.0
 11
465.122889
 21
229.94435
 31
0.0
  0
LINE
  5
7B6
330
1D
100
AcDbEntity
  8
CSLAYER10
  6
Continuous
100
AcDbLine
 10
466.122889
 20
231.676401
 30
0.0
 11
464.390838
 21
230.676401
 31
0.0
  0
LINE
  5
7B7
102
{ACAD_REACTORS
330
FA2
102
}
330
1D
100
AcDbEntity
  8
CSLAYER10
  6
Continuous
100
AcDbLine
 10
462.587355
 20
228.140867
 30
0.0
 11
448.717547
 21
214.27106
 31
0.0
  0
LINE
  5
7B8
330
1D
100
AcDbEntity
  8
CSLAYER10
  6
Continuous
100
AcDbLine
 10
448.717547
 20
214.27106
 30
0.0
 11
427.196015
 21
214.27106
 31
0.0
  0
TEXT
  5
7B9
330
1D
100
AcDbEntity
  8
CSLAYER10
100
AcDbText
 10
302.087341
 20
150.632706
 30
0.0
 40
4.0
  1
70
 41
0.705329153605
  7
FX_FONT
 72
     5
 11
307.087341
 21
150.632706
 31
0.0
100
AcDbText
  0
LINE
  5
7BA
330
1D
100
AcDbEntity
  8
CSLAYER10
  6
Continuous
100
AcDbLine
 10
339.587355
 20
204.20698
 30
0.0
 11
339.587355
 21
148.63271
 31
0.0
  0
LINE
  5
7BB
330
1D
100
AcDbEntity
  8
CSLAYER10
  6
Continuous
100
AcDbLine
 10
269.587355
 20
149.63271
 30
0.0
 11
339.587355
 21
149.63271
 31
0.0
  0
LINE
  5
7BC
330
1D
100
AcDbEntity
  8
CSLAYER10
  6
Continuous
100
AcDbLine
 10
269.587355
 20
149.63271
 30
0.0
 11
271.519206
 21
150.150348
 31
0.0
  0
LINE
  5
7BD
330
1D
100
AcDbEntity
  8
CSLAYER10
  6
Continuous
100
AcDbLine
 10
269.587355
 20
149.63271
 30
0.0
 11
271.519206
 21
149.115072
 31
0.0
  0
LINE
  5
7BE
330
1D
100
AcDbEntity
  8
CSLAYER10
  6
Continuous
100
AcDbLine
 10
339.587355
 20
149.63271
 30
0.0
 11
337.655503
 21
150.150348
 31
0.0
  0
LINE
  5
7BF
330
1D
100
AcDbEntity
  8
CSLAYER10
  6
Continuous
100
AcDbLine
 10
339.587355
 20
149.63271
 30
0.0
 11
337.655503
 21
149.115072
 31
0.0
  0
TEXT
  5
7C0
330
1D
100
AcDbEntity
  8
CSLAYER10
100
AcDbText
 10
644.666621370423
 20
170.646035463328
 30
0.0
 40
4.0
  1
2
 50
90.0
 41
0.75
  7
FX_FONT
 72
     5
 11
644.666621370423
 21
173.146035463328
 31
0.0
100
AcDbText
  0
LINE
  5
7C1
330
1D
100
AcDbEntity
  8
CSLAYER10
  6
Continuous
100
AcDbLine
 10
655.109375661009
 20
173.140867
 30
0.0
 11
645.109375661009
 21
173.140867
 31
0.0
  0
LINE
  5
7C2
330
1D
100
AcDbEntity
  8
CSLAYER10
  6
Continuous
100
AcDbLine
 10
655.109375661009
 20
171.140867
 30
0.0
 11
645.109375661009
 21
171.140867
 31
0.0
  0
LINE
  5
7C5
330
1D
100
AcDbEntity
  8
CSLAYER10
  6
Continuous
100
AcDbLine
 10
646.109375661009
 20
173.140867
 30
0.0
 11
646.627014661009
 21
175.072719
 31
0.0
  0
LINE
  5
7C6
330
1D
100
AcDbEntity
  8
CSLAYER10
  6
Continuous
100
AcDbLine
 10
646.109375661009
 20
173.140867
 30
0.0
 11
645.591737661009
 21
175.072719
 31
0.0
  0
LINE
  5
7C7
330
1D
100
AcDbEntity
  8
CSLAYER10
  6
Continuous
100
AcDbLine
 10
646.109375661009
 20
178.140867
 30
0.0
 11
646.109375661009
 21
166.140867
 31
0.0
  0
LINE
  5
7C8
330
1D
100
AcDbEntity
  8
CSLAYER10
  6
Continuous
100
AcDbLine
 10
646.109375661009
 20
171.140867
 30
0.0
 11
646.627014661009
 21
169.209015
 31
0.0
  0
LINE
  5
7C9
330
1D
100
AcDbEntity
  8
CSLAYER10
  6
Continuous
100
AcDbLine
 10
646.109375661009
 20
171.140867
 30
0.0
 11
645.591737661009
 21
169.209015
 31
0.0
  0
TEXT
  5
7CA
330
1D
100
AcDbEntity
  8
CSLAYER10
100
AcDbText
 10
190.087357
 20
150.640869
 30
0.0
 40
4.0
  1
74
 41
0.681818181818
  7
FX_FONT
 72
     5
 11
195.087357
 21
150.640869
 31
0.0
100
AcDbText
  0
LINE
  5
7CB
330
1D
100
AcDbEntity
  8
CSLAYER10
  6
Continuous
100
AcDbLine
 10
155.587355
 20
205.140867
 30
0.0
 11
155.587355
 21
148.640867
 31
0.0
  0
LINE
  5
7CC
330
1D
100
AcDbEntity
  8
CSLAYER10
  6
Continuous
100
AcDbLine
 10
155.587355
 20
149.640867
 30
0.0
 11
229.587355
 21
149.640867
 31
0.0
  0
LINE
  5
7CD
330
1D
100
AcDbEntity
  8
CSLAYER10
  6
Continuous
100
AcDbLine
 10
155.587355
 20
149.640867
 30
0.0
 11
157.519206
 21
150.158505
 31
0.0
  0
LINE
  5
7CE
330
1D
100
AcDbEntity
  8
CSLAYER10
  6
Continuous
100
AcDbLine
 10
155.587355
 20
149.640867
 30
0.0
 11
157.519206
 21
149.123229
 31
0.0
  0
LINE
  5
7CF
330
1D
100
AcDbEntity
  8
CSLAYER10
  6
Continuous
100
AcDbLine
 10
229.587355
 20
149.640867
 30
0.0
 11
227.655503
 21
150.158505
 31
0.0
  0
LINE
  5
7D0
330
1D
100
AcDbEntity
  8
CSLAYER10
  6
Continuous
100
AcDbLine
 10
229.587355
 20
149.640867
 30
0.0
 11
227.655503
 21
149.123229
 31
0.0
  0
TEXT
  5
7D1
330
1D
100
AcDbEntity
  8
CSLAYER10
100
AcDbText
 10
201.087357
 20
373.813232
 30
0.0
 40
4.0
  1
    H    
 41
0.969827586207
  7
FX_FONT
 72
     5
 11
223.587357
 21
373.813232
 31
0.0
100
AcDbText
  0
LINE
  5
7D2
330
1D
100
AcDbEntity
  8
CSLAYER10
  6
Continuous
100
AcDbLine
 10
203.087355
 20
334.640867
 30
0.0
 11
203.087355
 21
382.640867
 31
0.0
  0
LINE
  5
7D3
330
1D
100
AcDbEntity
  8
CSLAYER10
  6
Continuous
100
AcDbLine
 10
221.587355
 20
346.065523
 30
0.0
 11
221.587355
 21
373.813225
 31
0.0
  0
LINE
  5
7D4
330
1D
100
AcDbEntity
  8
CSLAYER10
  6
Continuous
100
AcDbLine
 10
203.087355
 20
372.813225
 30
0.0
 11
221.587355
 21
372.813225
 31
0.0
  0
LINE
  5
7D5
330
1D
100
AcDbEntity
  8
CSLAYER10
  6
Continuous
100
AcDbLine
 10
203.087355
 20
372.813225
 30
0.0
 11
205.019206
 21
373.330863
 31
0.0
  0
LINE
  5
7D6
330
1D
100
AcDbEntity
  8
CSLAYER10
  6
Continuous
100
AcDbLine
 10
203.087355
 20
372.813225
 30
0.0
 11
205.019206
 21
372.295587
 31
0.0
  0
LINE
  5
7D7
330
1D
100
AcDbEntity
  8
CSLAYER10
  6
Continuous
100
AcDbLine
 10
221.587355
 20
372.813225
 30
0.0
 11
219.655503
 21
373.330863
 31
0.0
  0
LINE
  5
7D8
330
1D
100
AcDbEntity
  8
CSLAYER10
  6
Continuous
100
AcDbLine
 10
221.587355
 20
372.813225
 30
0.0
 11
219.655503
 21
372.295587
 31
0.0
  0
LINE
  5
7DA
330
1D
100
AcDbEntity
  8
CSLAYER10
  6
Continuous
100
AcDbLine
 10
203.087355
 20
381.640867
 30
0.0
 11
249.587355
 21
381.640867
 31
0.0
  0
LINE
  5
7DB
330
1D
100
AcDbEntity
  8
CSLAYER10
  6
Continuous
100
AcDbLine
 10
203.087355
 20
381.640867
 30
0.0
 11
205.019206
 21
382.158505
 31
0.0
  0
LINE
  5
7DC
330
1D
100
AcDbEntity
  8
CSLAYER10
  6
Continuous
100
AcDbLine
 10
203.087355
 20
381.640867
 30
0.0
 11
205.019206
 21
381.123229
 31
0.0
  0
LINE
  5
7DD
330
1D
100
AcDbEntity
  8
CSLAYER10
  6
Continuous
100
AcDbLine
 10
249.587355
 20
381.640867
 30
0.0
 11
247.655503
 21
382.158505
 31
0.0
  0
LINE
  5
7DE
330
1D
100
AcDbEntity
  8
CSLAYER10
  6
Continuous
100
AcDbLine
 10
249.587355
 20
381.640867
 30
0.0
 11
247.655503
 21
381.123229
 31
0.0
  0
TEXT
  5
7DF
330
1D
100
AcDbEntity
  8
CSLAYER10
100
AcDbText
 10
224.337357
 20
160.640869
 30
0.0
 40
4.0
  1
8
 41
0.75
  7
FX_FONT
 72
     5
 11
226.837357
 21
160.640869
 31
0.0
100
AcDbText
  0
LINE
  5
7E0
330
1D
100
AcDbEntity
  8
CSLAYER10
  6
Continuous
100
AcDbLine
 10
221.587355
 20
182.140867
 30
0.0
 11
221.587355
 21
158.640867
 31
0.0
  0
LINE
  5
7E1
330
1D
100
AcDbEntity
  8
CSLAYER10
  6
Continuous
100
AcDbLine
 10
221.587355
 20
159.640867
 30
0.0
 11
229.587355
 21
159.640867
 31
0.0
  0
LINE
  5
7E2
330
1D
100
AcDbEntity
  8
CSLAYER10
  6
Continuous
100
AcDbLine
 10
221.587355
 20
159.640867
 30
0.0
 11
223.519206
 21
160.158505
 31
0.0
  0
LINE
  5
7E3
330
1D
100
AcDbEntity
  8
CSLAYER10
  6
Continuous
100
AcDbLine
 10
221.587355
 20
159.640867
 30
0.0
 11
223.519206
 21
159.123229
 31
0.0
  0
LINE
  5
7E4
330
1D
100
AcDbEntity
  8
CSLAYER10
  6
Continuous
100
AcDbLine
 10
229.587355
 20
159.640867
 30
0.0
 11
227.655503
 21
160.158505
 31
0.0
  0
LINE
  5
7E5
330
1D
100
AcDbEntity
  8
CSLAYER10
  6
Continuous
100
AcDbLine
 10
229.587355
 20
159.640867
 30
0.0
 11
227.655503
 21
159.123229
 31
0.0
  0
TEXT
  5
7E6
330
1D
100
AcDbEntity
  8
CSLAYER10
100
AcDbText
 10
73.087357
 20
166.140869
 30
0.0
 40
4.0
  1
96
 41
0.681646048978
  7
FX_FONT
 72
     5
 11
78.087357
 21
166.140869
 31
0.0
100
AcDbText
  0
LINE
  5
7E7
330
1D
100
AcDbEntity
  8
CSLAYER10
  6
Continuous
100
AcDbLine
 10
27.587355
 20
219.218913
 30
0.0
 11
27.587355
 21
164.140867
 31
0.0
  0
LINE
  5
7E8
330
1D
100
AcDbEntity
  8
CSLAYER10
  6
Continuous
100
AcDbLine
 10
123.587355
 20
217.673034
 30
0.0
 11
123.587355
 21
164.140867
 31
0.0
  0
LINE
  5
7E9
330
1D
100
AcDbEntity
  8
CSLAYER10
  6
Continuous
100
AcDbLine
 10
27.587355
 20
165.140867
 30
0.0
 11
123.587355
 21
165.140867
 31
0.0
  0
LINE
  5
7EA
330
1D
100
AcDbEntity
  8
CSLAYER10
  6
Continuous
100
AcDbLine
 10
27.587355
 20
165.140867
 30
0.0
 11
29.519206
 21
165.658505
 31
0.0
  0
LINE
  5
7EB
330
1D
100
AcDbEntity
  8
CSLAYER10
  6
Continuous
100
AcDbLine
 10
27.587355
 20
165.140867
 30
0.0
 11
29.519206
 21
164.623229
 31
0.0
  0
LINE
  5
7EC
330
1D
100
AcDbEntity
  8
CSLAYER10
  6
Continuous
100
AcDbLine
 10
123.587355
 20
165.140867
 30
0.0
 11
121.655503
 21
165.658505
 31
0.0
  0
LINE
  5
7ED
330
1D
100
AcDbEntity
  8
CSLAYER10
  6
Continuous
100
AcDbLine
 10
123.587355
 20
165.140867
 30
0.0
 11
121.655503
 21
164.623229
 31
0.0
  0
TEXT
  5
7F6
330
1D
100
AcDbEntity
  8
CSLAYER10
100
AcDbText
 10
63.087357
 20
364.140869
 30
0.0
 40
4.0
  1
    70    
 41
0.918929957117
  7
FX_FONT
 72
     5
 11
88.087357
 21
364.140869
 31
0.0
100
AcDbText
  0
LINE
  5
7F7
330
1D
100
AcDbEntity
  8
CSLAYER10
  6
Continuous
100
AcDbLine
 10
40.170688
 20
316.764808
 30
0.0
 11
40.170688
 21
364.140867
 31
0.0
  0
LINE
  5
7F8
330
1D
100
AcDbEntity
  8
CSLAYER10
  6
Continuous
100
AcDbLine
 10
111.004021
 20
317.254202
 30
0.0
 11
111.004021
 21
364.140867
 31
0.0
  0
LINE
  5
7F9
330
1D
100
AcDbEntity
  8
CSLAYER10
  6
Continuous
100
AcDbLine
 10
40.170688
 20
363.140867
 30
0.0
 11
111.004021
 21
363.140867
 31
0.0
  0
LINE
  5
7FA
330
1D
100
AcDbEntity
  8
CSLAYER10
  6
Continuous
100
AcDbLine
 10
40.170688
 20
363.140867
 30
0.0
 11
42.10254
 21
363.658505
 31
0.0
  0
LINE
  5
7FB
330
1D
100
AcDbEntity
  8
CSLAYER10
  6
Continuous
100
AcDbLine
 10
40.170688
 20
363.140867
 30
0.0
 11
42.10254
 21
362.623229
 31
0.0
  0
LINE
  5
7FC
330
1D
100
AcDbEntity
  8
CSLAYER10
  6
Continuous
100
AcDbLine
 10
111.004021
 20
363.140867
 30
0.0
 11
109.07217
 21
363.658505
 31
0.0
  0
LINE
  5
7FD
330
1D
100
AcDbEntity
  8
CSLAYER10
  6
Continuous
100
AcDbLine
 10
111.004021
 20
363.140867
 30
0.0
 11
109.07217
 21
362.623229
 31
0.0
  0
TEXT
  5
85C
330
1D
100
AcDbEntity
  8
CSLAYER10
100
AcDbText
 10
224.774477798406
 20
381.775346705579
 30
0.0
 40
4.0
  1
Ａ
 41
1.048908312429
  7
FX_FONT
 72
     5
 11
228.410693281492
 21
381.775346705579
 31
0.0
100
AcDbText
  0
LINE
  5
866
330
1D
100
AcDbEntity
  8
CSLAYER10
  6
Continuous
100
AcDbLine
 10
148.541832082915
 20
88.483775814719
 30
0.0
 11
211.063343409772
 21
88.483775814719
 31
0.0
  0
LINE
  5
867
330
1D
100
AcDbEntity
  8
CSLAYER10
  6
Continuous
100
AcDbLine
 10
123.541832082915
 20
96.483775814719
 30
0.0
 11
211.063343409772
 21
96.483775814719
 31
0.0
  0
LINE
  5
868
330
1D
100
AcDbEntity
  8
CSLAYER10
  6
Continuous
100
AcDbLine
 10
148.541832082915
 20
80.483775814719
 30
0.0
 11
211.063343409772
 21
80.483775814719
 31
0.0
  0
LINE
  5
869
330
1D
100
AcDbEntity
  8
CSLAYER10
  6
Continuous
100
AcDbLine
 10
179.605289956618
 20
80.483775814719
 30
0.0
 11
179.605289956618
 21
40.483775814719
 31
0.0
  0
TEXT
  5
86A
330
1D
100
AcDbEntity
  8
CSLAYER10
  6
Continuous
100
AcDbText
 10
154.79486313695
 20
90.617766828837
 30
0.0
 40
4.0
  1
Xキーシリンダー、ピンシリンダー、サムターン
 41
0.5
  7
FX_FONT
100
AcDbText
  0
TEXT
  5
86E
330
1D
100
AcDbEntity
  8
CSLAYER10
  6
Continuous
100
AcDbText
 10
170.804890872468
 20
82.397737399337
 30
0.0
 40
4.0
  1
Ａ＝47
  7
FX_FONT
100
AcDbText
  0
LINE
  5
8B5
330
1D
100
AcDbEntity
  8
CSLAYER10
  6
Continuous
100
AcDbLine
 10
219.412779956779
 20
40.483775814719
 30
0.0
 11
306.969851283637
 21
40.483775814719
 31
0.0
  0
LINE
  5
8B6
330
1D
100
AcDbEntity
  8
CSLAYER10
  6
Continuous
100
AcDbLine
 10
219.448339956779
 20
72.483775814719
 30
0.0
 11
306.969851283637
 21
72.483775814719
 31
0.0
  0
LINE
  5
8B7
330
1D
100
AcDbEntity
  8
CSLAYER10
  6
Continuous
100
AcDbLine
 10
244.448339956779
 20
40.483775814719
 30
0.0
 11
244.448339956779
 21
96.483775814719
 31
0.0
  0
TEXT
  5
8B8
330
1D
100
AcDbEntity
  8
CSLAYER10
  6
Continuous
100
AcDbText
 10
251.623465433745
 20
73.954908487081
 30
0.0
 40
4.0
  1
高さ(H)
 41
0.89552238806
  7
FX_FONT
 72
     5
 11
269.623465433745
 21
73.954908487081
 31
0.0
100
AcDbText
  0
TEXT
  5
8B9
330
1D
100
AcDbEntity
  8
CSLAYER10
  6
Continuous
100
AcDbText
 10
282.260387288434
 20
74.430618575497
 30
0.0
 40
4.0
  1
直径(D)
 41
0.89552238806
  7
FX_FONT
 72
     5
 11
300.260387288434
 21
74.430618575497
 31
0.0
100
AcDbText
  0
TEXT
  5
8BA
330
1D
100
AcDbEntity
  8
CSLAYER10
  6
Continuous
100
AcDbText
 10
254.545007590429
 20
65.646208711567
 30
0.0
 40
4.0
  1
22.5
 41
0.652173913043
  7
FX_FONT
 72
     5
 11
264.545007590429
 21
65.646208711567
 31
0.0
100
AcDbText
  0
TEXT
  5
8BB
330
1D
100
AcDbEntity
  8
CSLAYER10
  6
Continuous
100
AcDbText
 10
254.551843590429
 20
57.946295711567
 30
0.0
 40
4.0
  1
21.5
 41
0.652173913043
  7
FX_FONT
 72
     5
 11
264.551843590429
 21
57.946295711567
 31
0.0
100
AcDbText
  0
TEXT
  5
8BC
330
1D
100
AcDbEntity
  8
CSLAYER10
  6
Continuous
100
AcDbText
 10
254.545007590429
 20
49.945876711567
 30
0.0
 40
4.0
  1
18.5
 41
0.652173913043
  7
FX_FONT
 72
     5
 11
264.545007590429
 21
49.945876711567
 31
0.0
100
AcDbText
  0
TEXT
  5
8BD
330
1D
100
AcDbEntity
  8
CSLAYER10
  6
Continuous
100
AcDbText
 10
254.142419590429
 20
41.894423711567
 30
0.0
 40
4.0
  1
16.0
 41
0.661521499449
  7
FX_FONT
 72
     5
 11
264.142419590429
 21
41.894423711567
 31
0.0
100
AcDbText
  0
TEXT
  5
8BE
330
1D
100
AcDbEntity
  8
CSLAYER10
  6
Continuous
100
AcDbText
 10
284.399733445118
 20
66.312424799983
 30
0.0
 40
4.0
  1
%%C49.0
 41
0.689599186677
  7
FX_FONT
 72
     5
 11
297.564692732989
 21
66.312424799983
 31
0.0
100
AcDbText
  0
TEXT
  5
8BF
330
1D
100
AcDbEntity
  8
CSLAYER10
  6
Continuous
100
AcDbText
 10
284.399733445118
 20
58.422005799983
 30
0.0
 40
4.0
  1
%%C48.5
 41
0.69668083316
  7
FX_FONT
 72
     5
 11
297.868896219545
 21
58.422005799983
 31
0.0
100
AcDbText
  0
TEXT
  5
8C0
330
1D
100
AcDbEntity
  8
CSLAYER10
  6
Continuous
100
AcDbText
 10
284.505598445118
 20
50.019013799983
 30
0.0
 40
4.0
  1
%%C47.5
 41
0.694241319729
  7
FX_FONT
 72
     5
 11
297.927597293208
 21
50.019013799983
 31
0.0
100
AcDbText
  0
TEXT
  5
8C1
330
1D
100
AcDbEntity
  8
CSLAYER10
  6
Continuous
100
AcDbText
 10
284.399733445118
 20
42.641152799983
 30
0.0
 40
4.0
  1
%%C46.5
 41
0.716606883837
  7
FX_FONT
 72
     5
 11
298.274038946082
 21
42.641152799983
 31
0.0
100
AcDbText
  0
LINE
  5
8C2
330
1D
100
AcDbEntity
  8
CSLAYER10
  6
Continuous
100
AcDbLine
 10
219.448339956779
 20
64.483775814719
 30
0.0
 11
306.969851283637
 21
64.483775814719
 31
0.0
  0
LINE
  5
8C3
330
1D
100
AcDbEntity
  8
CSLAYER10
  6
Continuous
100
AcDbLine
 10
306.969851283637
 20
56.483775814719
 30
0.0
 11
219.448339956779
 21
56.483775814719
 31
0.0
  0
LINE
  5
8C4
330
1D
100
AcDbEntity
  8
CSLAYER10
  6
Continuous
100
AcDbLine
 10
219.448339956779
 20
48.483775814719
 30
0.0
 11
306.969851283637
 21
48.483775814719
 31
0.0
  0
TEXT
  5
8C5
330
1D
100
AcDbEntity
  8
CSLAYER10
  6
Continuous
100
AcDbText
 10
225.882394956779
 20
81.509778183112
 30
0.0
 40
5.0
  1
扉厚
 41
1.125
  7
FX_FONT
 72
     5
 11
237.882394956779
 21
81.509778183112
 31
0.0
100
AcDbText
  0
LINE
  5
8CB
330
1D
100
AcDbEntity
  8
CSLAYER10
  6
Continuous
100
AcDbLine
 10
244.448339956779
 20
88.483775814719
 30
0.0
 11
306.969851283637
 21
88.483775814719
 31
0.0
  0
LINE
  5
8CC
330
1D
100
AcDbEntity
  8
CSLAYER10
  6
Continuous
100
AcDbLine
 10
219.448339956779
 20
96.483775814719
 30
0.0
 11
306.969851283637
 21
96.483775814719
 31
0.0
  0
LINE
  5
8CD
330
1D
100
AcDbEntity
  8
CSLAYER10
  6
Continuous
100
AcDbLine
 10
244.448339956779
 20
80.483775814719
 30
0.0
 11
306.969851283637
 21
80.483775814719
 31
0.0
  0
LINE
  5
8CE
330
1D
100
AcDbEntity
  8
CSLAYER10
  6
Continuous
100
AcDbLine
 10
275.511797830482
 20
80.483775814719
 30
0.0
 11
275.511797830482
 21
40.483775814719
 31
0.0
  0
TEXT
  5
8D0
330
1D
100
AcDbEntity
  8
CSLAYER10
  6
Continuous
100
AcDbText
 10
266.711398746333
 20
82.397737399337
 30
0.0
 40
4.0
  1
Ａ＝49.5
  7
FX_FONT
100
AcDbText
  0
TEXT
  5
901
330
1D
100
AcDbEntity
  8
CSLAYER10
  6
Continuous
100
AcDbText
 10
228.398305834904
 20
65.982766122666
 30
0.0
 40
4.0
  1
36
100
AcDbText
  0
TEXT
  5
902
330
1D
100
AcDbEntity
  8
CSLAYER10
  6
Continuous
100
AcDbText
 10
228.023558257917
 20
58.379233180199
 30
0.0
 40
4.0
  1
40
100
AcDbText
  0
TEXT
  5
903
330
1D
100
AcDbEntity
  8
CSLAYER10
  6
Continuous
100
AcDbText
 10
228.21093204641
 20
50.400952660745
 30
0.0
 40
4.0
  1
45
100
AcDbText
  0
TEXT
  5
904
330
1D
100
AcDbEntity
  8
CSLAYER10
  6
Continuous
100
AcDbText
 10
228.398305834904
 20
42.422672141291
 30
0.0
 40
4.0
  1
50
100
AcDbText
  0
TEXT
  5
905
330
1D
100
AcDbEntity
  8
CSLAYER10
  6
Continuous
100
AcDbText
 10
266.367830372598
 20
90.666393625998
 30
0.0
 40
4.0
  1
NXキーシリンダー
 41
0.5
  7
FX_FONT
100
AcDbText
  0
LINE
  5
91C
330
1D
100
AcDbEntity
  8
CSLAYER10
  6
Continuous
100
AcDbLine
 10
155.587355
 20
205.140867
 30
0.0
 11
155.587355
 21
170.439130952822
 31
0.0
1001
ACAD
1000
DSTYLE
1002
{
1070
    41
1040
2.4
1070
   173
1070
     1
1070
   343
1005
916
1070
   344
1005
916
1070
   279
1070
     2
1002
}
  0
LINE
  5
91D
330
1D
100
AcDbEntity
  8
CSLAYER10
  6
Continuous
100
AcDbLine
 10
196.887355
 20
208.632868922115
 30
0.0
 11
196.887355
 21
170.439130952822
 31
0.0
1001
ACAD
1000
DSTYLE
1002
{
1070
    41
1040
2.4
1070
   173
1070
     1
1070
   343
1005
916
1070
   344
1005
916
1070
   279
1070
     2
1002
}
  0
LINE
  5
91F
330
1D
100
AcDbEntity
  8
CSLAYER10
  6
Continuous
100
AcDbLine
 10
194.487355
 20
170.619130952822
 30
0.0
 11
157.987355
 21
170.619130952822
 31
0.0
1001
ACAD
1000
DSTYLE
1002
{
1070
    41
1040
2.4
1070
   173
1070
     1
1070
   343
1005
916
1070
   344
1005
916
1070
   279
1070
     2
1002
}
  0
TEXT
  5
94E
330
1D
100
AcDbEntity
  8
CSLAYER10
  6
Continuous
100
AcDbText
 10
171.098913343823
 20
172.513756930427
 30
0.0
 40
4.0
  1
41
 41
0.75
  7
FX_FONT
 72
     5
 11
176.098913343823
 21
172.513756930427
 31
0.0
100
AcDbText
  0
LINE
  5
94F
330
1D
100
AcDbEntity
  8
CSLAYER10
  6
Continuous
100
AcDbLine
 10
401.440476935267
 20
270.140867
 30
0.0
 11
373.66329082575
 21
270.140867
 31
0.0
  0
LINE
  5
97B
330
1D
100
AcDbEntity
  8
CSLAYER10
  6
Continuous
100
AcDbLine
 10
375.104993
 20
272.072719
 30
0.0
 11
374.587355
 21
270.140867
 31
0.0
  0
LINE
  5
97C
330
1D
100
AcDbEntity
  8
CSLAYER10
  6
Continuous
100
AcDbLine
 10
374.069717
 20
272.072719
 30
0.0
 11
374.587355
 21
270.140867
 31
0.0
  0
LINE
  5
9D5
330
1D
100
AcDbEntity
  8
CSLAYER10
  6
Continuous
 48
0.5
100
AcDbLine
 10
402.625737794489
 20
270.140867
 30
0.0
 11
423.732478063574
 21
270.140867
 31
0.0
  0
LINE
  5
9F9
330
1D
100
AcDbEntity
  8
CSLAYER10
  6
Continuous
100
AcDbLine
 10
404.024855
 20
267.640867
 30
0.0
 11
399.206552502993
 21
267.640867
 31
0.0
1001
ACAD
1000
DSTYLE
1002
{
1070
    41
1040
2.5
1070
   173
1070
     1
1070
   344
1005
916
1070
   343
1005
916
1070
   279
1070
     2
1002
}
  0
LINE
  5
9FA
330
1D
100
AcDbEntity
  8
CSLAYER10
  6
Continuous
100
AcDbLine
 10
404.024855
 20
272.640867
 30
0.0
 11
399.206552502993
 21
272.640867
 31
0.0
1001
ACAD
1000
DSTYLE
1002
{
1070
    41
1040
2.5
1070
   173
1070
     1
1070
   344
1005
916
1070
   343
1005
916
1070
   279
1070
     2
1002
}
  0
LINE
  5
9FB
330
1D
100
AcDbEntity
  8
CSLAYER10
  6
Continuous
100
AcDbLine
 10
399.386552502993
 20
265.140867
 30
0.0
 11
399.386552502993
 21
262.640867
 31
0.0
1001
ACAD
1000
DSTYLE
1002
{
1070
    41
1040
2.5
1070
   173
1070
     1
1070
   344
1005
916
1070
   343
1005
916
1070
   279
1070
     2
1002
}
  0
LINE
  5
9FC
330
1D
100
AcDbEntity
  8
CSLAYER10
  6
Continuous
100
AcDbLine
 10
399.386552502993
 20
275.140867
 30
0.0
 11
399.386552502993
 21
277.640867
 31
0.0
1001
ACAD
1000
DSTYLE
1002
{
1070
    41
1040
2.5
1070
   173
1070
     1
1070
   344
1005
916
1070
   343
1005
916
1070
   279
1070
     2
1002
}
  0
LINE
  5
A00
330
1D
100
AcDbEntity
  8
CSLAYER10
  6
Continuous
100
AcDbLine
 10
404.087355
 20
267.578367
 30
0.0
 11
404.087355
 21
263.224345065708
 31
0.0
1001
ACAD
1000
DSTYLE
1002
{
1070
    41
1040
2.5
1070
   173
1070
     1
1070
   344
1005
916
1070
   343
1005
916
1070
   279
1070
     2
1002
}
  0
LINE
  5
A01
330
1D
100
AcDbEntity
  8
CSLAYER1
100
AcDbLine
 10
414.587355
 20
267.578367
 30
0.0
 11
414.587355
 21
263.224345065708
 31
0.0
1001
ACAD
1000
DSTYLE
1002
{
1070
    41
1040
2.5
1070
   173
1070
     1
1070
   344
1005
916
1070
   343
1005
916
1070
   279
1070
     2
1002
}
  0
LINE
  5
A03
330
1D
100
AcDbEntity
  8
CSLAYER10
  6
Continuous
100
AcDbLine
 10
412.087355
 20
263.404345065708
 30
0.0
 11
406.587355
 21
263.404345065708
 31
0.0
1001
ACAD
1000
DSTYLE
1002
{
1070
    41
1040
2.5
1070
   173
1070
     1
1070
   344
1005
916
1070
   343
1005
916
1070
   279
1070
     2
1002
}
  0
LINE
  5
A07
330
1D
100
AcDbEntity
  8
CSLAYER10
  6
Continuous
100
AcDbLine
 10
399.386552502993
 20
267.640867
 30
0.0
 11
399.386552502993
 21
272.640867
 31
0.0
  0
LINE
  5
A08
330
1D
100
AcDbEntity
  8
CSLAYER10
  6
Continuous
100
AcDbLine
 10
398.716680002993
 20
265.140867
 30
0.0
 11
399.386552502993
 21
267.640867
 31
0.0
  0
LINE
  5
A09
330
1D
100
AcDbEntity
  8
CSLAYER10
  6
Continuous
100
AcDbLine
 10
399.386552502993
 20
267.640867
 30
0.0
 11
400.056425002993
 21
265.140867
 31
0.0
  0
LINE
  5
A0A
330
1D
100
AcDbEntity
  8
CSLAYER10
  6
Continuous
100
AcDbLine
 10
399.386552502993
 20
267.640867
 30
0.0
 11
399.386552502993
 21
265.140867
 31
0.0
  0
LINE
  5
A0B
330
1D
100
AcDbEntity
  8
CSLAYER10
  6
Continuous
100
AcDbLine
 10
400.056425002993
 20
275.140867
 30
0.0
 11
399.386552502993
 21
272.640867
 31
0.0
  0
LINE
  5
A0C
330
1D
100
AcDbEntity
  8
CSLAYER10
  6
Continuous
100
AcDbLine
 10
399.386552502993
 20
272.640867
 30
0.0
 11
398.716680002993
 21
275.140867
 31
0.0
  0
LINE
  5
A0D
330
1D
100
AcDbEntity
  8
CSLAYER10
  6
Continuous
100
AcDbLine
 10
399.386552502993
 20
272.640867
 30
0.0
 11
399.386552502993
 21
275.140867
 31
0.0
  0
LINE
  5
A0E
330
1D
100
AcDbEntity
  8
CSLAYER10
  6
Continuous
100
AcDbLine
 10
412.087355
 20
264.074217565708
 30
0.0
 11
414.587355
 21
263.404345065708
 31
0.0
  0
LINE
  5
A0F
330
1D
100
AcDbEntity
  8
CSLAYER10
  6
Continuous
100
AcDbLine
 10
414.587355
 20
263.404345065708
 30
0.0
 11
412.087355
 21
262.734472565708
 31
0.0
  0
LINE
  5
A10
330
1D
100
AcDbEntity
  8
CSLAYER10
  6
Continuous
100
AcDbLine
 10
414.587355
 20
263.404345065708
 30
0.0
 11
412.087355
 21
263.404345065708
 31
0.0
  0
LINE
  5
A11
330
1D
100
AcDbEntity
  8
CSLAYER10
  6
Continuous
100
AcDbLine
 10
406.587355
 20
262.734472565708
 30
0.0
 11
404.087355
 21
263.404345065708
 31
0.0
  0
LINE
  5
A12
330
1D
100
AcDbEntity
  8
CSLAYER10
  6
Continuous
100
AcDbLine
 10
404.087355
 20
263.404345065708
 30
0.0
 11
406.587355
 21
264.074217565708
 31
0.0
  0
LINE
  5
A13
330
1D
100
AcDbEntity
  8
CSLAYER10
  6
Continuous
100
AcDbLine
 10
404.087355
 20
263.404345065708
 30
0.0
 11
406.587355
 21
263.404345065708
 31
0.0
  0
LINE
  5
A42
330
1D
100
AcDbEntity
  8
CSLAYER10
  6
Continuous
100
AcDbLine
 10
414.587355
 20
263.404345065708
 30
0.0
 11
437.118034115507
 21
263.404345065708
 31
0.0
  0
TEXT
  5
A43
330
1D
100
AcDbEntity
  8
CSLAYER10
  6
Continuous
100
AcDbText
 10
398.439745370369
 20
262.763007314202
 30
0.0
 40
4.0
  1
5
 50
90.0
 41
0.75
  7
FX_FONT
 72
     5
 11
398.439745370369
 21
265.263007314202
 31
0.0
100
AcDbText
  0
TEXT
  5
A44
330
1D
100
AcDbEntity
  8
CSLAYER10
  6
Continuous
100
AcDbText
 10
423.75335256123
 20
264.064082706318
 30
0.0
 40
4.0
  1
10.5
 41
0.488953277798
  7
FX_FONT
 72
     5
 11
431.25335256123
 21
264.064082706318
 31
0.0
100
AcDbText
  0
TEXT
  5
A78
330
1D
100
AcDbEntity
  8
CSLAYER10
100
AcDbText
 10
246.920814297422
 20
262.569300108837
 30
0.0
 40
4.0
  1
16
 41
0.681818181818
  7
FX_FONT
 72
     5
 11
251.920814297422
 21
262.569300108837
 31
0.0
100
AcDbText
  0
LINE
  5
A79
330
1D
100
AcDbEntity
  8
CSLAYER10
  6
Continuous
100
AcDbLine
 10
241.087355
 20
266.937695020553
 30
0.0
 11
241.087355
 21
260.569298108837
 31
0.0
  0
LINE
  5
A7A
330
1D
100
AcDbEntity
  8
CSLAYER10
  6
Continuous
100
AcDbLine
 10
258.087355
 20
267.074048085798
 30
0.0
 11
258.087355
 21
260.569298108837
 31
0.0
  0
LINE
  5
A7B
330
1D
100
AcDbEntity
  8
CSLAYER10
  6
Continuous
100
AcDbLine
 10
241.087355
 20
261.569298108837
 30
0.0
 11
258.087355
 21
261.569298108837
 31
0.0
  0
LINE
  5
A7C
330
1D
100
AcDbEntity
  8
CSLAYER10
  6
Continuous
100
AcDbLine
 10
241.087355
 20
261.569298108837
 30
0.0
 11
243.019206
 21
262.086936108837
 31
0.0
  0
LINE
  5
A7D
330
1D
100
AcDbEntity
  8
CSLAYER10
  6
Continuous
100
AcDbLine
 10
241.087355
 20
261.569298108837
 30
0.0
 11
243.019206
 21
261.051660108837
 31
0.0
  0
LINE
  5
A7E
330
1D
100
AcDbEntity
  8
CSLAYER10
  6
Continuous
100
AcDbLine
 10
258.087355
 20
261.569298108837
 30
0.0
 11
256.155503
 21
262.086936108837
 31
0.0
  0
LINE
  5
A7F
330
1D
100
AcDbEntity
  8
CSLAYER10
  6
Continuous
100
AcDbLine
 10
258.087355
 20
261.569298108837
 30
0.0
 11
256.155503
 21
261.051660108837
 31
0.0
  0
LINE
  5
ADF
330
1D
100
AcDbEntity
  8
CSLAYER10
  6
Continuous
100
AcDbLine
 10
12.115886
 20
180.140867
 30
0.0
 11
11.598248
 21
182.072719
 31
0.0
  0
LINE
  5
AE0
330
1D
100
AcDbEntity
  8
CSLAYER10
  6
Continuous
100
AcDbLine
 10
12.115886
 20
180.140867
 30
0.0
 11
12.633525
 21
182.072719
 31
0.0
  0
LINE
  5
AE1
330
1D
100
AcDbEntity
  8
CSLAYER10
  6
Continuous
100
AcDbLine
 10
12.115886
 20
180.140867
 30
0.0
 11
12.115886
 21
348.140867
 31
0.0
  0
LINE
  5
AE2
330
1D
100
AcDbEntity
  8
CSLAYER10
  6
Continuous
100
AcDbLine
 10
63.580915
 20
180.140867
 30
0.0
 11
11.115886
 21
180.140867
 31
0.0
  0
LINE
  5
AE3
330
1D
100
AcDbEntity
  8
CSLAYER10
  6
Continuous
100
AcDbLine
 10
12.115886
 20
348.140867
 30
0.0
 11
11.598248
 21
346.209015
 31
0.0
  0
LINE
  5
AE4
330
1D
100
AcDbEntity
  8
CSLAYER10
  6
Continuous
100
AcDbLine
 10
12.115886
 20
348.140867
 30
0.0
 11
12.633525
 21
346.209015
 31
0.0
  0
LINE
  5
AE5
330
1D
100
AcDbEntity
  8
CSLAYER10
  6
Continuous
100
AcDbLine
 10
68.121935
 20
348.140867
 30
0.0
 11
11.115886
 21
348.140867
 31
0.0
  0
TEXT
  5
AE7
330
1D
100
AcDbEntity
  8
CSLAYER10
100
AcDbText
 10
11.115885
 20
260.390869
 30
0.0
 40
4.0
  1
168
 50
90.0
 41
0.660146699267
  7
FX_FONT
 72
     5
 11
11.115885
 21
267.890869
 31
0.0
100
AcDbText
  0
LINE
  5
AF8
330
1D
100
AcDbEntity
  8
CSLAYER10
  6
Continuous
100
AcDbLine
 10
205.087355
 20
190.640867
 30
0.0
 11
204.569717
 21
192.572719
 31
0.0
  0
LINE
  5
AF9
330
1D
100
AcDbEntity
  8
CSLAYER10
  6
Continuous
100
AcDbLine
 10
205.087355
 20
190.640867
 30
0.0
 11
205.604993
 21
192.572719
 31
0.0
  0
LINE
  5
AFA
330
1D
100
AcDbEntity
  8
CSLAYER10
  6
Continuous
100
AcDbLine
 10
205.087355
 20
190.640867
 30
0.0
 11
205.087355
 21
265.640867
 31
0.0
  0
LINE
  5
AFB
330
1D
100
AcDbEntity
  8
CSLAYER10
  6
Continuous
100
AcDbLine
 10
219.087355
 20
190.640867
 30
0.0
 11
204.087355
 21
190.640867
 31
0.0
  0
LINE
  5
AFD
330
1D
100
AcDbEntity
  8
CSLAYER10
  6
Continuous
100
AcDbLine
 10
205.087355
 20
265.640867
 30
0.0
 11
204.569717
 21
263.709015
 31
0.0
  0
LINE
  5
AFE
330
1D
100
AcDbEntity
  8
CSLAYER10
  6
Continuous
100
AcDbLine
 10
205.087355
 20
265.640867
 30
0.0
 11
205.604993
 21
263.709015
 31
0.0
  0
LINE
  5
AFF
330
1D
100
AcDbEntity
  8
CSLAYER10
  6
Continuous
100
AcDbLine
 10
219.487355
 20
265.640867
 30
0.0
 11
204.087355
 21
265.640867
 31
0.0
  0
TEXT
  5
B00
330
1D
100
AcDbEntity
  8
CSLAYER10
100
AcDbText
 10
203.979957879384
 20
218.8452162063
 30
0.0
 40
4.0
  1
%%c75
 50
90.0
 41
0.661764705882
  7
FX_FONT
 72
     5
 11
203.979957879384
 21
226.3452162063
 31
0.0
100
AcDbText
  0
LINE
  5
B21
330
1D
100
AcDbEntity
  8
CSLAYER10
  6
Continuous
100
AcDbLine
 10
534.649855
 20
371.640867
 30
0.0
 11
718.515923661009
 21
371.640867
 31
0.0
1001
ACAD
1000
DSTYLE
1002
{
1070
    41
1040
2.3
1070
   173
1070
     1
1070
   344
1005
916
1070
   343
1005
916
1070
   279
1070
     2
1002
}
  0
LINE
  5
B22
330
1D
100
AcDbEntity
  8
CSLAYER10
  6
Continuous
100
AcDbLine
 10
669.898423661009
 20
331.640867
 30
0.0
 11
718.515923661009
 21
331.640867
 31
0.0
1001
ACAD
1000
DSTYLE
1002
{
1070
    41
1040
2.3
1070
   173
1070
     1
1070
   344
1005
916
1070
   343
1005
916
1070
   279
1070
     2
1002
}
  0
LINE
  5
B24
330
1D
100
AcDbEntity
  8
CSLAYER10
  6
Continuous
100
AcDbLine
 10
718.335923661009
 20
333.940867
 30
0.0
 11
718.335923661009
 21
369.340867
 31
0.0
1001
ACAD
1000
DSTYLE
1002
{
1070
    41
1040
2.3
1070
   173
1070
     1
1070
   344
1005
916
1070
   343
1005
916
1070
   279
1070
     2
1002
}
  0
TEXT
  5
B54
330
1D
100
AcDbEntity
  8
CSLAYER10
  6
Continuous
100
AcDbText
 10
717.008219314905
 20
348.94124071787
 30
0.0
 40
4.0
  1
40
 50
90.0
 41
0.705329153605
  7
FX_FONT
 72
     5
 11
717.008219314905
 21
353.94124071787
 31
0.0
100
AcDbText
  0
LINE
  5
B85
330
1D
100
AcDbEntity
  8
CSLAYER10
  6
Continuous
100
AcDbLine
 10
667.447682982445
 20
324.973479557927
 30
0.0
 11
645.753914982445
 21
346.667247557927
 31
0.0
  0
LINE
  5
B86
330
1D
100
AcDbEntity
  8
CSLAYER10
  6
Continuous
100
AcDbLine
 10
667.447682982445
 20
324.973479557927
 30
0.0
 11
665.715631982445
 21
325.973479557927
 31
0.0
  0
LINE
  5
B87
330
1D
100
AcDbEntity
  8
CSLAYER10
  6
Continuous
100
AcDbLine
 10
667.447682982445
 20
324.973479557927
 30
0.0
 11
666.447682982445
 21
326.705530557927
 31
0.0
  0
LINE
  5
B88
330
1D
100
AcDbEntity
  8
CSLAYER10
  6
Continuous
100
AcDbLine
 10
645.831805370453
 20
346.587162353509
 30
0.0
 11
621.331805370453
 21
346.587162353509
 31
0.0
  0
TEXT
  5
B89
330
1D
100
AcDbEntity
  8
CSLAYER10
100
AcDbText
 10
622.331803370453
 20
347.587183353509
 30
0.0
 40
4.0
  1
2-4mmネジ用穴
 41
0.590034965035
  7
FX_FONT
 72
     5
 11
644.831803370453
 21
347.587183353509
 31
0.0
100
AcDbText
  0
TEXT
  5
C35
330
1D
100
AcDbEntity
  8
CSLAYER10
  6
Continuous
100
AcDbText
 10
128.370783116816
 20
104.252886964288
 30
0.0
 40
4.0
  1
●カラー寸法
  7
FX_FONT
100
AcDbText
  0
LINE
  5
C36
330
1D
100
AcDbEntity
  8
CSLAYER10
  6
Continuous
100
AcDbLine
 10
125.370330817869
 20
102.773790760581
 30
0.0
 11
160.023441876138
 21
102.773790760581
 31
0.0
  0
TEXT
  5
F29
330
1D
100
AcDbEntity
  8
CSLAYER10
100
AcDbText
 10
18.114726103373
 20
396.66598044793
 30
0.0
 40
8.0
  1
X-CH-50-DA
100
AcDbText
  0
LINE
  5
F2A
330
1D
100
AcDbEntity
  8
CSLAYER10
  6
Continuous
100
AcDbLine
 10
157.987355
 20
169.976053352822
 30
0.0
 11
155.587355
 21
170.619130952822
 31
0.0
  0
LINE
  5
F2B
330
1D
100
AcDbEntity
  8
CSLAYER10
  6
Continuous
100
AcDbLine
 10
155.587355
 20
170.619130952822
 30
0.0
 11
157.987355
 21
171.262208552822
 31
0.0
  0
LINE
  5
F2C
330
1D
100
AcDbEntity
  8
CSLAYER10
  6
Continuous
100
AcDbLine
 10
155.587355
 20
170.619130952822
 30
0.0
 11
157.987355
 21
170.619130952822
 31
0.0
  0
LINE
  5
F2D
330
1D
100
AcDbEntity
  8
CSLAYER10
  6
Continuous
100
AcDbLine
 10
194.487355
 20
171.262208552822
 30
0.0
 11
196.887355
 21
170.619130952822
 31
0.0
  0
LINE
  5
F2E
330
1D
100
AcDbEntity
  8
CSLAYER10
  6
Continuous
100
AcDbLine
 10
196.887355
 20
170.619130952822
 30
0.0
 11
194.487355
 21
169.976053352822
 31
0.0
  0
LINE
  5
F2F
330
1D
100
AcDbEntity
  8
CSLAYER10
  6
Continuous
100
AcDbLine
 10
196.887355
 20
170.619130952822
 30
0.0
 11
194.487355
 21
170.619130952822
 31
0.0
  0
TEXT
  5
F30
330
1D
100
AcDbEntity
  8
CSLAYER10
  6
Continuous
100
AcDbText
 10
373.746683206071
 20
257.92619846918
 30
0.0
 40
4.0
  1
22
 50
90.0
 41
0.681818181818
  7
FX_FONT
 72
     5
 11
373.746683206071
 21
262.92619846918
 31
0.0
100
AcDbText
  0
LINE
  5
F31
330
1D
100
AcDbEntity
  8
CSLAYER10
  6
Continuous
100
AcDbLine
 10
717.719640961009
 20
369.340867
 30
0.0
 11
718.335923661009
 21
371.640867
 31
0.0
  0
LINE
  5
F32
330
1D
100
AcDbEntity
  8
CSLAYER10
  6
Continuous
100
AcDbLine
 10
718.335923661009
 20
371.640867
 30
0.0
 11
718.952206361009
 21
369.340867
 31
0.0
  0
LINE
  5
F33
330
1D
100
AcDbEntity
  8
CSLAYER10
  6
Continuous
100
AcDbLine
 10
718.335923661009
 20
371.640867
 30
0.0
 11
718.335923661009
 21
369.340867
 31
0.0
  0
LINE
  5
F34
330
1D
100
AcDbEntity
  8
CSLAYER10
  6
Continuous
100
AcDbLine
 10
718.952206361009
 20
333.940867
 30
0.0
 11
718.335923661009
 21
331.640867
 31
0.0
  0
LINE
  5
F35
330
1D
100
AcDbEntity
  8
CSLAYER10
  6
Continuous
100
AcDbLine
 10
718.335923661009
 20
331.640867
 30
0.0
 11
717.719640961009
 21
333.940867
 31
0.0
  0
LINE
  5
F36
330
1D
100
AcDbEntity
  8
CSLAYER10
  6
Continuous
100
AcDbLine
 10
718.335923661009
 20
331.640867
 30
0.0
 11
718.335923661009
 21
333.940867
 31
0.0
  0
HATCH
  5
F9A
102
{ACAD_XDICTIONARY
360
F9B
102
}
330
1D
100
AcDbEntity
  8
CSLAYER10
100
AcDbHatch
 10
0.0
 20
0.0
 30
0.0
210
0.0
220
0.0
230
1.0
  2
_USER
 70
     0
 71
     1
 91
        6
 92
        7
 72
     1
 73
     1
 93
        5
 10
501.587355
 20
313.222855
 42
0.414213562373095
 10
484.587355
 20
330.222855
 42
0.0
 10
484.587355
 20
313.2342054877964
 42
0.0
 10
484.646229
 20
313.140867
 42
0.0
 10
501.5871572920226
 20
313.140867
 42
0.001205711140709
 97
        4
330
4E5
330
59E
330
5A0
330
5A1
 92
        7
 72
     1
 73
     1
 93
        5
 10
493.6550673409189
 20
298.8431264593652
 42
0.256238085973495
 10
501.5871572920226
 20
313.140867
 42
0.0
 10
484.646229
 20
313.140867
 42
0.0
 10
484.6390561225429
 20
313.140867
 42
0.0
 10
493.655067
 20
298.843127
 42
0.0
 97
        3
330
4E5
330
5A1
330
78D
 92
        7
 72
     1
 73
     1
 93
        5
 10
484.587355
 20
296.222855
 42
0.1415871494470342
 10
493.6550673409189
 20
298.8431264593652
 42
0.0
 10
493.655067
 20
298.843127
 42
0.0
 10
484.6390561225429
 20
313.140867
 42
0.0
 10
484.587355
 20
313.140867
 42
0.0
 97
        4
330
4E5
330
78D
330
5A1
330
59E
 92
        7
 72
     1
 73
     1
 93
        3
 10
467.5875527079774
 20
313.140867
 42
0.4128016890257284
 10
484.587355
 20
296.222855
 42
0.0
 10
484.587355
 20
313.140867
 42
0.0
 97
        3
330
4E5
330
59E
330
5A1
 92
        7
 72
     1
 73
     1
 93
        5
 10
484.587355
 20
313.2228554999999
 42
0.0
 10
475.519643
 20
327.602584
 42
0.0
 10
475.5196431571142
 20
327.6025838546894
 42
0.2588094391201408
 10
467.5875527079774
 20
313.140867
 42
0.0
 10
484.587355
 20
313.140867
 42
0.0
 97
        4
330
78D
330
4E5
330
5A1
330
59E
 92
        7
 72
     1
 73
     1
 93
        4
 10
484.587355
 20
330.222855
 42
0.1415269775075454
 10
475.5230359451292
 20
327.6047227532338
 42
0.0
 10
475.5310247774586
 20
327.5920573061962
 42
0.0
 10
484.587355
 20
313.2342054877964
 42
0.0
 97
        3
330
4E5
330
5A0
330
59E
 75
     0
 76
     0
 52
45.0
 41
1.0
 77
     0
 78
     1
 53
45.0
 43
0.0
 44
0.0
 45
-0.7071067811865475
 46
0.7071067811865476
 79
     0
 47
0.0
 98
        6
 10
486.7105463851983
 20
323.5307651645516
 10
491.4414390111984
 20
310.1608512215076
 10
487.3276193364158
 20
303.1673577743769
 10
479.0999799868501
 20
305.4299585955074
 10
474.9861603120675
 20
318.5941815548122
 10
483.8308726128503
 20
324.9706020507255
1001
ACAD
1010
0.0
1020
0.0
1030
0.0
1001
AcadAnnotative
1000
AnnotativeData
1002
{
1070
     1
1070
     0
1002
}
  0
HATCH
  5
FA2
102
{ACAD_XDICTIONARY
360
FA3
102
}
330
1D
100
AcDbEntity
  8
CSLAYER10
100
AcDbHatch
 10
0.0
 20
0.0
 30
0.0
210
0.0
220
0.0
230
1.0
  2
_USER
 70
     0
 71
     1
 91
       12
 92
        7
 72
     1
 73
     1
 93
        3
 10
462.587355
 20
233.140867
 42
0.414213562373095
 10
457.587355
 20
228.140867
 42
0.0
 10
462.587355
 20
228.140867
 42
0.0
 97
        3
330
4E1
330
562
330
560
 92
        7
 72
     1
 73
     1
 93
        4
 10
466.122888931138
 20
231.6764008807275
 42
0.1989123692324554
 10
462.587355
 20
233.140867
 42
0.0
 10
462.587355
 20
228.140867
 42
0.0
 10
466.122889
 20
231.676401
 42
0.0
 97
        3
330
4E1
330
560
330
7B2
 92
        7
 72
     1
 73
     1
 93
        4
 10
467.587355
 20
228.140867
 42
0.1989123655268606
 10
466.122888931138
 20
231.6764008807275
 42
0.0
 10
466.122889
 20
231.676401
 42
0.0
 10
462.587355
 20
228.140867
 42
0.0
 97
        3
330
4E1
330
7B2
330
562
 92
        7
 72
     1
 73
     1
 93
        3
 10
462.587355
 20
223.140867
 42
0.414213562373095
 10
467.587355
 20
228.140867
 42
0.0
 10
462.587355
 20
228.140867
 42
0.0
 97
        3
330
4E1
330
562
330
560
 92
        7
 72
     1
 73
     1
 93
        4
 10
462.587355
 20
228.140867
 42
0.0
 10
459.051821
 20
224.605333
 42
0.0
 10
459.0518209666129
 20
224.6053332215216
 42
0.1989123767486251
 10
462.587355
 20
223.140867
 42
0.0
 97
        4
330
7B2
330
7B7
330
4E1
330
560
 92
        7
 72
     1
 73
     1
 93
        4
 10
459.051821
 20
224.605333
 42
0.0
 10
462.587355
 20
228.140867
 42
0.0
 10
457.587355
 20
228.140867
 42
0.198912358010691
 10
459.0518209666129
 20
224.6053332215216
 42
0.0
 97
        4
330
7B2
330
7B7
330
562
330
4E1
 92
        7
 72
     1
 73
     1
 93
        3
 10
511.587355
 20
228.140867
 42
0.2982166266986069
 10
508.587355
 20
232.7234426949558
 42
0.0
 10
508.587355
 20
228.140867
 42
0.0
 97
        3
330
4E3
330
417
330
562
 92
        7
 72
     1
 73
     1
 93
        4
 10
508.587355
 20
232.7234426949558
 42
0.1032437171755965
 10
506.587355
 20
233.140867
 42
0.0
 10
506.587355
 20
228.140867
 42
0.0
 10
508.587355
 20
228.140867
 42
0.0
 97
        4
330
4E3
330
564
330
562
330
417
 92
        7
 72
     1
 73
     1
 93
        3
 10
506.587355
 20
233.140867
 42
0.414213562373095
 10
501.587355
 20
228.140867
 42
0.0
 10
506.587355
 20
228.140867
 42
0.0
 97
        3
330
4E3
330
562
330
564
 92
        7
 72
     1
 73
     1
 93
        3
 10
501.587355
 20
228.140867
 42
0.414213562373095
 10
506.587355
 20
223.140867
 42
0.0
 10
506.587355
 20
228.140867
 42
0.0
 97
        3
330
4E3
330
564
330
562
 92
        7
 72
     1
 73
     1
 93
        4
 10
506.587355
 20
223.140867
 42
0.1032437171755966
 10
508.587355
 20
223.5582913050442
 42
0.0
 10
508.587355
 20
228.140867
 42
0.0
 10
506.587355
 20
228.140867
 42
0.0
 97
        4
330
4E3
330
417
330
562
330
564
 92
        7
 72
     1
 73
     1
 93
        3
 10
508.587355
 20
223.5582913050442
 42
0.2982166266986068
 10
511.587355
 20
228.140867
 42
0.0
 10
508.587355
 20
228.140867
 42
0.0
 97
        3
330
4E3
330
562
330
417
 75
     0
 76
     0
 52
45.0
 41
1.0
 77
     0
 78
     1
 53
45.0
 43
0.0
 44
0.0
 45
-0.7071067811865475
 46
0.7071067811865476
 79
     0
 47
0.0
 98
       12
 10
459.9693493029095
 20
229.2885385627393
 10
464.2700484471625
 20
230.9356148307511
 10
465.6426120038391
 20
228.5565046658451
 10
465.0020823440567
 20
225.9943860267157
 10
462.2569552307037
 20
225.5368648411568
 10
459.6948365915742
 20
226.5434114493862
 10
508.8326119205934
 20
230.2035809338569
 10
507.8260653123639
 20
230.2035809338569
 10
504.4404085392285
 20
230.6611021194157
 10
504.5319127763403
 20
225.9943860267157
 10
507.6430568381404
 20
227.0009326349451
 10
510.1136712401581
 20
227.0009326349451
1001
ACAD
1010
0.0
1020
0.0
1030
0.0
1001
AcadAnnotative
1000
AnnotativeData
1002
{
1070
     1
1070
     0
1002
}
  0
HATCH
  5
FA6
102
{ACAD_XDICTIONARY
360
FA7
102
}
330
1D
100
AcDbEntity
  8
CSLAYER10
100
AcDbHatch
 10
0.0
 20
0.0
 30
0.0
210
0.0
220
0.0
230
1.0
  2
_USER
 70
     0
 71
     1
 91
        6
 92
        7
 72
     1
 73
     1
 93
        4
 10
499.587355
 20
228.140867
 42
0.2679491919241042
 10
492.0873550245806
 20
241.1312480425749
 42
0.0
 10
492.087355
 20
241.131248
 42
0.0
 10
484.587355
 20
228.140867
 42
0.0
 97
        3
330
4E2
330
785
330
562
 92
        7
 72
     1
 73
     1
 93
        4
 10
492.0873550245806
 20
241.1312480425749
 42
0.1316524980686497
 10
484.587355
 20
243.140867
 42
0.0
 10
484.587355
 20
228.140867
 42
0.0
 10
492.087355
 20
241.131248
 42
0.0
 97
        3
330
4E2
330
59E
330
785
 92
        7
 72
     1
 73
     1
 93
        3
 10
484.587355
 20
243.140867
 42
0.414213562373095
 10
469.587355
 20
228.140867
 42
0.0
 10
484.587355
 20
228.140867
 42
0.0
 97
        3
330
4E2
330
562
330
59E
 92
        7
 72
     1
 73
     1
 93
        4
 10
477.087355
 20
215.150486
 42
0.0
 10
484.587355
 20
228.140867
 42
0.0
 10
469.587355
 20
228.140867
 42
0.2679491919241039
 10
477.0873549754193
 20
215.150485957425
 42
0.0
 97
        3
330
785
330
562
330
4E2
 92
        7
 72
     1
 73
     1
 93
        4
 10
484.587355
 20
228.140867
 42
0.0
 10
477.087355
 20
215.150486
 42
0.0
 10
477.0873549754193
 20
215.150485957425
 42
0.13165249806865
 10
484.587355
 20
213.140867
 42
0.0
 97
        3
330
785
330
4E2
330
59E
 92
        7
 72
     1
 73
     1
 93
        3
 10
484.587355
 20
213.140867
 42
0.414213562373095
 10
499.587355
 20
228.140867
 42
0.0
 10
484.587355
 20
228.140867
 42
0.0
 97
        3
330
4E2
330
562
330
59E
 75
     0
 76
     0
 52
135.0
 41
1.0
 77
     0
 78
     1
 53
135.0
 43
0.0
 44
0.0
 45
-0.7071067811865476
 46
-0.7071067811865475
 79
     0
 47
0.0
 98
        6
 10
492.6363619518106
 20
233.2232207585453
 10
484.8585017973102
 20
237.9814410883572
 10
480.4662984159455
 20
237.6154241399101
 10
478.0871882510394
 20
221.4191741711273
 10
480.4662984159455
 20
219.2230724804448
 10
487.6036289106634
 20
220.1381148515625
1001
ACAD
1010
0.0
1020
0.0
1030
0.0
1001
AcadAnnotative
1000
AnnotativeData
1002
{
1070
     1
1070
     0
1002
}
  0
LINE
  5
12B1
330
1D
100
AcDbEntity
  8
CSLAYER10
100
AcDbLine
 10
15.184875281171
 20
390.497344818242
 30
0.0
 11
99.278966477814
 21
390.497344818242
 31
0.0
  0
LINE
  5
1398
330
1D
100
AcDbEntity
  8
CSLAYER10
100
AcDbLine
 10
249.587355
 20
381.640867
 30
0.0
 11
287.587355
 21
381.640867
 31
0.0
  0
LINE
  5
1399
330
1D
100
AcDbEntity
  8
CSLAYER10
100
AcDbLine
 10
287.587355
 20
381.640867
 30
0.0
 11
307.587355
 21
381.640867
 31
0.0
  0
LINE
  5
139A
330
1D
100
AcDbEntity
  8
CSLAYER10
  6
Continuous
100
AcDbLine
 10
364.587355
 20
359.140867
 30
0.0
 11
365.104993
 21
361.072719
 31
0.0
  0
LINE
  5
139B
330
1D
100
AcDbEntity
  8
CSLAYER10
  6
Continuous
100
AcDbLine
 10
364.587355
 20
359.140867
 30
0.0
 11
364.069717
 21
361.072719
 31
0.0
  0
LINE
  5
139C
330
1D
100
AcDbEntity
  8
CSLAYER10
100
AcDbLine
 10
364.587355
 20
371.640867
 30
0.0
 11
364.587355
 21
359.140867
 31
0.0
  0
LINE
  5
139D
330
1D
100
AcDbEntity
  8
CSLAYER10
  6
Continuous
100
AcDbLine
 10
365.104993
 20
185.209015
 30
0.0
 11
364.587355
 21
187.140867
 31
0.0
  0
LINE
  5
139E
330
1D
100
AcDbEntity
  8
CSLAYER10
  6
Continuous
100
AcDbLine
 10
364.069717
 20
185.209015
 30
0.0
 11
364.587355
 21
187.140867
 31
0.0
  0
LINE
  5
139F
330
1D
100
AcDbEntity
  8
CSLAYER10
100
AcDbLine
 10
364.587355
 20
187.140867
 30
0.0
 11
364.587355
 21
174.640867
 31
0.0
  0
LINE
  5
13A0
330
1D
100
AcDbEntity
  8
CSLAYER10
100
AcDbLine
 10
533.587355
 20
174.640867
 30
0.0
 11
533.587355
 21
205.140867
 31
0.0
  0
LINE
  5
13A1
330
1D
100
AcDbEntity
  8
CSLAYER10
100
AcDbLine
 10
533.587355
 20
341.140867
 30
0.0
 11
533.587355
 21
371.640867
 31
0.0
  0
LINE
  5
13A2
330
1D
100
AcDbEntity
  8
CSLAYER10
100
AcDbLine
 10
523.587355
 20
205.140867
 30
0.0
 11
523.587355
 21
228.140867
 31
0.0
  0
LINE
  5
13A3
330
1D
100
AcDbEntity
  8
CSLAYER10
100
AcDbLine
 10
523.587355
 20
313.125085
 30
0.0
 11
523.587355
 21
341.140867
 31
0.0
  0
LINE
  5
13A4
330
1D
100
AcDbEntity
  8
CSLAYER10
  6
Continuous
100
AcDbLine
 10
375.104993
 20
290.209015
 30
0.0
 11
374.587355
 21
292.140867
 31
0.0
  0
LINE
  5
13A5
330
1D
100
AcDbEntity
  8
CSLAYER10
  6
Continuous
100
AcDbLine
 10
374.069717
 20
290.209015
 30
0.0
 11
374.587355
 21
292.140867
 31
0.0
  0
LINE
  5
13A6
330
1D
100
AcDbEntity
  8
CSLAYER10
  6
Continuous
100
AcDbLine
 10
374.069717
 20
268.209015
 30
0.0
 11
374.587355
 21
270.140867
 31
0.0
  0
LINE
  5
13A7
330
1D
100
AcDbEntity
  8
CSLAYER10
  6
Continuous
100
AcDbLine
 10
375.104993
 20
268.209015
 30
0.0
 11
374.587355
 21
270.140867
 31
0.0
  0
LINE
  5
13A8
330
1D
100
AcDbEntity
  8
CSLAYER10
100
AcDbLine
 10
374.587355
 20
248.140867
 30
0.0
 11
374.587355
 21
270.140867
 31
0.0
  0
LINE
  5
13A9
330
1D
100
AcDbEntity
  8
CSLAYER10
100
AcDbLine
 10
374.587355
 20
270.140867
 30
0.0
 11
374.587355
 21
292.140867
 31
0.0
  0
LINE
  5
13AA
330
1D
100
AcDbEntity
  8
CSLAYER10
100
AcDbLine
 10
374.587355
 20
187.140867
 30
0.0
 11
374.587355
 21
248.140867
 31
0.0
  0
LINE
  5
13AB
330
1D
100
AcDbEntity
  8
CSLAYER10
100
AcDbLine
 10
669.835923661009
 20
191.640867
 30
0.0
 11
678.335923661009
 21
191.640867
 31
0.0
  0
HATCH
  5
13AC
102
{ACAD_XDICTIONARY
360
13AD
102
}
330
1D
100
AcDbEntity
  8
CSLAYER10
100
AcDbHatch
 10
0.0
 20
0.0
 30
0.0
210
0.0
220
0.0
230
1.0
  2
_USER
 70
     0
 71
     1
 91
        2
 92
        7
 72
     1
 73
     1
 93
        7
 10
418.587355
 20
364.469294
 42
0.0
 10
418.587355
 20
371.640867
 42
0.0
 10
416.587355
 20
371.640867
 42
0.0
 10
416.587355
 20
364.469294
 42
0.19883518078068
 10
417.1727214788302
 20
363.0555005211698
 42
0.0
 10
418.587355
 20
361.640867
 42
0.0
 10
420.001568
 20
363.05508
 42
0.0
 97
        7
330
401
330
3FE
330
400
330
408
330
407
330
403
330
402
 92
        7
 72
     1
 73
     1
 93
       25
 10
420.001568
 20
355.226653
 42
0.0
 10
418.587355
 20
356.640867
 42
0.0
 10
417.173141
 20
355.226653
 42
0.0
 10
417.173140937627
 20
355.226653062373
 42
0.1989122754941256
 10
416.587355
 20
353.81244
 42
0.0
 10
416.587355
 20
353.34124988335
 42
0.0
 10
416.704223
 20
353.295561
 42
0.0
 10
416.822188
 20
353.240513
 42
0.0
 10
416.940069
 20
353.177826
 42
0.0
 10
417.057931
 20
353.108732
 42
0.0
 10
417.175838
 20
353.034463
 42
0.0
 10
417.293856
 20
352.956251
 42
0.0
 10
417.412049
 20
352.875328
 42
0.0
 10
417.530482
 20
352.792927
 42
0.0
 10
417.64922
 20
352.710279
 42
0.0
 10
417.768327
 20
352.628618
 42
0.0
 10
417.88787
 20
352.549174
 42
0.0
 10
418.007911
 20
352.473182
 42
0.0
 10
418.128517
 20
352.401871
 42
0.0
 10
418.249752
 20
352.336476
 42
0.0
 10
418.371681
 20
352.278227
 42
0.0
 10
418.494368
 20
352.228358
 42
0.0
 10
418.587355
 20
352.1980491963631
 42
0.0
 10
418.587355
 20
352.198049
 42
0.0
 10
418.587355
 20
353.81244
 42
0.0
 97
       23
330
405
330
409
330
40A
330
400
330
617
330
618
330
619
330
61A
330
61B
330
61C
330
61D
330
61E
330
61F
330
620
330
621
330
622
330
623
330
624
330
625
330
626
330
627
330
40C
330
40B
 75
     0
 76
     0
 52
45.0
 41
1.0
 77
     0
 78
     1
 53
45.0
 43
0.0
 44
0.0
 45
-0.7071067811865475
 46
0.7071067811865476
 79
     0
 47
0.0
 98
        2
 10
417.8194677916947
 20
365.6216908764105
 10
418.0756744575104
 20
354.1948735810302
1001
ACAD
1010
0.0
1020
0.0
1030
0.0
1001
AcadAnnotative
1000
AnnotativeData
1002
{
1070
     1
1070
     0
1002
}
  0
HATCH
  5
13B0
102
{ACAD_XDICTIONARY
360
13B1
102
}
330
1D
100
AcDbEntity
  8
CSLAYER10
100
AcDbHatch
 10
0.0
 20
0.0
 30
0.0
210
0.0
220
0.0
230
1.0
  2
_USER
 70
     0
 71
     1
 91
        3
 92
        7
 72
     0
 73
     1
 93
        5
 10
416.587355
 20
371.640867
 10
414.587355
 20
371.640867
 10
414.587355
 20
361.140867
 10
416.587355
 20
359.140867
 10
416.587355
 20
364.469294
 97
        4
330
3FE
330
3FD
330
797
330
400
 92
        7
 72
     0
 73
     1
 93
       29
 10
414.587355
 20
352.640867
 10
414.666182
 20
352.697865
 10
414.745002
 20
352.754589
 10
414.823806
 20
352.810762
 10
414.902585
 20
352.866112
 10
414.981332
 20
352.920363
 10
415.060038
 20
352.97324
 10
415.138695
 20
353.024468
 10
415.217295
 20
353.073773
 10
415.29583
 20
353.12088
 10
415.374293
 20
353.165515
 10
415.452673
 20
353.207402
 10
415.530965
 20
353.246266
 10
415.609159
 20
353.281834
 10
415.687247
 20
353.31383
 10
415.765222
 20
353.341979
 10
415.843075
 20
353.366007
 10
415.920797
 20
353.385639
 10
415.998382
 20
353.4006
 10
416.07582
 20
353.410616
 10
416.153104
 20
353.415412
 10
416.230225
 20
353.414712
 10
416.349174
 20
353.402544
 10
416.467781
 20
353.377809
 10
416.586109
 20
353.341737
 10
416.587355
 20
353.34124988335
 10
416.587355
 20
353.81244
 10
416.587355
 20
359.140867
 10
414.587355
 20
359.140867
 97
       28
330
5FF
330
600
330
601
330
602
330
603
330
604
330
605
330
606
330
607
330
608
330
609
330
60A
330
60B
330
60C
330
60D
330
60E
330
60F
330
610
330
611
330
612
330
613
330
614
330
615
330
616
330
617
330
400
330
5A5
330
3FD
 92
        7
 72
     0
 73
     1
 93
        3
 10
416.587355
 20
359.140867
 10
414.587355
 20
361.140867
 10
414.587355
 20
359.140867
 97
        3
330
797
330
3FD
330
5A5
 75
     0
 76
     0
 52
135.0
 41
1.0
 77
     0
 78
     1
 53
135.0
 43
0.0
 44
0.0
 45
-0.7071067811865476
 46
-0.7071067811865475
 79
     0
 47
0.0
 98
        3
 10
415.5778424440734
 20
366.0688730979808
 10
416.1423308813758
 20
358.2736567893829
 10
415.202894658998
 20
359.6264449496069
1001
ACAD
1010
0.0
1020
0.0
1030
0.0
1001
AcadAnnotative
1000
AnnotativeData
1002
{
1070
     1
1070
     0
1002
}
  0
LINE
  5
1418
330
1D
100
AcDbEntity
  8
CSLAYER10
100
AcDbLine
 10
229.587355
 20
149.640867
 30
0.0
 11
269.587355
 21
149.640867
 31
0.0
  0
LINE
  5
1419
330
1D
100
AcDbEntity
  8
CSLAYER10
  6
Continuous
100
AcDbLine
 10
374.587355
 20
248.140867
 30
0.0
 11
375.104993
 21
250.072719
 31
0.0
  0
LINE
  5
141A
330
1D
100
AcDbEntity
  8
CSLAYER10
  6
Continuous
100
AcDbLine
 10
374.587355
 20
248.140867
 30
0.0
 11
374.069717
 21
250.072719
 31
0.0
  0
LINE
  5
141B
330
1D
100
AcDbEntity
  8
CSLAYER10
  6
Continuous
100
AcDbLine
 10
523.587355
 20
228.140867
 30
0.0
 11
524.104993
 21
230.072719
 31
0.0
  0
LINE
  5
141C
330
1D
100
AcDbEntity
  8
CSLAYER10
  6
Continuous
100
AcDbLine
 10
523.587355
 20
228.140867
 30
0.0
 11
523.069717
 21
230.072719
 31
0.0
  0
LINE
  5
141D
330
1D
100
AcDbEntity
  8
CSLAYER10
  6
Continuous
100
AcDbLine
 10
534.104993
 20
203.209015
 30
0.0
 11
533.587355
 21
205.140867
 31
0.0
  0
LINE
  5
141E
330
1D
100
AcDbEntity
  8
CSLAYER10
  6
Continuous
100
AcDbLine
 10
533.069717
 20
203.209015
 30
0.0
 11
533.587355
 21
205.140867
 31
0.0
  0
LINE
  5
141F
330
1D
100
AcDbEntity
  8
CSLAYER10
  6
Continuous
100
AcDbLine
 10
534.104993
 20
339.209015
 30
0.0
 11
533.587355
 21
341.140867
 31
0.0
  0
LINE
  5
1420
330
1D
100
AcDbEntity
  8
CSLAYER10
  6
Continuous
100
AcDbLine
 10
533.069717
 20
339.209015
 30
0.0
 11
533.587355
 21
341.140867
 31
0.0
  0
ENDSEC
  0
SECTION
  2
OBJECTS
  0
DICTIONARY
  5
C
330
0
100
AcDbDictionary
281
     1
  3
ACAD_DETAILVIEWSTYLE
350
1489
  3
ACAD_GROUP
350
D
  3
ACAD_LAYOUT
350
1A
  3
ACAD_MATERIAL
350
5F4
  3
ACAD_MLEADERSTYLE
350
5FA
  3
ACAD_MLINESTYLE
350
17
  3
ACAD_PLOTSETTINGS
350
19
  3
ACAD_PLOTSTYLENAME
350
E
  3
ACAD_SCALELIST
350
5B5
  3
ACAD_SECTIONVIEWSTYLE
350
148A
  3
ACAD_TABLESTYLE
350
5F8
  3
ACAD_VISUALSTYLE
350
5DB
  3
ACDB_RECOMPOSE_DATA
350
1488
  3
AcDbVariableDictionary
350
85D
  0
SUN
  5
5FD
330
3B
100
AcDbSun
 90
        1
290
     0
 63
     7
 40
1.0
291
     1
 91
  2455826
 92
 54000000
292
     0
 70
     2
 71
   256
280
     1
  0
DICTIONARY
  5
800
330
1D
100
AcDbDictionary
280
     1
281
     1
  3
ACAD_SORTENTS
360
801
  0
DICTIONARY
  5
82A
330
805
100
AcDbDictionary
280
     1
281
     1
  3
ACAD_SORTENTS
360
82B
  0
DICTIONARY
  5
856
330
831
100
AcDbDictionary
280
     1
281
     1
  3
ACAD_SORTENTS
360
857
  0
DICTIONARY
  5
894
330
86F
100
AcDbDictionary
280
     1
281
     1
  3
ACAD_SORTENTS
360
895
  0
DICTIONARY
  5
8F6
330
8D1
100
AcDbDictionary
280
     1
281
     1
  3
ACAD_SORTENTS
360
8F7
  0
DICTIONARY
  5
948
330
923
100
AcDbDictionary
280
     1
281
     1
  3
ACAD_SORTENTS
360
949
  0
DICTIONARY
  5
974
330
950
100
AcDbDictionary
280
     1
281
     1
  3
ACAD_SORTENTS
360
975
  0
DICTIONARY
  5
9A1
330
97D
100
AcDbDictionary
280
     1
281
     1
  3
ACAD_SORTENTS
360
9A2
  0
DICTIONARY
  5
9CF
330
9AA
100
AcDbDictionary
280
     1
281
     1
  3
ACAD_SORTENTS
360
9D0
  0
DICTIONARY
  5
A3A
330
A14
100
AcDbDictionary
280
     1
281
     1
  3
ACAD_SORTENTS
360
A3B
  0
DICTIONARY
  5
A6B
330
A45
100
AcDbDictionary
280
     1
281
     1
  3
ACAD_SORTENTS
360
A6C
  0
DICTIONARY
  5
B4E
330
B28
100
AcDbDictionary
280
     1
281
     1
  3
ACAD_SORTENTS
360
B4F
  0
DICTIONARY
  5
B7B
330
B55
100
AcDbDictionary
280
     1
281
     1
  3
ACAD_SORTENTS
360
B7C
  0
DICTIONARY
  5
BD0
330
BAA
100
AcDbDictionary
280
     1
281
     1
  3
ACAD_SORTENTS
360
BD1
  0
DICTIONARY
  5
F9B
330
F9A
100
AcDbDictionary
280
     1
281
     1
  3
AcDbContextDataManager
360
F9C
  0
DICTIONARY
  5
FA3
330
FA2
100
AcDbDictionary
280
     1
281
     1
  3
AcDbContextDataManager
360
FA4
  0
DICTIONARY
  5
FA7
330
FA6
100
AcDbDictionary
280
     1
281
     1
  3
AcDbContextDataManager
360
FA8
  0
DICTIONARY
  5
13AD
330
13AC
100
AcDbDictionary
280
     1
281
     1
  3
AcDbContextDataManager
360
13AE
  0
DICTIONARY
  5
13B1
330
13B0
100
AcDbDictionary
280
     1
281
     1
  3
AcDbContextDataManager
360
13B2
  0
DICTIONARY
  5
1489
102
{ACAD_REACTORS
330
C
102
}
330
C
100
AcDbDictionary
281
     1
  0
DICTIONARY
  5
D
102
{ACAD_REACTORS
330
C
102
}
330
C
100
AcDbDictionary
281
     1
  0
DICTIONARY
  5
1A
102
{ACAD_REACTORS
330
C
102
}
330
C
100
AcDbDictionary
281
     1
  3
Layout1
350
1C
  3
Model
350
1E
  0
DICTIONARY
  5
5F4
102
{ACAD_REACTORS
330
C
102
}
330
C
100
AcDbDictionary
281
     1
  3
ByBlock
350
5F6
  3
ByLayer
350
5F5
  3
Global
350
5F7
  0
DICTIONARY
  5
5FA
102
{ACAD_REACTORS
330
C
102
}
330
C
100
AcDbDictionary
281
     1
  3
Standard
350
5FB
  0
DICTIONARY
  5
17
102
{ACAD_REACTORS
330
C
102
}
330
C
100
AcDbDictionary
281
     1
  3
Standard
350
18
  0
DICTIONARY
  5
19
102
{ACAD_REACTORS
330
C
102
}
330
C
100
AcDbDictionary
281
     1
  0
ACDBDICTIONARYWDFLT
  5
E
102
{ACAD_REACTORS
330
C
102
}
330
C
100
AcDbDictionary
281
     1
  3
Normal
350
F
100
AcDbDictionaryWithDefault
340
F
  0
DICTIONARY
  5
5B5
102
{ACAD_REACTORS
330
C
102
}
330
C
100
AcDbDictionary
281
     1
  3
A0
350
5B6
  3
A1
350
5B7
  3
A2
350
5B8
  3
A3
350
5B9
  3
A4
350
5BA
  3
A5
350
5BB
  3
A6
350
5BC
  3
A7
350
5BD
  3
A8
350
5BE
  3
A9
350
5BF
  3
B0
350
5C0
  3
B1
350
5C1
  3
B2
350
5C2
  3
B3
350
5C3
  3
B4
350
5C4
  3
B5
350
5C5
  3
B6
350
5C6
  3
B7
350
5C7
  3
B8
350
5C8
  3
B9
350
5C9
  3
C0
350
5CA
  3
C1
350
5CB
  3
C2
350
5CC
  3
C3
350
5CD
  3
C4
350
5CE
  3
C5
350
5CF
  3
C6
350
5D0
  3
C7
350
5D1
  3
C8
350
5D2
  3
C9
350
5D3
  3
D0
350
5D4
  3
D1
350
5D5
  3
D2
350
5D6
  0
DICTIONARY
  5
148A
102
{ACAD_REACTORS
330
C
102
}
330
C
100
AcDbDictionary
281
     1
  0
DICTIONARY
  5
5F8
102
{ACAD_REACTORS
330
C
102
}
330
C
100
AcDbDictionary
281
     1
  3
Standard
350
5F9
  0
DICTIONARY
  5
5DB
102
{ACAD_REACTORS
330
C
102
}
330
C
100
AcDbDictionary
281
     1
  3
2dWireframe
350
5E0
  3
Basic
350
5E3
  3
Brighten
350
5E7
  3
ColorChange
350
5EB
  3
Conceptual
350
5E5
  3
Dim
350
5E6
  3
EdgeColorOff
350
5EE
  3
Facepattern
350
5EA
  3
Flat
350
5DC
  3
FlatWithEdges
350
5DD
  3
Gouraud
350
5DE
  3
GouraudWithEdges
350
5DF
  3
Hidden
350
5E2
  3
JitterOff
350
5EC
  3
Linepattern
350
5E9
  3
Modeling
350
5FC
  3
OverhangOff
350
5ED
  3
Realistic
350
5E4
  3
Shaded
350
5F3
  3
Shaded with edges
350
5F2
  3
Shades of Gray
350
5EF
  3
Sketchy
350
5F0
  3
Thicken
350
5E8
  3
Wireframe
350
5E1
  3
X-Ray
350
5F1
  0
XRECORD
  5
1488
102
{ACAD_REACTORS
330
C
102
}
330
C
100
AcDbXrecord
280
     1
 90
        1
330
5F9
  0
DICTIONARY
  5
85D
102
{ACAD_REACTORS
330
C
102
}
330
C
100
AcDbDictionary
281
     1
  3
CANNOSCALE
350
1485
  3
CMLEADERSTYLE
350
860
  3
CTABLESTYLE
350
85F
  3
DIMASSOC
350
AA2
  3
HIDETEXT
350
AA3
  3
MSLTSCALE
350
861
  0
SORTENTSTABLE
  5
801
102
{ACAD_REACTORS
330
800
102
}
330
800
100
AcDbSortentsTable
330
1D
331
0
  5
707
331
3FD
  5
400
331
3FE
  5
403
331
3FF
  5
404
331
400
  5
405
331
401
  5
406
331
402
  5
407
331
403
  5
408
331
404
  5
409
331
405
  5
40A
331
406
  5
40B
331
407
  5
40C
331
408
  5
40D
331
409
  5
40E
331
40A
  5
40F
331
40B
  5
410
331
40C
  5
411
331
40D
  5
412
331
40E
  5
413
331
40F
  5
414
331
410
  5
415
331
411
  5
416
331
412
  5
417
331
413
  5
418
331
414
  5
41A
331
415
  5
41B
331
416
  5
41C
331
417
  5
41E
331
418
  5
41F
331
419
  5
420
331
41A
  5
421
331
41B
  5
422
331
41C
  5
423
331
41D
  5
424
331
41E
  5
425
331
41F
  5
426
331
420
  5
427
331
421
  5
428
331
422
  5
429
331
423
  5
42A
331
424
  5
42B
331
425
  5
42C
331
426
  5
42D
331
427
  5
42E
331
428
  5
42F
331
429
  5
430
331
42A
  5
431
331
42B
  5
432
331
42C
  5
433
331
42D
  5
434
331
42E
  5
435
331
42F
  5
436
331
430
  5
437
331
431
  5
438
331
432
  5
439
331
433
  5
43A
331
434
  5
43B
331
435
  5
43C
331
436
  5
43D
331
437
  5
43E
331
438
  5
43F
331
439
  5
440
331
43A
  5
441
331
43B
  5
442
331
43C
  5
443
331
43D
  5
444
331
43E
  5
445
331
43F
  5
446
331
440
  5
447
331
441
  5
448
331
442
  5
449
331
443
  5
44A
331
444
  5
44B
331
445
  5
44C
331
446
  5
44D
331
447
  5
44E
331
448
  5
44F
331
449
  5
450
331
44A
  5
451
331
44B
  5
452
331
44C
  5
453
331
44D
  5
454
331
44E
  5
455
331
44F
  5
456
331
450
  5
457
331
451
  5
458
331
452
  5
459
331
453
  5
45A
331
454
  5
45B
331
455
  5
45C
331
456
  5
45D
331
457
  5
45E
331
458
  5
45F
331
459
  5
460
331
45A
  5
461
331
45B
  5
462
331
45C
  5
463
331
45D
  5
464
331
45E
  5
465
331
45F
  5
466
331
460
  5
467
331
461
  5
468
331
462
  5
469
331
463
  5
46A
331
464
  5
46B
331
465
  5
46C
331
466
  5
46D
331
467
  5
46E
331
468
  5
46F
331
469
  5
470
331
46A
  5
471
331
46B
  5
472
331
46C
  5
473
331
46D
  5
474
331
46E
  5
475
331
46F
  5
476
331
470
  5
477
331
471
  5
478
331
472
  5
479
331
473
  5
47A
331
474
  5
47B
331
475
  5
47C
331
476
  5
47D
331
477
  5
47E
331
478
  5
47F
331
479
  5
480
331
47A
  5
481
331
47B
  5
482
331
47C
  5
483
331
47D
  5
484
331
47E
  5
485
331
47F
  5
486
331
480
  5
487
331
481
  5
488
331
482
  5
489
331
483
  5
48A
331
484
  5
48B
331
485
  5
48C
331
486
  5
48D
331
487
  5
48E
331
488
  5
48F
331
489
  5
490
331
48A
  5
491
331
48B
  5
492
331
48C
  5
493
331
48D
  5
494
331
48E
  5
495
331
48F
  5
496
331
490
  5
497
331
491
  5
498
331
492
  5
499
331
493
  5
49A
331
494
  5
49B
331
495
  5
49C
331
496
  5
49D
331
497
  5
49E
331
498
  5
49F
331
499
  5
4A0
331
49A
  5
4A1
331
49B
  5
4A2
331
49C
  5
4A3
331
49D
  5
4A4
331
49E
  5
4A5
331
49F
  5
4A6
331
4A0
  5
4A7
331
4A1
  5
4A8
331
4A2
  5
4A9
331
4A3
  5
4AA
331
4A4
  5
4AB
331
4A5
  5
4AC
331
4A6
  5
4AD
331
4A7
  5
4AE
331
4A8
  5
4AF
331
4A9
  5
4B0
331
4AA
  5
4B1
331
4AB
  5
4B2
331
4AC
  5
4B3
331
4AD
  5
4B4
331
4AE
  5
4B5
331
4AF
  5
4B6
331
4B0
  5
4B7
331
4B1
  5
4B8
331
4B2
  5
4B9
331
4B3
  5
4BA
331
4B4
  5
4BB
331
4B5
  5
4BC
331
4B6
  5
4BD
331
4B7
  5
4BE
331
4B8
  5
4BF
331
4B9
  5
4C0
331
4BA
  5
4C1
331
4BB
  5
4C2
331
4BC
  5
4C3
331
4BD
  5
4C4
331
4BE
  5
4C5
331
4BF
  5
4C6
331
4C0
  5
4C7
331
4C1
  5
4C8
331
4C2
  5
4C9
331
4C3
  5
4CA
331
4C4
  5
4CB
331
4C5
  5
4CC
331
4C6
  5
4CD
331
4C7
  5
4CE
331
4C8
  5
4CF
331
4C9
  5
4D0
331
4CA
  5
4D1
331
4CB
  5
4D2
331
4CC
  5
4D3
331
4CD
  5
4D4
331
4CE
  5
4D5
331
4CF
  5
4D6
331
4D0
  5
4D7
331
4D1
  5
4D8
331
4D2
  5
4D9
331
4D3
  5
4DA
331
4D4
  5
4DB
331
4D5
  5
4DC
331
4D6
  5
4DD
331
4D7
  5
4E0
331
4D8
  5
4E1
331
4D9
  5
4E2
331
4DA
  5
4E3
331
4DB
  5
4E4
331
4DC
  5
4E6
331
4DF
  5
4E7
331
4E0
  5
4E9
331
4E1
  5
4EA
331
4E2
  5
4EC
331
4E3
  5
4ED
331
4E5
  5
4EF
331
4E6
  5
4F0
331
4E8
  5
4F1
331
4E9
  5
4F2
331
4EA
  5
4F3
331
4EB
  5
4F4
331
4EC
  5
4F5
331
4ED
  5
4F6
331
4EE
  5
4F7
331
4EF
  5
4F8
331
4F0
  5
4F9
331
4F1
  5
4FA
331
4F2
  5
4FF
331
4F3
  5
52B
331
4F4
  5
52D
331
4F5
  5
52E
331
4F6
  5
530
331
4F7
  5
53B
331
4F8
  5
53C
331
4F9
  5
53D
331
4FE
  5
53E
331
52A
  5
53F
331
52C
  5
540
331
52D
  5
541
331
52F
  5
542
331
53A
  5
543
331
53B
  5
544
331
53C
  5
545
331
53D
  5
546
331
53E
  5
547
331
53F
  5
54C
331
540
  5
54D
331
541
  5
54E
331
542
  5
54F
331
543
  5
550
331
544
  5
551
331
545
  5
552
331
546
  5
553
331
54B
  5
554
331
54C
  5
555
331
54D
  5
556
331
54E
  5
557
331
54F
  5
558
331
550
  5
559
331
551
  5
55A
331
552
  5
55C
331
553
  5
55D
331
554
  5
55F
331
555
  5
560
331
556
  5
561
331
557
  5
563
331
558
  5
565
331
559
  5
566
331
55B
  5
567
331
55C
  5
568
331
55E
  5
569
331
55F
  5
56A
331
560
  5
56B
331
562
  5
56C
331
564
  5
56D
331
565
  5
56E
331
566
  5
56F
331
567
  5
570
331
568
  5
571
331
569
  5
572
331
56A
  5
573
331
56B
  5
59F
331
56C
  5
5A0
331
56D
  5
5A1
331
56E
  5
5A2
331
56F
  5
5A3
331
570
  5
5A4
331
571
  5
5A5
331
572
  5
5A6
331
59E
  5
5A9
331
59F
  5
5AA
331
5A0
  5
5AB
331
5A1
  5
5AC
331
5A2
  5
5AD
331
5A3
  5
5FF
331
5A4
  5
600
331
5A5
  5
601
331
5A8
  5
602
331
5A9
  5
603
331
5AA
  5
604
331
5AB
  5
605
331
5AC
  5
606
331
5FE
  5
607
331
5FF
  5
608
331
600
  5
609
331
601
  5
60A
331
602
  5
60B
331
603
  5
60C
331
604
  5
60D
331
605
  5
60E
331
606
  5
60F
331
607
  5
610
331
608
  5
611
331
609
  5
612
331
60A
  5
613
331
60B
  5
614
331
60C
  5
615
331
60D
  5
616
331
60E
  5
617
331
60F
  5
618
331
610
  5
619
331
611
  5
61A
331
612
  5
61B
331
613
  5
61C
331
614
  5
61D
331
615
  5
61E
331
616
  5
61F
331
617
  5
620
331
618
  5
621
331
619
  5
622
331
61A
  5
623
331
61B
  5
624
331
61C
  5
625
331
61D
  5
626
331
61E
  5
627
331
61F
  5
628
331
620
  5
629
331
621
  5
62A
331
622
  5
62B
331
623
  5
62C
331
624
  5
62D
331
625
  5
62E
331
626
  5
62F
331
627
  5
630
331
628
  5
631
331
629
  5
632
331
62A
  5
633
331
62B
  5
634
331
62C
  5
635
331
62D
  5
636
331
62E
  5
637
331
62F
  5
638
331
630
  5
639
331
631
  5
63A
331
632
  5
63B
331
633
  5
63C
331
634
  5
63D
331
635
  5
63E
331
636
  5
63F
331
637
  5
640
331
638
  5
641
331
639
  5
642
331
63A
  5
643
331
63B
  5
644
331
63C
  5
645
331
63D
  5
646
331
63E
  5
647
331
63F
  5
648
331
640
  5
649
331
641
  5
64B
331
642
  5
64C
331
643
  5
64F
331
644
  5
650
331
645
  5
651
331
646
  5
652
331
647
  5
653
331
648
  5
654
331
64A
  5
655
331
64B
  5
656
331
64E
  5
657
331
64F
  5
658
331
650
  5
659
331
651
  5
65A
331
652
  5
65B
331
653
  5
65C
331
654
  5
65E
331
655
  5
65F
331
656
  5
661
331
657
  5
662
331
658
  5
663
331
659
  5
664
331
65A
  5
665
331
65B
  5
666
331
65D
  5
667
331
65E
  5
668
331
660
  5
669
331
661
  5
66A
331
662
  5
66B
331
663
  5
66C
331
664
  5
66D
331
665
  5
66E
331
666
  5
66F
331
667
  5
670
331
668
  5
671
331
669
  5
672
331
66A
  5
673
331
66B
  5
674
331
66C
  5
675
331
66D
  5
676
331
66E
  5
677
331
66F
  5
678
331
670
  5
679
331
671
  5
67A
331
672
  5
67B
331
673
  5
67C
331
674
  5
67D
331
675
  5
67E
331
676
  5
67F
331
677
  5
680
331
678
  5
681
331
679
  5
682
331
67A
  5
683
331
67B
  5
684
331
67C
  5
685
331
67D
  5
686
331
67E
  5
687
331
67F
  5
689
331
680
  5
68A
331
681
  5
68B
331
682
  5
68C
331
683
  5
68D
331
684
  5
68E
331
685
  5
68F
331
686
  5
690
331
688
  5
691
331
689
  5
692
331
68A
  5
693
331
68B
  5
694
331
68C
  5
695
331
68D
  5
697
331
68E
  5
698
331
68F
  5
699
331
690
  5
69A
331
691
  5
69B
331
692
  5
69C
331
693
  5
69D
331
694
  5
69E
331
696
  5
69F
331
697
  5
6A0
331
698
  5
6A1
331
699
  5
6A2
331
69A
  5
6A3
331
69B
  5
6A4
331
69C
  5
6A5
331
69D
  5
6A6
331
69E
  5
6A7
331
69F
  5
6A8
331
6A0
  5
6A9
331
6A1
  5
6AA
331
6A2
  5
6AB
331
6A3
  5
6AC
331
6A4
  5
6AD
331
6A5
  5
6AE
331
6A6
  5
6AF
331
6A7
  5
6B0
331
6A8
  5
6B1
331
6A9
  5
6B2
331
6AA
  5
6BB
331
6AB
  5
6BC
331
6AC
  5
6BD
331
6AD
  5
6BE
331
6AE
  5
6BF
331
6AF
  5
6C0
331
6B0
  5
6C1
331
6B1
  5
6C2
331
6BA
  5
6C3
331
6BB
  5
6C5
331
6BC
  5
6C6
331
6BD
  5
6C7
331
6BE
  5
6C8
331
6BF
  5
6C9
331
6C0
  5
6CA
331
6C1
  5
6CB
331
6C2
  5
6CC
331
6C4
  5
6CD
331
6C5
  5
6CE
331
6C6
  5
6CF
331
6C7
  5
6D0
331
6C8
  5
6D1
331
6C9
  5
6D2
331
6CA
  5
6D3
331
6CB
  5
6D4
331
6CC
  5
6D5
331
6CD
  5
6D6
331
6CE
  5
6D7
331
6CF
  5
6D8
331
6D0
  5
6D9
331
6D1
  5
6DA
331
6D2
  5
6DB
331
6D3
  5
6DC
331
6D4
  5
6DD
331
6D5
  5
6DE
331
6D6
  5
6DF
331
6D7
  5
6E0
331
6D8
  5
6E1
331
6D9
  5
6E2
331
6DA
  5
6E3
331
6DB
  5
6E4
331
6DC
  5
6E5
331
6DD
  5
6E6
331
6DE
  5
6E7
331
6DF
  5
6E8
331
6E0
  5
6E9
331
6E1
  5
6EA
331
6E2
  5
6EB
331
6E3
  5
6EC
331
6E4
  5
6ED
331
6E5
  5
6EE
331
6E6
  5
6EF
331
6E7
  5
6F3
331
6E8
  5
6F4
331
6E9
  5
6F5
331
6EA
  5
6F9
331
6EB
  5
6FA
331
6EC
  5
6FB
331
6ED
  5
6FC
331
6EE
  5
6FD
331
6F2
  5
6FE
331
6F3
  5
6FF
331
6F4
  5
700
331
6F8
  5
701
331
6F9
  5
702
331
6FA
  5
703
331
6FC
  5
708
331
6FD
  5
709
331
6FE
  5
70A
331
6FF
  5
70B
331
700
  5
70F
331
701
  5
710
331
702
  5
711
331
706
  5
712
331
707
  5
713
331
708
  5
714
331
709
  5
715
331
70A
  5
716
331
70E
  5
717
331
70F
  5
718
331
710
  5
719
331
711
  5
71A
331
712
  5
71B
331
713
  5
71C
331
714
  5
71D
331
715
  5
71E
331
716
  5
71F
331
717
  5
720
331
718
  5
721
331
719
  5
722
331
71A
  5
723
331
71B
  5
724
331
71C
  5
725
331
71D
  5
726
331
71E
  5
727
331
71F
  5
728
331
720
  5
729
331
721
  5
72A
331
722
  5
72B
331
723
  5
72C
331
724
  5
72D
331
725
  5
72E
331
726
  5
72F
331
727
  5
730
331
728
  5
731
331
729
  5
732
331
72A
  5
733
331
72B
  5
734
331
72C
  5
735
331
72D
  5
736
331
72E
  5
737
331
72F
  5
73B
331
730
  5
73C
331
731
  5
73D
331
732
  5
741
331
733
  5
742
331
734
  5
743
331
735
  5
747
331
736
  5
748
331
73A
  5
749
331
73B
  5
74A
331
73C
  5
74B
331
740
  5
74C
331
741
  5
74D
331
742
  5
74E
331
746
  5
74F
331
747
  5
751
331
748
  5
752
331
749
  5
753
331
74A
  5
754
331
74B
  5
755
331
74C
  5
756
331
74D
  5
757
331
74E
  5
758
331
750
  5
759
331
751
  5
75A
331
752
  5
75B
331
753
  5
75C
331
754
  5
75D
331
755
  5
75E
331
756
  5
75F
331
757
  5
760
331
758
  5
761
331
759
  5
762
331
75A
  5
763
331
75B
  5
764
331
75C
  5
765
331
75D
  5
766
331
75E
  5
767
331
75F
  5
768
331
760
  5
769
331
761
  5
76A
331
762
  5
76B
331
763
  5
76C
331
764
  5
76D
331
765
  5
76F
331
766
  5
771
331
767
  5
773
331
768
  5
774
331
769
  5
776
331
76A
  5
777
331
76B
  5
778
331
76C
  5
779
331
76E
  5
77A
331
770
  5
77B
331
772
  5
77C
331
773
  5
77D
331
775
  5
77E
331
776
  5
77F
331
777
  5
780
331
778
  5
782
331
779
  5
783
331
77A
  5
786
331
77B
  5
787
331
77C
  5
788
331
77D
  5
789
331
77E
  5
78A
331
77F
  5
78B
331
781
  5
78C
331
782
  5
78D
331
785
  5
78E
331
786
  5
78F
331
787
  5
790
331
788
  5
791
331
789
  5
792
331
78A
  5
798
331
78B
  5
799
331
78C
  5
79A
331
78D
  5
79B
331
78E
  5
79C
331
78F
  5
79D
331
790
  5
79E
331
791
  5
79F
331
797
  5
7A0
331
798
  5
7A1
331
799
  5
7A2
331
79A
  5
7A3
331
79B
  5
7A4
331
79C
  5
7A5
331
79D
  5
7A6
331
79E
  5
7A7
331
79F
  5
7A8
331
7A0
  5
7A9
331
7A1
  5
7AA
331
7A2
  5
7AB
331
7A3
  5
7AC
331
7A4
  5
7AD
331
7A5
  5
7AE
331
7A6
  5
7AF
331
7A7
  5
7B0
331
7A8
  5
7B1
331
7A9
  5
7B2
331
7AA
  5
7B3
331
7AB
  5
7B4
331
7AC
  5
7B5
331
7AD
  5
7B6
331
7AE
  5
7B7
331
7AF
  5
7B8
331
7B0
  5
7B9
331
7B1
  5
7BA
331
7B2
  5
7BB
331
7B3
  5
7BC
331
7B4
  5
7BD
331
7B5
  5
7BE
331
7B6
  5
7BF
331
7B7
  5
7C0
331
7B8
  5
7C1
331
7B9
  5
7C2
331
7BA
  5
7C3
331
7BB
  5
7C6
331
7BC
  5
7C7
331
7BD
  5
7C8
331
7BE
  5
7C9
331
7BF
  5
7CA
331
7C0
  5
7CB
331
7C1
  5
7CC
331
7C2
  5
7CD
331
7C5
  5
7CE
331
7C6
  5
7CF
331
7C7
  5
7D0
331
7C8
  5
7D1
331
7C9
  5
7D2
331
7CA
  5
7D3
331
7CB
  5
7D4
331
7CC
  5
7D5
331
7CD
  5
7D6
331
7CE
  5
7D7
331
7CF
  5
7D8
331
7D0
  5
7D9
331
7D1
  5
7DB
331
7D2
  5
7DC
331
7D3
  5
7DD
331
7D4
  5
7DE
331
7D5
  5
7DF
331
7D6
  5
7E0
331
7D7
  5
7E1
331
7D8
  5
7E2
331
7DA
  5
7E3
331
7DB
  5
7E4
331
7DC
  5
7E5
331
7DD
  5
7E6
331
7DE
  5
7E7
331
7DF
  5
7E8
331
7E0
  5
7E9
331
7E1
  5
7EA
331
7E2
  5
7EB
331
7E3
  5
7EC
331
7E4
  5
7ED
331
7E5
  5
7EE
331
7E6
  5
7F7
331
7E7
  5
7F8
331
7E8
  5
7F9
331
7E9
  5
7FA
331
7EA
  5
7FB
331
7EB
  5
7FC
331
7EC
  5
7FD
331
7ED
  5
7FE
331
7F6
  5
85C
331
7F7
  5
866
331
7F8
  5
867
331
7F9
  5
868
331
7FA
  5
869
331
7FB
  5
86A
331
7FC
  5
86E
331
7FD
  5
8B5
331
85C
  5
8B6
331
866
  5
8B7
331
867
  5
8B8
331
868
  5
8B9
331
869
  5
8BA
331
86A
  5
8BB
331
86E
  5
8BC
331
8B5
  5
8BD
331
8B6
  5
8BE
331
8B7
  5
8BF
331
8B8
  5
8C0
331
8B9
  5
8C1
331
8BA
  5
8C2
331
8BB
  5
8C3
331
8BC
  5
8C4
331
8BD
  5
8C5
331
8BE
  5
8CB
331
8BF
  5
8CC
331
8C0
  5
8CD
331
8C1
  5
8CE
331
8C2
  5
8D0
331
8C3
  5
901
331
8C4
  5
902
331
8C5
  5
903
331
8CB
  5
904
331
8CC
  5
905
331
8CD
  5
91C
331
8CE
  5
91D
331
8D0
  5
91F
331
901
  5
94E
331
902
  5
94F
331
903
  5
97B
331
904
  5
97C
331
905
  5
9D5
331
91C
  5
9F9
331
91D
  5
9FA
331
91F
  5
9FB
331
94E
  5
9FC
331
94F
  5
A00
331
97B
  5
A01
331
97C
  5
A03
331
9D5
  5
A07
331
9F9
  5
A08
331
9FA
  5
A09
331
9FB
  5
A0A
331
9FC
  5
A0B
331
A00
  5
A0C
331
A01
  5
A0D
331
A03
  5
A0E
331
A07
  5
A0F
331
A08
  5
A10
331
A09
  5
A11
331
A0A
  5
A12
331
A0B
  5
A13
331
A0C
  5
A42
331
A0D
  5
A43
331
A0E
  5
A44
331
A0F
  5
A78
331
A10
  5
A79
331
A11
  5
A7A
331
A12
  5
A7B
331
A13
  5
A7C
331
A42
  5
A7D
331
A43
  5
A7E
331
A44
  5
A7F
331
A78
  5
ADF
331
A79
  5
AE0
331
A7A
  5
AE1
331
A7B
  5
AE2
331
A7C
  5
AE3
331
A7D
  5
AE4
331
A7E
  5
AE5
331
A7F
  5
AE7
331
ADF
  5
AF8
331
AE0
  5
AF9
331
AE1
  5
AFA
331
AE2
  5
AFB
331
AE3
  5
AFD
331
AE4
  5
AFE
331
AE5
  5
AFF
331
AE7
  5
B00
331
AF8
  5
B21
331
AF9
  5
B22
331
AFA
  5
B24
331
AFB
  5
B54
331
AFD
  5
B85
331
AFE
  5
B86
331
AFF
  5
B87
331
B00
  5
B88
331
B21
  5
B89
331
B22
  5
C35
331
B24
  5
C36
331
B54
  5
F29
331
B85
  5
F2A
331
B86
  5
F2B
331
B87
  5
F2C
331
B88
  5
F2D
331
B89
  5
F2E
331
C35
  5
F2F
331
C36
  5
F30
331
F29
  5
F31
331
F2A
  5
F32
331
F2B
  5
F33
331
F2C
  5
F34
331
F2D
  5
F35
331
F2E
  5
F36
331
F2F
  5
F96
331
F30
  5
F9A
331
F31
  5
F9E
331
F32
  5
FA2
331
F33
  5
FA6
331
F34
  5
117B
331
F35
  5
12B1
331
F36
  5
1319
331
F9A
  5
4EE
331
FA2
  5
41D
331
FA6
  5
4EB
331
12B1
  5
131A
331
1398
  5
139A
331
1399
  5
139B
331
139A
  5
139C
331
139B
  5
139D
331
139C
  5
139E
331
139D
  5
139F
331
139E
  5
13A0
331
139F
  5
13A1
331
13A0
  5
13A2
331
13A1
  5
13A3
331
13A2
  5
13A4
331
13A3
  5
13A5
331
13A4
  5
13A6
331
13A5
  5
13A7
331
13A6
  5
13A8
331
13A7
  5
13A9
331
13A8
  5
13AA
331
13A9
  5
13AB
331
13AA
  5
13AC
331
13AB
  5
13B0
331
13AC
  5
402
331
13B0
  5
3FF
  0
SORTENTSTABLE
  5
82B
102
{ACAD_REACTORS
330
82A
330
82A
102
}
330
82A
100
AcDbSortentsTable
330
805
  0
SORTENTSTABLE
  5
857
102
{ACAD_REACTORS
330
856
330
856
102
}
330
856
100
AcDbSortentsTable
330
831
  0
SORTENTSTABLE
  5
895
102
{ACAD_REACTORS
330
894
330
894
102
}
330
894
100
AcDbSortentsTable
330
86F
  0
SORTENTSTABLE
  5
8F7
102
{ACAD_REACTORS
330
8F6
330
8F6
102
}
330
8F6
100
AcDbSortentsTable
330
8D1
  0
SORTENTSTABLE
  5
949
102
{ACAD_REACTORS
330
948
330
948
102
}
330
948
100
AcDbSortentsTable
330
923
  0
SORTENTSTABLE
  5
975
102
{ACAD_REACTORS
330
974
330
974
102
}
330
974
100
AcDbSortentsTable
330
950
  0
SORTENTSTABLE
  5
9A2
102
{ACAD_REACTORS
330
9A1
330
9A1
102
}
330
9A1
100
AcDbSortentsTable
330
97D
  0
SORTENTSTABLE
  5
9D0
102
{ACAD_REACTORS
330
9CF
330
9CF
102
}
330
9CF
100
AcDbSortentsTable
330
9AA
  0
SORTENTSTABLE
  5
A3B
102
{ACAD_REACTORS
330
A3A
330
A3A
102
}
330
A3A
100
AcDbSortentsTable
330
A14
  0
SORTENTSTABLE
  5
A6C
102
{ACAD_REACTORS
330
A6B
330
A6B
102
}
330
A6B
100
AcDbSortentsTable
330
A45
  0
SORTENTSTABLE
  5
B4F
102
{ACAD_REACTORS
330
B4E
330
B4E
102
}
330
B4E
100
AcDbSortentsTable
330
B28
  0
SORTENTSTABLE
  5
B7C
102
{ACAD_REACTORS
330
B7B
330
B7B
102
}
330
B7B
100
AcDbSortentsTable
330
B55
  0
SORTENTSTABLE
  5
BD1
102
{ACAD_REACTORS
330
BD0
330
BD0
102
}
330
BD0
100
AcDbSortentsTable
330
BAA
  0
DICTIONARY
  5
F9C
102
{ACAD_REACTORS
330
F9B
102
}
330
F9B
100
AcDbDictionary
281
     1
  3
ACDB_ANNOTATIONSCALES
350
F9D
  0
DICTIONARY
  5
FA4
102
{ACAD_REACTORS
330
FA3
102
}
330
FA3
100
AcDbDictionary
281
     1
  3
ACDB_ANNOTATIONSCALES
350
FA5
  0
DICTIONARY
  5
FA8
102
{ACAD_REACTORS
330
FA7
102
}
330
FA7
100
AcDbDictionary
281
     1
  3
ACDB_ANNOTATIONSCALES
350
FA9
  0
DICTIONARY
  5
13AE
102
{ACAD_REACTORS
330
13AD
102
}
330
13AD
100
AcDbDictionary
281
     1
  3
ACDB_ANNOTATIONSCALES
350
13AF
  0
DICTIONARY
  5
13B2
102
{ACAD_REACTORS
330
13B1
102
}
330
13B1
100
AcDbDictionary
281
     1
  3
ACDB_ANNOTATIONSCALES
350
13B3
  0
LAYOUT
  5
1C
102
{ACAD_REACTORS
330
1A
102
}
330
1A
100
AcDbPlotSettings
  1

  2
none_device
  4

  6

 40
0.0
 41
0.0
 42
0.0
 43
0.0
 44
0.0
 45
0.0
 46
0.0
 47
0.0
 48
0.0
 49
0.0
140
0.0
141
0.0
142
1.0
143
1.0
 70
   688
 72
     0
 73
     0
 74
     5
  7
monochrome.ctb
 75
    16
 76
     0
 77
     2
 78
   300
147
1.0
148
0.0
149
0.0
100
AcDbLayout
  1
Layout1
 70
     1
 71
     1
 10
0.0
 20
0.0
 11
12.0
 21
9.0
 12
0.0
 22
0.0
 32
0.0
 14
1.000000000000E+20
 24
1.000000000000E+20
 34
1.000000000000E+20
 15
-1.000000000000E+20
 25
-1.000000000000E+20
 35
-1.000000000000E+20
146
0.0
 13
0.0
 23
0.0
 33
0.0
 16
1.0
 26
0.0
 36
0.0
 17
0.0
 27
1.0
 37
0.0
 76
     0
330
1B
  0
LAYOUT
  5
1E
102
{ACAD_REACTORS
330
1A
102
}
330
1A
100
AcDbPlotSettings
  1

  2
RICOH imagio MP C3500 RPCS
  4
A3
  6

 40
5.08
 41
5.08
 42
5.08
 43
5.08
 44
297.0
 45
420.0
 46
6.247192851824
 47
0.0
 48
-66.1981
 49
-41.5839
140
810.3238
141
464.0169
142
1.0
143
91.88352628218
 70
  1716
 72
     0
 73
     1
 74
     0
  7
monochrome.ctb
 75
     0
 76
     0
 77
     2
 78
   300
147
0.010883343734
148
7177.245345715375
149
3972.37819543991
100
AcDbLayout
  1
Model
 70
     1
 71
     0
 10
0.0
 20
0.0
 11
12.0
 21
9.0
 12
0.0
 22
0.0
 32
0.0
 14
7.115885
 24
40.483775814719
 34
0.0
 15
719.335923661009
 25
404.677091559041
 35
0.0
146
0.0
 13
0.0
 23
0.0
 33
0.0
 16
1.0
 26
0.0
 36
0.0
 17
0.0
 27
1.0
 37
0.0
 76
     0
330
1D
331
3B
  0
MATERIAL
  5
5F6
102
{ACAD_REACTORS
330
5F4
102
}
330
5F4
100
AcDbMaterial
  1
ByBlock
 72
     1
 94
      127
  0
MATERIAL
  5
5F5
102
{ACAD_REACTORS
330
5F4
102
}
330
5F4
100
AcDbMaterial
  1
ByLayer
 72
     1
 94
      127
  0
MATERIAL
  5
5F7
102
{ACAD_REACTORS
330
5F4
102
}
330
5F4
100
AcDbMaterial
  1
Global
 72
     1
 94
      127
  0
MLEADERSTYLE
  5
5FB
102
{ACAD_REACTORS
330
5FA
102
}
330
5FA
100
AcDbMLeaderStyle
179
     2
170
     2
171
     1
172
     0
 90
        2
 40
0.0
 41
0.0
173
     1
 91
-1056964608
340
14
 92
       -2
290
     1
 42
0.09
291
     1
 43
0.36
  3
Standard
341
0
 44
0.18
300

342
11
174
     1
178
     6
175
     1
176
     0
 93
-1056964608
 45
0.18
292
     0
297
     0
 46
0.18
343
0
 94
-1056964608
 47
1.0
 49
1.0
140
1.0
293
     1
141
0.0
294
     1
177
     0
142
1.0
295
     0
296
     0
143
0.125
271
     0
272
     9
273
     9
298
     0
  0
MLINESTYLE
  5
18
102
{ACAD_REACTORS
330
17
102
}
330
17
100
AcDbMlineStyle
  2
Standard
 70
     0
  3

 62
   256
 51
90.0
 52
90.0
 71
     2
 49
0.5
 62
   256
  6
BYLAYER
 49
-0.5
 62
   256
  6
BYLAYER
  0
ACDBPLACEHOLDER
  5
F
102
{ACAD_REACTORS
330
E
102
}
330
E
  0
SCALE
  5
5B6
102
{ACAD_REACTORS
330
5B5
102
}
330
5B5
100
AcDbScale
 70
     0
300
1:1
140
1.0
141
1.0
290
     1
  0
SCALE
  5
5B7
102
{ACAD_REACTORS
330
5B5
102
}
330
5B5
100
AcDbScale
 70
     0
300
1:2
140
1.0
141
2.0
290
     0
  0
SCALE
  5
5B8
102
{ACAD_REACTORS
330
5B5
102
}
330
5B5
100
AcDbScale
 70
     0
300
1:4
140
1.0
141
4.0
290
     0
  0
SCALE
  5
5B9
102
{ACAD_REACTORS
330
5B5
102
}
330
5B5
100
AcDbScale
 70
     0
300
1:5
140
1.0
141
5.0
290
     0
  0
SCALE
  5
5BA
102
{ACAD_REACTORS
330
5B5
102
}
330
5B5
100
AcDbScale
 70
     0
300
1:8
140
1.0
141
8.0
290
     0
  0
SCALE
  5
5BB
102
{ACAD_REACTORS
330
5B5
102
}
330
5B5
100
AcDbScale
 70
     0
300
1:10
140
1.0
141
10.0
290
     0
  0
SCALE
  5
5BC
102
{ACAD_REACTORS
330
5B5
102
}
330
5B5
100
AcDbScale
 70
     0
300
1:16
140
1.0
141
16.0
290
     0
  0
SCALE
  5
5BD
102
{ACAD_REACTORS
330
5B5
102
}
330
5B5
100
AcDbScale
 70
     0
300
1:20
140
1.0
141
20.0
290
     0
  0
SCALE
  5
5BE
102
{ACAD_REACTORS
330
5B5
102
}
330
5B5
100
AcDbScale
 70
     0
300
1:30
140
1.0
141
30.0
290
     0
  0
SCALE
  5
5BF
102
{ACAD_REACTORS
330
5B5
102
}
330
5B5
100
AcDbScale
 70
     0
300
1:40
140
1.0
141
40.0
290
     0
  0
SCALE
  5
5C0
102
{ACAD_REACTORS
330
5B5
102
}
330
5B5
100
AcDbScale
 70
     0
300
1:50
140
1.0
141
50.0
290
     0
  0
SCALE
  5
5C1
102
{ACAD_REACTORS
330
5B5
102
}
330
5B5
100
AcDbScale
 70
     0
300
1:100
140
1.0
141
100.0
290
     0
  0
SCALE
  5
5C2
102
{ACAD_REACTORS
330
5B5
102
}
330
5B5
100
AcDbScale
 70
     0
300
2:1
140
2.0
141
1.0
290
     0
  0
SCALE
  5
5C3
102
{ACAD_REACTORS
330
5B5
102
}
330
5B5
100
AcDbScale
 70
     0
300
4:1
140
4.0
141
1.0
290
     0
  0
SCALE
  5
5C4
102
{ACAD_REACTORS
330
5B5
102
}
330
5B5
100
AcDbScale
 70
     0
300
8:1
140
8.0
141
1.0
290
     0
  0
SCALE
  5
5C5
102
{ACAD_REACTORS
330
5B5
102
}
330
5B5
100
AcDbScale
 70
     0
300
10:1
140
10.0
141
1.0
290
     0
  0
SCALE
  5
5C6
102
{ACAD_REACTORS
330
5B5
102
}
330
5B5
100
AcDbScale
 70
     0
300
100:1
140
100.0
141
1.0
290
     0
  0
SCALE
  5
5C7
102
{ACAD_REACTORS
330
5B5
102
}
330
5B5
100
AcDbScale
 70
     0
300
1/128" = 1'-0"
140
0.0078125
141
12.0
290
     0
  0
SCALE
  5
5C8
102
{ACAD_REACTORS
330
5B5
102
}
330
5B5
100
AcDbScale
 70
     0
300
1/64" = 1'-0"
140
0.015625
141
12.0
290
     0
  0
SCALE
  5
5C9
102
{ACAD_REACTORS
330
5B5
102
}
330
5B5
100
AcDbScale
 70
     0
300
1/32" = 1'-0"
140
0.03125
141
12.0
290
     0
  0
SCALE
  5
5CA
102
{ACAD_REACTORS
330
5B5
102
}
330
5B5
100
AcDbScale
 70
     0
300
1/16" = 1'-0"
140
0.0625
141
12.0
290
     0
  0
SCALE
  5
5CB
102
{ACAD_REACTORS
330
5B5
102
}
330
5B5
100
AcDbScale
 70
     0
300
3/32" = 1'-0"
140
0.09375
141
12.0
290
     0
  0
SCALE
  5
5CC
102
{ACAD_REACTORS
330
5B5
102
}
330
5B5
100
AcDbScale
 70
     0
300
1/8" = 1'-0"
140
0.125
141
12.0
290
     0
  0
SCALE
  5
5CD
102
{ACAD_REACTORS
330
5B5
102
}
330
5B5
100
AcDbScale
 70
     0
300
3/16" = 1'-0"
140
0.1875
141
12.0
290
     0
  0
SCALE
  5
5CE
102
{ACAD_REACTORS
330
5B5
102
}
330
5B5
100
AcDbScale
 70
     0
300
1/4" = 1'-0"
140
0.25
141
12.0
290
     0
  0
SCALE
  5
5CF
102
{ACAD_REACTORS
330
5B5
102
}
330
5B5
100
AcDbScale
 70
     0
300
3/8" = 1'-0"
140
0.375
141
12.0
290
     0
  0
SCALE
  5
5D0
102
{ACAD_REACTORS
330
5B5
102
}
330
5B5
100
AcDbScale
 70
     0
300
1/2" = 1'-0"
140
0.5
141
12.0
290
     0
  0
SCALE
  5
5D1
102
{ACAD_REACTORS
330
5B5
102
}
330
5B5
100
AcDbScale
 70
     0
300
3/4" = 1'-0"
140
0.75
141
12.0
290
     0
  0
SCALE
  5
5D2
102
{ACAD_REACTORS
330
5B5
102
}
330
5B5
100
AcDbScale
 70
     0
300
1" = 1'-0"
140
1.0
141
12.0
290
     0
  0
SCALE
  5
5D3
102
{ACAD_REACTORS
330
5B5
102
}
330
5B5
100
AcDbScale
 70
     0
300
1-1/2" = 1'-0"
140
1.5
141
12.0
290
     0
  0
SCALE
  5
5D4
102
{ACAD_REACTORS
330
5B5
102
}
330
5B5
100
AcDbScale
 70
     0
300
3" = 1'-0"
140
3.0
141
12.0
290
     0
  0
SCALE
  5
5D5
102
{ACAD_REACTORS
330
5B5
102
}
330
5B5
100
AcDbScale
 70
     0
300
6" = 1'-0"
140
6.0
141
12.0
290
     0
  0
SCALE
  5
5D6
102
{ACAD_REACTORS
330
5B5
102
}
330
5B5
100
AcDbScale
 70
     0
300
1'-0" = 1'-0"
140
12.0
141
12.0
290
     0
  0
TABLESTYLE
  5
5F9
102
{ACAD_REACTORS
330
5F8
102
}
102
{ACAD_XDICTIONARY
360
1486
102
}
330
5F8
100
AcDbTableStyle
  3
Standard
 70
     0
 71
     0
 40
0.06
 41
0.06
280
     0
281
     0
  7
Standard
140
0.18
170
     2
 62
     0
 63
   257
283
     0
 90
        4
 91
        0
  1

274
    -2
284
     1
 64
     0
275
    -2
285
     1
 65
     0
276
    -2
286
     1
 66
     0
277
    -2
287
     1
 67
     0
278
    -2
288
     1
 68
     0
279
    -2
289
     1
 69
     0
  7
Standard
140
0.25
170
     5
 62
     0
 63
   257
283
     0
 90
        4
 91
        0
  1

274
    -2
284
     1
 64
     0
275
    -2
285
     1
 65
     0
276
    -2
286
     1
 66
     0
277
    -2
287
     1
 67
     0
278
    -2
288
     1
 68
     0
279
    -2
289
     1
 69
     0
  7
Standard
140
0.18
170
     5
 62
     0
 63
   257
283
     0
 90
        4
 91
        0
  1

274
    -2
284
     1
 64
     0
275
    -2
285
     1
 65
     0
276
    -2
286
     1
 66
     0
277
    -2
287
     1
 67
     0
278
    -2
288
     1
 68
     0
279
    -2
289
     1
 69
     0
  0
VISUALSTYLE
  5
5E0
102
{ACAD_REACTORS
330
5DB
102
}
330
5DB
100
AcDbVisualStyle
  2
2dWireframe
 70
     4
177
     3
291
     0
 70
    58
 90
        0
176
     1
 90
        2
176
     1
 90
        0
176
     1
 90
        0
176
     1
 40
0.6
176
     1
 40
30.0
176
     1
 62
     7
176
     1
 90
        1
176
     1
 90
        4
176
     1
 62
     7
176
     1
 62
   257
176
     1
 90
        1
176
     1
 90
        1
176
     1
 40
1.0
176
     1
 90
        0
176
     1
 62
   257
176
     1
 40
1.0
176
     1
 90
        1
176
     1
 90
        6
176
     1
 90
        2
176
     1
 62
     7
176
     1
 90
        5
176
     1
 90
        0
176
     1
 90
        0
176
     1
290
     0
176
     1
 90
        1
176
     1
 40
0.0
176
     1
 90
        0
176
     1
290
     1
176
     1
290
     1
176
     1
290
     0
176
     1
290
     0
176
     1
290
     0
176
     1
290
     0
176
     1
290
     0
176
     1
290
     0
176
     1
290
     0
176
     1
 90
       50
176
     1
 40
0.0
176
     1
 40
1.0
176
     1
 90
        0
176
     1
 62
    18
420
        0
176
     1
 90
       50
176
     1
 90
        3
176
     1
 62
     5
420
      255
176
     1
290
     0
176
     1
 90
       50
176
     1
 90
       50
176
     1
 90
       50
176
     1
290
     0
176
     1
 90
       50
176
     1
 62
   256
176
     0
 40
1.0
176
     0
 90
        2
176
     1
  1
strokes_ogs.tif
176
     1
290
     0
176
     1
 40
1.0
176
     1
 40
1.0
176
     1
  0
VISUALSTYLE
  5
5E3
102
{ACAD_REACTORS
330
5DB
102
}
330
5DB
100
AcDbVisualStyle
  2
Basic
 70
     7
177
     3
291
     1
 70
    58
 90
        1
176
     1
 90
        0
176
     1
 90
        1
176
     1
 90
        0
176
     1
 40
0.6
176
     1
 40
30.0
176
     1
 62
     7
176
     1
 90
        0
176
     1
 90
        4
176
     1
 62
     7
176
     1
 62
   257
176
     1
 90
        1
176
     1
 90
        1
176
     1
 40
1.0
176
     1
 90
        8
176
     1
 62
     7
176
     1
 40
1.0
176
     1
 90
        1
176
     1
 90
        6
176
     1
 90
        2
176
     1
 62
     7
176
     1
 90
        5
176
     1
 90
        0
176
     1
 90
        0
176
     1
290
     0
176
     1
 90
        1
176
     1
 40
0.0
176
     1
 90
        0
176
     1
290
     0
176
     1
290
     1
176
     1
290
     1
176
     1
290
     0
176
     1
290
     0
176
     1
290
     0
176
     1
290
     0
176
     1
290
     0
176
     1
290
     0
176
     1
 90
       50
176
     1
 40
0.0
176
     1
 40
1.0
176
     1
 90
        0
176
     1
 62
    18
420
        0
176
     1
 90
       50
176
     1
 90
        3
176
     1
 62
     5
420
      255
176
     1
290
     0
176
     1
 90
       50
176
     1
 90
       50
176
     1
 90
       50
176
     1
290
     0
176
     1
 90
       50
176
     1
 62
   256
176
     0
 40
1.0
176
     0
 90
        2
176
     1
  1
strokes_ogs.tif
176
     1
290
     0
176
     1
 40
1.0
176
     1
 40
1.0
176
     1
  0
VISUALSTYLE
  5
5E7
102
{ACAD_REACTORS
330
5DB
102
}
330
5DB
100
AcDbVisualStyle
  2
Brighten
 70
    12
177
     3
291
     1
 70
    58
 90
        2
176
     1
 90
        2
176
     1
 90
        0
176
     1
 90
        0
176
     1
 40
0.6
176
     1
 40
30.0
176
     1
 62
     7
176
     1
 90
        1
176
     1
 90
        4
176
     1
 62
     7
176
     1
 62
   257
176
     1
 90
        1
176
     1
 90
        1
176
     1
 40
1.0
176
     1
 90
        8
176
     1
 62
     7
176
     1
 40
1.0
176
     1
 90
        1
176
     1
 90
        6
176
     1
 90
        2
176
     1
 62
     7
176
     1
 90
        5
176
     1
 90
        0
176
     1
 90
        0
176
     1
290
     0
176
     1
 90
        1
176
     1
 40
50.0
176
     1
 90
        0
176
     1
290
     0
176
     1
290
     1
176
     1
290
     1
176
     1
290
     0
176
     1
290
     0
176
     1
290
     0
176
     1
290
     0
176
     1
290
     0
176
     1
290
     0
176
     1
 90
       50
176
     1
 40
0.0
176
     1
 40
1.0
176
     1
 90
        0
176
     1
 62
    18
420
        0
176
     1
 90
       50
176
     1
 90
        3
176
     1
 62
     5
420
      255
176
     1
290
     0
176
     1
 90
       50
176
     1
 90
       50
176
     1
 90
       50
176
     1
290
     0
176
     1
 90
       50
176
     1
 62
   256
176
     0
 40
1.0
176
     0
 90
        2
176
     1
  1
strokes_ogs.tif
176
     1
290
     0
176
     1
 40
1.0
176
     1
 40
1.0
176
     1
  0
VISUALSTYLE
  5
5EB
102
{ACAD_REACTORS
330
5DB
102
}
330
5DB
100
AcDbVisualStyle
  2
ColorChange
 70
    16
177
     3
291
     1
 70
    58
 90
        2
176
     1
 90
        2
176
     1
 90
        3
176
     1
 90
        0
176
     1
 40
0.6
176
     1
 40
30.0
176
     1
 62
     8
176
     1
 90
        1
176
     1
 90
        4
176
     1
 62
     7
176
     1
 62
   257
176
     1
 90
        1
176
     1
 90
        1
176
     1
 40
1.0
176
     1
 90
        8
176
     1
 62
     8
176
     1
 40
1.0
176
     1
 90
        1
176
     1
 90
        6
176
     1
 90
        2
176
     1
 62
     7
176
     1
 90
        5
176
     1
 90
        0
176
     1
 90
        0
176
     1
290
     0
176
     1
 90
        1
176
     1
 40
0.0
176
     1
 90
        0
176
     1
290
     0
176
     1
290
     1
176
     1
290
     1
176
     1
290
     0
176
     1
290
     0
176
     1
290
     0
176
     1
290
     0
176
     1
290
     0
176
     1
290
     0
176
     1
 90
       50
176
     1
 40
0.0
176
     1
 40
1.0
176
     1
 90
        0
176
     1
 62
    18
420
        0
176
     1
 90
       50
176
     1
 90
        3
176
     1
 62
     5
420
      255
176
     1
290
     0
176
     1
 90
       50
176
     1
 90
       50
176
     1
 90
       50
176
     1
290
     0
176
     1
 90
       50
176
     1
 62
   256
176
     0
 40
1.0
176
     0
 90
        2
176
     1
  1
strokes_ogs.tif
176
     1
290
     0
176
     1
 40
1.0
176
     1
 40
1.0
176
     1
  0
VISUALSTYLE
  5
5E5
102
{ACAD_REACTORS
330
5DB
102
}
330
5DB
100
AcDbVisualStyle
  2
Conceptual
 70
     9
177
     3
291
     0
 70
    58
 90
        3
176
     1
 90
        2
176
     1
 90
        0
176
     1
 90
        0
176
     1
 40
0.6
176
     1
 40
30.0
176
     1
 62
     7
176
     1
 90
        2
176
     1
 90
        2
176
     1
 62
     7
176
     1
 62
   257
176
     1
 90
        1
176
     1
 90
        1
176
     1
 40
179.0
176
     1
 90
        8
176
     1
 62
     7
176
     1
 40
1.0
176
     1
 90
        1
176
     1
 90
        6
176
     1
 90
        2
176
     1
 62
     7
176
     1
 90
        3
176
     1
 90
        0
176
     1
 90
        0
176
     1
290
     0
176
     1
 90
        1
176
     1
 40
0.0
176
     1
 90
        0
176
     1
290
     0
176
     1
290
     1
176
     1
290
     1
176
     1
290
     0
176
     1
290
     0
176
     1
290
     0
176
     1
290
     0
176
     1
290
     0
176
     1
290
     0
176
     1
 90
       50
176
     1
 40
0.0
176
     1
 40
1.0
176
     1
 90
        0
176
     1
 62
    18
420
        0
176
     1
 90
       50
176
     1
 90
        3
176
     1
 62
     5
420
      255
176
     1
290
     0
176
     1
 90
       50
176
     1
 90
       50
176
     1
 90
       50
176
     1
290
     0
176
     1
 90
       50
176
     1
 62
   256
176
     0
 40
1.0
176
     0
 90
        2
176
     1
  1
strokes_ogs.tif
176
     1
290
     0
176
     1
 40
1.0
176
     1
 40
1.0
176
     1
  0
VISUALSTYLE
  5
5E6
102
{ACAD_REACTORS
330
5DB
102
}
330
5DB
100
AcDbVisualStyle
  2
Dim
 70
    11
177
     3
291
     1
 70
    58
 90
        2
176
     1
 90
        2
176
     1
 90
        0
176
     1
 90
        0
176
     1
 40
0.6
176
     1
 40
30.0
176
     1
 62
     7
176
     1
 90
        1
176
     1
 90
        4
176
     1
 62
     7
176
     1
 62
   257
176
     1
 90
        1
176
     1
 90
        1
176
     1
 40
1.0
176
     1
 90
        8
176
     1
 62
     7
176
     1
 40
1.0
176
     1
 90
        1
176
     1
 90
        6
176
     1
 90
        2
176
     1
 62
     7
176
     1
 90
        5
176
     1
 90
        0
176
     1
 90
        0
176
     1
290
     0
176
     1
 90
        1
176
     1
 40
-50.0
176
     1
 90
        0
176
     1
290
     0
176
     1
290
     1
176
     1
290
     1
176
     1
290
     0
176
     1
290
     0
176
     1
290
     0
176
     1
290
     0
176
     1
290
     0
176
     1
290
     0
176
     1
 90
       50
176
     1
 40
0.0
176
     1
 40
1.0
176
     1
 90
        0
176
     1
 62
    18
420
        0
176
     1
 90
       50
176
     1
 90
        3
176
     1
 62
     5
420
      255
176
     1
290
     0
176
     1
 90
       50
176
     1
 90
       50
176
     1
 90
       50
176
     1
290
     0
176
     1
 90
       50
176
     1
 62
   256
176
     0
 40
1.0
176
     0
 90
        2
176
     1
  1
strokes_ogs.tif
176
     1
290
     0
176
     1
 40
1.0
176
     1
 40
1.0
176
     1
  0
VISUALSTYLE
  5
5EE
102
{ACAD_REACTORS
330
5DB
102
}
330
5DB
100
AcDbVisualStyle
  2
EdgeColorOff
 70
    22
177
     3
291
     1
 70
    58
 90
        2
176
     1
 90
        2
176
     1
 90
        0
176
     1
 90
        0
176
     1
 40
0.6
176
     1
 40
30.0
176
     1
 62
     7
176
     1
 90
        1
176
     1
 90
        4
176
     1
 62
     7
176
     1
 62
   257
176
     1
 90
        1
176
     1
 90
        1
176
     1
 40
1.0
176
     1
 90
        8
176
     1
 62
     7
176
     1
 40
1.0
176
     1
 90
        1
176
     1
 90
        6
176
     1
 90
        2
176
     1
 62
     7
176
     1
 90
        5
176
     1
 90
        0
176
     1
 90
        0
176
     1
290
     0
176
     1
 90
        1
176
     1
 40
0.0
176
     1
 90
        0
176
     1
290
     0
176
     1
290
     1
176
     1
290
     1
176
     1
290
     0
176
     1
290
     0
176
     1
290
     0
176
     1
290
     0
176
     1
290
     0
176
     1
290
     0
176
     1
 90
       50
176
     1
 40
0.0
176
     1
 40
1.0
176
     1
 90
        0
176
     1
 62
    18
420
        0
176
     1
 90
       50
176
     1
 90
        3
176
     1
 62
     5
420
      255
176
     1
290
     0
176
     1
 90
       50
176
     1
 90
       50
176
     1
 90
       50
176
     1
290
     0
176
     1
 90
       50
176
     1
 62
   256
176
     0
 40
1.0
176
     0
 90
        2
176
     1
  1
strokes_ogs.tif
176
     1
290
     0
176
     1
 40
1.0
176
     1
 40
1.0
176
     1
  0
VISUALSTYLE
  5
5EA
102
{ACAD_REACTORS
330
5DB
102
}
330
5DB
100
AcDbVisualStyle
  2
Facepattern
 70
    15
177
     3
291
     1
 70
    58
 90
        2
176
     1
 90
        2
176
     1
 90
        0
176
     1
 90
        0
176
     1
 40
0.6
176
     1
 40
30.0
176
     1
 62
     7
176
     1
 90
        1
176
     1
 90
        4
176
     1
 62
     7
176
     1
 62
   257
176
     1
 90
        1
176
     1
 90
        1
176
     1
 40
1.0
176
     1
 90
        8
176
     1
 62
     7
176
     1
 40
1.0
176
     1
 90
        1
176
     1
 90
        6
176
     1
 90
        2
176
     1
 62
     7
176
     1
 90
        5
176
     1
 90
        0
176
     1
 90
        0
176
     1
290
     0
176
     1
 90
        1
176
     1
 40
0.0
176
     1
 90
        0
176
     1
290
     0
176
     1
290
     1
176
     1
290
     1
176
     1
290
     0
176
     1
290
     0
176
     1
290
     0
176
     1
290
     0
176
     1
290
     0
176
     1
290
     0
176
     1
 90
       50
176
     1
 40
0.0
176
     1
 40
1.0
176
     1
 90
        0
176
     1
 62
    18
420
        0
176
     1
 90
       50
176
     1
 90
        3
176
     1
 62
     5
420
      255
176
     1
290
     0
176
     1
 90
       50
176
     1
 90
       50
176
     1
 90
       50
176
     1
290
     0
176
     1
 90
       50
176
     1
 62
   256
176
     0
 40
1.0
176
     0
 90
        2
176
     1
  1
strokes_ogs.tif
176
     1
290
     0
176
     1
 40
1.0
176
     1
 40
1.0
176
     1
  0
VISUALSTYLE
  5
5DC
102
{ACAD_REACTORS
330
5DB
102
}
330
5DB
100
AcDbVisualStyle
  2
Flat
 70
     0
177
     3
291
     1
 70
    58
 90
        2
176
     1
 90
        1
176
     1
 90
        1
176
     1
 90
        2
176
     1
 40
0.6
176
     1
 40
30.0
176
     1
 62
     7
176
     1
 90
        0
176
     1
 90
        0
176
     1
 62
     7
176
     1
 62
   257
176
     1
 90
        1
176
     1
 90
        1
176
     1
 40
1.0
176
     1
 90
        8
176
     1
 62
     7
176
     1
 40
1.0
176
     1
 90
        1
176
     1
 90
        6
176
     1
 90
        2
176
     1
 62
     7
176
     1
 90
        5
176
     1
 90
        0
176
     1
 90
        0
176
     1
290
     0
176
     1
 90
       13
176
     1
 40
0.0
176
     1
 90
        0
176
     1
290
     0
176
     1
290
     1
176
     1
290
     1
176
     1
290
     0
176
     1
290
     0
176
     1
290
     0
176
     1
290
     0
176
     1
290
     0
176
     1
290
     0
176
     1
 90
       50
176
     1
 40
0.0
176
     1
 40
1.0
176
     1
 90
        0
176
     1
 62
    18
420
        0
176
     1
 90
       50
176
     1
 90
        3
176
     1
 62
     5
420
      255
176
     1
290
     0
176
     1
 90
       50
176
     1
 90
       50
176
     1
 90
       50
176
     1
290
     0
176
     1
 90
       50
176
     1
 62
   256
176
     0
 40
1.0
176
     0
 90
        2
176
     1
  1
strokes_ogs.tif
176
     1
290
     0
176
     1
 40
1.0
176
     1
 40
1.0
176
     1
  0
VISUALSTYLE
  5
5DD
102
{ACAD_REACTORS
330
5DB
102
}
330
5DB
100
AcDbVisualStyle
  2
FlatWithEdges
 70
     1
177
     3
291
     1
 70
    58
 90
        2
176
     1
 90
        1
176
     1
 90
        1
176
     1
 90
        2
176
     1
 40
0.6
176
     1
 40
30.0
176
     1
 62
     7
176
     1
 90
        1
176
     1
 90
        0
176
     1
 62
     7
176
     1
 62
   257
176
     1
 90
        1
176
     1
 90
        1
176
     1
 40
1.0
176
     1
 90
        0
176
     1
 62
   257
176
     1
 40
1.0
176
     1
 90
        1
176
     1
 90
        6
176
     1
 90
        2
176
     1
 62
     7
176
     1
 90
        5
176
     1
 90
        0
176
     1
 90
        0
176
     1
290
     0
176
     1
 90
       13
176
     1
 40
0.0
176
     1
 90
        0
176
     1
290
     0
176
     1
290
     1
176
     1
290
     1
176
     1
290
     0
176
     1
290
     0
176
     1
290
     0
176
     1
290
     0
176
     1
290
     0
176
     1
290
     0
176
     1
 90
       50
176
     1
 40
0.0
176
     1
 40
1.0
176
     1
 90
        0
176
     1
 62
    18
420
        0
176
     1
 90
       50
176
     1
 90
        3
176
     1
 62
     5
420
      255
176
     1
290
     0
176
     1
 90
       50
176
     1
 90
       50
176
     1
 90
       50
176
     1
290
     0
176
     1
 90
       50
176
     1
 62
   256
176
     0
 40
1.0
176
     0
 90
        2
176
     1
  1
strokes_ogs.tif
176
     1
290
     0
176
     1
 40
1.0
176
     1
 40
1.0
176
     1
  0
VISUALSTYLE
  5
5DE
102
{ACAD_REACTORS
330
5DB
102
}
330
5DB
100
AcDbVisualStyle
  2
Gouraud
 70
     2
177
     3
291
     1
 70
    58
 90
        2
176
     1
 90
        2
176
     1
 90
        1
176
     1
 90
        2
176
     1
 40
0.6
176
     1
 40
30.0
176
     1
 62
     7
176
     1
 90
        0
176
     1
 90
        0
176
     1
 62
     7
176
     1
 62
   257
176
     1
 90
        1
176
     1
 90
        1
176
     1
 40
1.0
176
     1
 90
        0
176
     1
 62
     7
176
     1
 40
1.0
176
     1
 90
        1
176
     1
 90
        6
176
     1
 90
        2
176
     1
 62
     7
176
     1
 90
        5
176
     1
 90
        0
176
     1
 90
        0
176
     1
290
     0
176
     1
 90
       13
176
     1
 40
0.0
176
     1
 90
        0
176
     1
290
     0
176
     1
290
     1
176
     1
290
     1
176
     1
290
     0
176
     1
290
     0
176
     1
290
     0
176
     1
290
     0
176
     1
290
     0
176
     1
290
     0
176
     1
 90
       50
176
     1
 40
0.0
176
     1
 40
1.0
176
     1
 90
        0
176
     1
 62
    18
420
        0
176
     1
 90
       50
176
     1
 90
        3
176
     1
 62
     5
420
      255
176
     1
290
     0
176
     1
 90
       50
176
     1
 90
       50
176
     1
 90
       50
176
     1
290
     0
176
     1
 90
       50
176
     1
 62
   256
176
     0
 40
1.0
176
     0
 90
        2
176
     1
  1
strokes_ogs.tif
176
     1
290
     0
176
     1
 40
1.0
176
     1
 40
1.0
176
     1
  0
VISUALSTYLE
  5
5DF
102
{ACAD_REACTORS
330
5DB
102
}
330
5DB
100
AcDbVisualStyle
  2
GouraudWithEdges
 70
     3
177
     3
291
     1
 70
    58
 90
        2
176
     1
 90
        2
176
     1
 90
        1
176
     1
 90
        2
176
     1
 40
0.6
176
     1
 40
30.0
176
     1
 62
     7
176
     1
 90
        1
176
     1
 90
        0
176
     1
 62
     7
176
     1
 62
   257
176
     1
 90
        1
176
     1
 90
        1
176
     1
 40
1.0
176
     1
 90
        0
176
     1
 62
   257
176
     1
 40
1.0
176
     1
 90
        1
176
     1
 90
        6
176
     1
 90
        2
176
     1
 62
     7
176
     1
 90
        5
176
     1
 90
        0
176
     1
 90
        0
176
     1
290
     0
176
     1
 90
       13
176
     1
 40
0.0
176
     1
 90
        0
176
     1
290
     0
176
     1
290
     1
176
     1
290
     1
176
     1
290
     0
176
     1
290
     0
176
     1
290
     0
176
     1
290
     0
176
     1
290
     0
176
     1
290
     0
176
     1
 90
       50
176
     1
 40
0.0
176
     1
 40
1.0
176
     1
 90
        0
176
     1
 62
    18
420
        0
176
     1
 90
       50
176
     1
 90
        3
176
     1
 62
     5
420
      255
176
     1
290
     0
176
     1
 90
       50
176
     1
 90
       50
176
     1
 90
       50
176
     1
290
     0
176
     1
 90
       50
176
     1
 62
   256
176
     0
 40
1.0
176
     0
 90
        2
176
     1
  1
strokes_ogs.tif
176
     1
290
     0
176
     1
 40
1.0
176
     1
 40
1.0
176
     1
  0
VISUALSTYLE
  5
5E2
102
{ACAD_REACTORS
330
5DB
102
}
330
5DB
100
AcDbVisualStyle
  2
Hidden
 70
     6
177
     3
291
     0
 70
    58
 90
        1
176
     1
 90
        2
176
     1
 90
        2
176
     1
 90
        0
176
     1
 40
0.6
176
     1
 40
30.0
176
     1
 62
     7
176
     1
 90
        2
176
     1
 90
        2
176
     1
 62
     7
176
     1
 62
   257
176
     1
 90
        2
176
     1
 90
        1
176
     1
 40
40.0
176
     1
 90
        0
176
     1
 62
   257
176
     1
 40
1.0
176
     1
 90
        1
176
     1
 90
        6
176
     1
 90
        2
176
     1
 62
     7
176
     1
 90
        3
176
     1
 90
        0
176
     1
 90
        0
176
     1
290
     0
176
     1
 90
        1
176
     1
 40
0.0
176
     1
 90
        0
176
     1
290
     0
176
     1
290
     1
176
     1
290
     1
176
     1
290
     0
176
     1
290
     0
176
     1
290
     0
176
     1
290
     0
176
     1
290
     0
176
     1
290
     0
176
     1
 90
       50
176
     1
 40
0.0
176
     1
 40
1.0
176
     1
 90
        0
176
     1
 62
    18
420
        0
176
     1
 90
       50
176
     1
 90
        3
176
     1
 62
     5
420
      255
176
     1
290
     0
176
     1
 90
       50
176
     1
 90
       50
176
     1
 90
       50
176
     1
290
     0
176
     1
 90
       50
176
     1
 62
   256
176
     0
 40
1.0
176
     0
 90
        2
176
     1
  1
strokes_ogs.tif
176
     1
290
     0
176
     1
 40
1.0
176
     1
 40
1.0
176
     1
  0
VISUALSTYLE
  5
5EC
102
{ACAD_REACTORS
330
5DB
102
}
330
5DB
100
AcDbVisualStyle
  2
JitterOff
 70
    20
177
     3
291
     1
 70
    58
 90
        2
176
     1
 90
        2
176
     1
 90
        0
176
     1
 90
        0
176
     1
 40
0.6
176
     1
 40
30.0
176
     1
 62
     7
176
     1
 90
        1
176
     1
 90
        4
176
     1
 62
     7
176
     1
 62
   257
176
     1
 90
        1
176
     1
 90
        1
176
     1
 40
1.0
176
     1
 90
       10
176
     1
 62
     7
176
     1
 40
1.0
176
     1
 90
        1
176
     1
 90
        6
176
     1
 90
        2
176
     1
 62
     7
176
     1
 90
        5
176
     1
 90
        0
176
     1
 90
        0
176
     1
290
     0
176
     1
 90
        1
176
     1
 40
0.0
176
     1
 90
        0
176
     1
290
     0
176
     1
290
     1
176
     1
290
     1
176
     1
290
     0
176
     1
290
     0
176
     1
290
     0
176
     1
290
     0
176
     1
290
     0
176
     1
290
     0
176
     1
 90
       50
176
     1
 40
0.0
176
     1
 40
1.0
176
     1
 90
        0
176
     1
 62
    18
420
        0
176
     1
 90
       50
176
     1
 90
        3
176
     1
 62
     5
420
      255
176
     1
290
     0
176
     1
 90
       50
176
     1
 90
       50
176
     1
 90
       50
176
     1
290
     0
176
     1
 90
       50
176
     1
 62
   256
176
     0
 40
1.0
176
     0
 90
        2
176
     1
  1
strokes_ogs.tif
176
     1
290
     0
176
     1
 40
1.0
176
     1
 40
1.0
176
     1
  0
VISUALSTYLE
  5
5E9
102
{ACAD_REACTORS
330
5DB
102
}
330
5DB
100
AcDbVisualStyle
  2
Linepattern
 70
    14
177
     3
291
     1
 70
    58
 90
        2
176
     1
 90
        2
176
     1
 90
        0
176
     1
 90
        0
176
     1
 40
0.6
176
     1
 40
30.0
176
     1
 62
     7
176
     1
 90
        1
176
     1
 90
        4
176
     1
 62
     7
176
     1
 62
   257
176
     1
 90
        7
176
     1
 90
        7
176
     1
 40
1.0
176
     1
 90
        8
176
     1
 62
     7
176
     1
 40
1.0
176
     1
 90
        1
176
     1
 90
        6
176
     1
 90
        2
176
     1
 62
     7
176
     1
 90
        5
176
     1
 90
        0
176
     1
 90
        0
176
     1
290
     0
176
     1
 90
        1
176
     1
 40
0.0
176
     1
 90
        0
176
     1
290
     0
176
     1
290
     1
176
     1
290
     1
176
     1
290
     0
176
     1
290
     0
176
     1
290
     0
176
     1
290
     0
176
     1
290
     0
176
     1
290
     0
176
     1
 90
       50
176
     1
 40
0.0
176
     1
 40
1.0
176
     1
 90
        0
176
     1
 62
    18
420
        0
176
     1
 90
       50
176
     1
 90
        3
176
     1
 62
     5
420
      255
176
     1
290
     0
176
     1
 90
       50
176
     1
 90
       50
176
     1
 90
       50
176
     1
290
     0
176
     1
 90
       50
176
     1
 62
   256
176
     0
 40
1.0
176
     0
 90
        2
176
     1
  1
strokes_ogs.tif
176
     1
290
     0
176
     1
 40
1.0
176
     1
 40
1.0
176
     1
  0
VISUALSTYLE
  5
5FC
102
{ACAD_REACTORS
330
5DB
102
}
330
5DB
100
AcDbVisualStyle
  2

 70
    10
177
     3
291
     0
 70
    58
 90
        2
176
     1
 90
        3
176
     1
 90
        0
176
     1
 90
        2
176
     1
 40
0.6
176
     1
 40
30.0
176
     1
 62
     7
176
     1
 90
        2
176
     1
 90
        0
176
     1
 62
     7
176
     1
 62
   257
176
     1
 90
        1
176
     1
 90
        1
176
     1
 40
180.0
176
     1
 90
        8
176
     1
 62
     8
176
     1
 40
1.0
176
     1
 90
        1
176
     1
 90
        6
176
     1
 90
        2
176
     1
 62
     7
176
     1
 90
        5
176
     1
 90
        0
176
     1
 90
        0
176
     1
290
     0
176
     1
 90
       13
176
     1
 40
0.0
176
     1
 90
        0
176
     1
290
     0
176
     1
290
     1
176
     1
290
     1
176
     1
290
     0
176
     1
290
     0
176
     1
290
     0
176
     1
290
     0
176
     1
290
     0
176
     1
290
     0
176
     1
 90
       50
176
     1
 40
0.0
176
     1
 40
1.0
176
     1
 90
        0
176
     1
 62
    18
420
        0
176
     1
 90
       50
176
     1
 90
        3
176
     1
 62
     5
420
      255
176
     1
290
     0
176
     1
 90
       50
176
     1
 90
       50
176
     1
 90
       50
176
     1
290
     0
176
     1
 90
       50
176
     1
 62
   256
176
     0
 40
1.0
176
     0
 90
        2
176
     1
  1
strokes_ogs.tif
176
     1
290
     0
176
     1
 40
1.0
176
     1
 40
1.0
176
     1
  0
VISUALSTYLE
  5
5ED
102
{ACAD_REACTORS
330
5DB
102
}
330
5DB
100
AcDbVisualStyle
  2
OverhangOff
 70
    21
177
     3
291
     1
 70
    58
 90
        2
176
     1
 90
        2
176
     1
 90
        0
176
     1
 90
        0
176
     1
 40
0.6
176
     1
 40
30.0
176
     1
 62
     7
176
     1
 90
        1
176
     1
 90
        4
176
     1
 62
     7
176
     1
 62
   257
176
     1
 90
        1
176
     1
 90
        1
176
     1
 40
1.0
176
     1
 90
        9
176
     1
 62
     7
176
     1
 40
1.0
176
     1
 90
        1
176
     1
 90
        6
176
     1
 90
        2
176
     1
 62
     7
176
     1
 90
        5
176
     1
 90
        0
176
     1
 90
        0
176
     1
290
     0
176
     1
 90
        1
176
     1
 40
0.0
176
     1
 90
        0
176
     1
290
     0
176
     1
290
     1
176
     1
290
     1
176
     1
290
     0
176
     1
290
     0
176
     1
290
     0
176
     1
290
     0
176
     1
290
     0
176
     1
290
     0
176
     1
 90
       50
176
     1
 40
0.0
176
     1
 40
1.0
176
     1
 90
        0
176
     1
 62
    18
420
        0
176
     1
 90
       50
176
     1
 90
        3
176
     1
 62
     5
420
      255
176
     1
290
     0
176
     1
 90
       50
176
     1
 90
       50
176
     1
 90
       50
176
     1
290
     0
176
     1
 90
       50
176
     1
 62
   256
176
     0
 40
1.0
176
     0
 90
        2
176
     1
  1
strokes_ogs.tif
176
     1
290
     0
176
     1
 40
1.0
176
     1
 40
1.0
176
     1
  0
VISUALSTYLE
  5
5E4
102
{ACAD_REACTORS
330
5DB
102
}
330
5DB
100
AcDbVisualStyle
  2
Realistic
 70
     8
177
     3
291
     0
 70
    58
 90
        2
176
     1
 90
        3
176
     1
 90
        0
176
     1
 90
        2
176
     1
 40
0.6
176
     1
 40
30.0
176
     1
 62
     7
176
     1
 90
        0
176
     1
 90
        0
176
     1
 62
     7
176
     1
 62
   257
176
     1
 90
        1
176
     1
 90
        1
176
     1
 40
1.0
176
     1
 90
        8
176
     1
 62
   257
176
     1
 40
1.0
176
     1
 90
        1
176
     1
 90
        6
176
     1
 90
        2
176
     1
 62
     7
176
     1
 90
        3
176
     1
 90
        0
176
     1
 90
        0
176
     1
290
     0
176
     1
 90
       13
176
     1
 40
0.0
176
     1
 90
        0
176
     1
290
     0
176
     1
290
     1
176
     1
290
     1
176
     1
290
     0
176
     1
290
     0
176
     1
290
     0
176
     1
290
     0
176
     1
290
     0
176
     1
290
     0
176
     1
 90
       50
176
     1
 40
0.0
176
     1
 40
1.0
176
     1
 90
        0
176
     1
 62
    18
420
        0
176
     1
 90
       50
176
     1
 90
        3
176
     1
 62
     5
420
      255
176
     1
290
     0
176
     1
 90
       50
176
     1
 90
       50
176
     1
 90
       50
176
     1
290
     0
176
     1
 90
       50
176
     1
 62
   256
176
     0
 40
1.0
176
     0
 90
        2
176
     1
  1
strokes_ogs.tif
176
     1
290
     0
176
     1
 40
1.0
176
     1
 40
1.0
176
     1
  0
VISUALSTYLE
  5
5F3
102
{ACAD_REACTORS
330
5DB
102
}
330
5DB
100
AcDbVisualStyle
  2
Shaded
 70
    27
177
     3
291
     0
 70
    58
 90
        2
176
     1
 90
        2
176
     1
 90
        1
176
     1
 90
        2
176
     1
 40
0.6
176
     1
 40
30.0
176
     1
 62
     7
176
     1
 90
        0
176
     1
 90
        4
176
     1
 62
     7
176
     1
 62
   257
176
     1
 90
        1
176
     1
 90
        1
176
     1
 40
1.0
176
     1
 90
        8
176
     1
 62
   257
176
     1
 40
1.0
176
     1
 90
        1
176
     1
 90
        6
176
     1
 90
        2
176
     1
 62
     8
176
     1
 90
        3
176
     1
 90
        0
176
     1
 90
        0
176
     1
290
     0
176
     1
 90
        5
176
     1
 40
0.0
176
     1
 90
        0
176
     1
290
     0
176
     1
290
     1
176
     1
290
     1
176
     1
290
     0
176
     1
290
     0
176
     1
290
     0
176
     1
290
     0
176
     1
290
     0
176
     1
290
     0
176
     1
 90
       50
176
     1
 40
0.0
176
     1
 40
1.0
176
     1
 90
        0
176
     1
 62
    18
420
        0
176
     1
 90
       50
176
     1
 90
        3
176
     1
 62
     5
420
      255
176
     1
290
     0
176
     1
 90
       50
176
     1
 90
       50
176
     1
 90
       50
176
     1
290
     0
176
     1
 90
       50
176
     1
 62
   256
176
     0
 40
1.0
176
     0
 90
        2
176
     1
  1
strokes_ogs.tif
176
     1
290
     0
176
     1
 40
1.0
176
     1
 40
1.0
176
     1
  0
VISUALSTYLE
  5
5F2
102
{ACAD_REACTORS
330
5DB
102
}
330
5DB
100
AcDbVisualStyle
  2
Shaded with edges
 70
    26
177
     3
291
     0
 70
    58
 90
        2
176
     1
 90
        2
176
     1
 90
        1
176
     1
 90
        2
176
     1
 40
0.6
176
     1
 40
30.0
176
     1
 62
     7
176
     1
 90
        1
176
     1
 90
       10
176
     1
 62
     7
176
     1
 62
   257
176
     1
 90
        2
176
     1
 90
        1
176
     1
 40
1.0
176
     1
 90
        8
176
     1
 62
   257
176
     1
 40
1.0
176
     1
 90
        1
176
     1
 90
        6
176
     1
 90
        2
176
     1
 62
     7
176
     1
 90
        3
176
     1
 90
        0
176
     1
 90
        0
176
     1
290
     0
176
     1
 90
        5
176
     1
 40
0.0
176
     1
 90
        0
176
     1
290
     0
176
     1
290
     1
176
     1
290
     1
176
     1
290
     0
176
     1
290
     0
176
     1
290
     0
176
     1
290
     0
176
     1
290
     0
176
     1
290
     0
176
     1
 90
       50
176
     1
 40
0.0
176
     1
 40
1.0
176
     1
 90
        0
176
     1
 62
    18
420
        0
176
     1
 90
       50
176
     1
 90
        3
176
     1
 62
     5
420
      255
176
     1
290
     0
176
     1
 90
       50
176
     1
 90
       50
176
     1
 90
       50
176
     1
290
     0
176
     1
 90
       50
176
     1
 62
   256
176
     0
 40
1.0
176
     0
 90
        2
176
     1
  1
strokes_ogs.tif
176
     1
290
     0
176
     1
 40
1.0
176
     1
 40
1.0
176
     1
  0
VISUALSTYLE
  5
5EF
102
{ACAD_REACTORS
330
5DB
102
}
330
5DB
100
AcDbVisualStyle
  2
Shades of Gray
 70
    23
177
     3
291
     0
 70
    58
 90
        2
176
     1
 90
        2
176
     1
 90
        3
176
     1
 90
        0
176
     1
 40
0.6
176
     1
 40
30.0
176
     1
 62
     7
176
     1
 90
        2
176
     1
 90
        2
176
     1
 62
     7
176
     1
 62
     7
176
     1
 90
        1
176
     1
 90
        1
176
     1
 40
40.0
176
     1
 90
        8
176
     1
 62
     7
176
     1
 40
1.0
176
     1
 90
        1
176
     1
 90
        6
176
     1
 90
        2
176
     1
 62
     7
176
     1
 90
        3
176
     1
 90
        0
176
     1
 90
        0
176
     1
290
     0
176
     1
 90
        1
176
     1
 40
0.0
176
     1
 90
        0
176
     1
290
     0
176
     1
290
     1
176
     1
290
     1
176
     1
290
     0
176
     1
290
     0
176
     1
290
     0
176
     1
290
     0
176
     1
290
     0
176
     1
290
     0
176
     1
 90
       50
176
     1
 40
0.0
176
     1
 40
1.0
176
     1
 90
        0
176
     1
 62
    18
420
        0
176
     1
 90
       50
176
     1
 90
        3
176
     1
 62
     5
420
      255
176
     1
290
     0
176
     1
 90
       50
176
     1
 90
       50
176
     1
 90
       50
176
     1
290
     0
176
     1
 90
       50
176
     1
 62
   256
176
     0
 40
1.0
176
     0
 90
        2
176
     1
  1
strokes_ogs.tif
176
     1
290
     0
176
     1
 40
1.0
176
     1
 40
1.0
176
     1
  0
VISUALSTYLE
  5
5F0
102
{ACAD_REACTORS
330
5DB
102
}
330
5DB
100
AcDbVisualStyle
  2
Sketchy
 70
    24
177
     3
291
     0
 70
    58
 90
        1
176
     1
 90
        2
176
     1
 90
        2
176
     1
 90
        0
176
     1
 40
0.6
176
     1
 40
30.0
176
     1
 62
     7
176
     1
 90
        2
176
     1
 90
        2
176
     1
 62
     7
176
     1
 62
     7
176
     1
 90
        1
176
     1
 90
        1
176
     1
 40
40.0
176
     1
 90
       11
176
     1
 62
     7
176
     1
 40
1.0
176
     1
 90
        1
176
     1
 90
        6
176
     1
 90
        2
176
     1
 62
     7
176
     1
 90
        6
176
     1
 90
        0
176
     1
 90
        0
176
     1
290
     0
176
     1
 90
        1
176
     1
 40
0.0
176
     1
 90
        0
176
     1
290
     0
176
     1
290
     1
176
     1
290
     1
176
     1
290
     0
176
     1
290
     0
176
     1
290
     0
176
     1
290
     0
176
     1
290
     0
176
     1
290
     0
176
     1
 90
       50
176
     1
 40
0.0
176
     1
 40
1.0
176
     1
 90
        0
176
     1
 62
    18
420
        0
176
     1
 90
       50
176
     1
 90
        3
176
     1
 62
     5
420
      255
176
     1
290
     0
176
     1
 90
       50
176
     1
 90
       50
176
     1
 90
       50
176
     1
290
     0
176
     1
 90
       50
176
     1
 62
   256
176
     0
 40
1.0
176
     0
 90
        2
176
     1
  1
strokes_ogs.tif
176
     1
290
     0
176
     1
 40
1.0
176
     1
 40
1.0
176
     1
  0
VISUALSTYLE
  5
5E8
102
{ACAD_REACTORS
330
5DB
102
}
330
5DB
100
AcDbVisualStyle
  2
Thicken
 70
    13
177
     3
291
     1
 70
    58
 90
        2
176
     1
 90
        2
176
     1
 90
        0
176
     1
 90
        0
176
     1
 40
0.6
176
     1
 40
30.0
176
     1
 62
     7
176
     1
 90
        1
176
     1
 90
        4
176
     1
 62
     7
176
     1
 62
   257
176
     1
 90
        1
176
     1
 90
        1
176
     1
 40
1.0
176
     1
 90
       12
176
     1
 62
     7
176
     1
 40
1.0
176
     1
 90
        1
176
     1
 90
        6
176
     1
 90
        2
176
     1
 62
     7
176
     1
 90
        5
176
     1
 90
        0
176
     1
 90
        0
176
     1
290
     0
176
     1
 90
        1
176
     1
 40
0.0
176
     1
 90
        0
176
     1
290
     0
176
     1
290
     1
176
     1
290
     1
176
     1
290
     0
176
     1
290
     0
176
     1
290
     0
176
     1
290
     0
176
     1
290
     0
176
     1
290
     0
176
     1
 90
       50
176
     1
 40
0.0
176
     1
 40
1.0
176
     1
 90
        0
176
     1
 62
    18
420
        0
176
     1
 90
       50
176
     1
 90
        3
176
     1
 62
     5
420
      255
176
     1
290
     0
176
     1
 90
       50
176
     1
 90
       50
176
     1
 90
       50
176
     1
290
     0
176
     1
 90
       50
176
     1
 62
   256
176
     0
 40
1.0
176
     0
 90
        2
176
     1
  1
strokes_ogs.tif
176
     1
290
     0
176
     1
 40
1.0
176
     1
 40
1.0
176
     1
  0
VISUALSTYLE
  5
5E1
102
{ACAD_REACTORS
330
5DB
102
}
330
5DB
100
AcDbVisualStyle
  2
Wireframe
 70
     5
177
     3
291
     0
 70
    58
 90
        0
176
     1
 90
        2
176
     1
 90
        0
176
     1
 90
        0
176
     1
 40
0.6
176
     1
 40
30.0
176
     1
 62
     7
176
     1
 90
        1
176
     1
 90
        4
176
     1
 62
     7
176
     1
 62
   257
176
     1
 90
        1
176
     1
 90
        1
176
     1
 40
1.0
176
     1
 90
        0
176
     1
 62
   257
176
     1
 40
1.0
176
     1
 90
        1
176
     1
 90
        6
176
     1
 90
        2
176
     1
 62
     7
176
     1
 90
        3
176
     1
 90
        0
176
     1
 90
        0
176
     1
290
     0
176
     1
 90
        1
176
     1
 40
0.0
176
     1
 90
        0
176
     1
290
     0
176
     1
290
     1
176
     1
290
     1
176
     1
290
     0
176
     1
290
     0
176
     1
290
     0
176
     1
290
     0
176
     1
290
     0
176
     1
290
     0
176
     1
 90
       50
176
     1
 40
0.0
176
     1
 40
1.0
176
     1
 90
        0
176
     1
 62
    18
420
        0
176
     1
 90
       50
176
     1
 90
        3
176
     1
 62
     5
420
      255
176
     1
290
     0
176
     1
 90
       50
176
     1
 90
       50
176
     1
 90
       50
176
     1
290
     0
176
     1
 90
       50
176
     1
 62
   256
176
     0
 40
1.0
176
     0
 90
        2
176
     1
  1
strokes_ogs.tif
176
     1
290
     0
176
     1
 40
1.0
176
     1
 40
1.0
176
     1
  0
VISUALSTYLE
  5
5F1
102
{ACAD_REACTORS
330
5DB
102
}
330
5DB
100
AcDbVisualStyle
  2
X-Ray
 70
    25
177
     3
291
     0
 70
    58
 90
        2
176
     1
 90
        2
176
     1
 90
        1
176
     1
 90
        1
176
     1
 40
0.5
176
     1
 40
30.0
176
     1
 62
     7
176
     1
 90
        1
176
     1
 90
        0
176
     1
 62
     7
176
     1
 62
   257
176
     1
 90
        1
176
     1
 90
        1
176
     1
 40
1.0
176
     1
 90
        8
176
     1
 62
     7
176
     1
 40
1.0
176
     1
 90
        1
176
     1
 90
        6
176
     1
 90
        2
176
     1
 62
     7
176
     1
 90
        3
176
     1
 90
        0
176
     1
 90
        0
176
     1
290
     0
176
     1
 90
       13
176
     1
 40
0.0
176
     1
 90
        0
176
     1
290
     0
176
     1
290
     1
176
     1
290
     1
176
     1
290
     0
176
     1
290
     0
176
     1
290
     0
176
     1
290
     0
176
     1
290
     0
176
     1
290
     0
176
     1
 90
       50
176
     1
 40
0.0
176
     1
 40
1.0
176
     1
 90
        0
176
     1
 62
    18
420
        0
176
     1
 90
       50
176
     1
 90
        3
176
     1
 62
     5
420
      255
176
     1
290
     0
176
     1
 90
       50
176
     1
 90
       50
176
     1
 90
       50
176
     1
290
     0
176
     1
 90
       50
176
     1
 62
   256
176
     0
 40
1.0
176
     0
 90
        2
176
     1
  1
strokes_ogs.tif
176
     1
290
     0
176
     1
 40
1.0
176
     1
 40
1.0
176
     1
  0
DICTIONARYVAR
  5
1485
102
{ACAD_REACTORS
330
85D
102
}
330
85D
100
DictionaryVariables
280
     0
  1
1:1
  0
DICTIONARYVAR
  5
860
102
{ACAD_REACTORS
330
85D
102
}
330
85D
100
DictionaryVariables
280
     0
  1
Standard
  0
DICTIONARYVAR
  5
85F
102
{ACAD_REACTORS
330
85D
102
}
330
85D
100
DictionaryVariables
280
     0
  1
Standard
  0
DICTIONARYVAR
  5
AA2
102
{ACAD_REACTORS
330
85D
102
}
330
85D
100
DictionaryVariables
280
     0
  1
2
  0
DICTIONARYVAR
  5
AA3
102
{ACAD_REACTORS
330
85D
102
}
330
85D
100
DictionaryVariables
280
     0
  1
1
  0
DICTIONARYVAR
  5
861
102
{ACAD_REACTORS
330
85D
102
}
330
85D
100
DictionaryVariables
280
     0
  1
0
  0
DICTIONARY
  5
F9D
102
{ACAD_REACTORS
330
F9C
102
}
330
F9C
100
AcDbDictionary
281
     1
  0
DICTIONARY
  5
FA5
102
{ACAD_REACTORS
330
FA4
102
}
330
FA4
100
AcDbDictionary
281
     1
  0
DICTIONARY
  5
FA9
102
{ACAD_REACTORS
330
FA8
102
}
330
FA8
100
AcDbDictionary
281
     1
  0
DICTIONARY
  5
13AF
102
{ACAD_REACTORS
330
13AE
102
}
330
13AE
100
AcDbDictionary
281
     1
  0
DICTIONARY
  5
13B3
102
{ACAD_REACTORS
330
13B2
102
}
330
13B2
100
AcDbDictionary
281
     1
  0
DICTIONARY
  5
1486
330
5F9
100
AcDbDictionary
280
     1
281
     1
  3
ACAD_ROUNDTRIP_2008_TABLESTYLE_CELLSTYLEMAP
360
1487
  0
CELLSTYLEMAP
  5
1487
102
{ACAD_REACTORS
330
1486
102
}
330
1486
100
AcDbCellStyleMap
 90
        3
300
CELLSTYLE
  1
TABLEFORMAT_BEGIN
 90
        5
170
     1
 91
        0
 92
    32768
 62
   257
 93
        1
300
CONTENTFORMAT
  1
CONTENTFORMAT_BEGIN
 90
        0
 91
        0
 92
        4
 93
        0
300

 40
0.0
140
1.0
 94
        5
 62
     0
340
11
144
0.25
309
CONTENTFORMAT_END
171
     1
301
MARGIN
  1
CELLMARGIN_BEGIN
 40
0.06
 40
0.06
 40
0.06
 40
0.06
 40
0.06
 40
0.06
309
CELLMARGIN_END
 94
        6
 95
        1
302
GRIDFORMAT
  1
GRIDFORMAT_BEGIN
 90
        0
 91
        1
 62
     0
 92
       -2
340
14
 93
        0
 40
0.045
309
GRIDFORMAT_END
 95
        2
302
GRIDFORMAT
  1
GRIDFORMAT_BEGIN
 90
        0
 91
        1
 62
     0
 92
       -2
340
14
 93
        0
 40
0.045
309
GRIDFORMAT_END
 95
        4
302
GRIDFORMAT
  1
GRIDFORMAT_BEGIN
 90
        0
 91
        1
 62
     0
 92
       -2
340
14
 93
        0
 40
0.045
309
GRIDFORMAT_END
 95
        8
302
GRIDFORMAT
  1
GRIDFORMAT_BEGIN
 90
        0
 91
        1
 62
     0
 92
       -2
340
14
 93
        0
 40
0.045
309
GRIDFORMAT_END
 95
       16
302
GRIDFORMAT
  1
GRIDFORMAT_BEGIN
 90
        0
 91
        1
 62
     0
 92
       -2
340
14
 93
        0
 40
0.045
309
GRIDFORMAT_END
 95
       32
302
GRIDFORMAT
  1
GRIDFORMAT_BEGIN
 90
        0
 91
        1
 62
     0
 92
       -2
340
14
 93
        0
 40
0.045
309
GRIDFORMAT_END
309
TABLEFORMAT_END
  1
CELLSTYLE_BEGIN
 90
        1
 91
        1
300
_TITLE
309
CELLSTYLE_END
300
CELLSTYLE
  1
TABLEFORMAT_BEGIN
 90
        5
170
     1
 91
        0
 92
        0
 62
   257
 93
        1
300
CONTENTFORMAT
  1
CONTENTFORMAT_BEGIN
 90
        0
 91
        0
 92
        4
 93
        0
300

 40
0.0
140
1.0
 94
        5
 62
     0
340
11
144
0.18
309
CONTENTFORMAT_END
171
     1
301
MARGIN
  1
CELLMARGIN_BEGIN
 40
0.06
 40
0.06
 40
0.06
 40
0.06
 40
0.06
 40
0.06
309
CELLMARGIN_END
 94
        6
 95
        1
302
GRIDFORMAT
  1
GRIDFORMAT_BEGIN
 90
        0
 91
        1
 62
     0
 92
       -2
340
14
 93
        0
 40
0.045
309
GRIDFORMAT_END
 95
        2
302
GRIDFORMAT
  1
GRIDFORMAT_BEGIN
 90
        0
 91
        1
 62
     0
 92
       -2
340
14
 93
        0
 40
0.045
309
GRIDFORMAT_END
 95
        4
302
GRIDFORMAT
  1
GRIDFORMAT_BEGIN
 90
        0
 91
        1
 62
     0
 92
       -2
340
14
 93
        0
 40
0.045
309
GRIDFORMAT_END
 95
        8
302
GRIDFORMAT
  1
GRIDFORMAT_BEGIN
 90
        0
 91
        1
 62
     0
 92
       -2
340
14
 93
        0
 40
0.045
309
GRIDFORMAT_END
 95
       16
302
GRIDFORMAT
  1
GRIDFORMAT_BEGIN
 90
        0
 91
        1
 62
     0
 92
       -2
340
14
 93
        0
 40
0.045
309
GRIDFORMAT_END
 95
       32
302
GRIDFORMAT
  1
GRIDFORMAT_BEGIN
 90
        0
 91
        1
 62
     0
 92
       -2
340
14
 93
        0
 40
0.045
309
GRIDFORMAT_END
309
TABLEFORMAT_END
  1
CELLSTYLE_BEGIN
 90
        2
 91
        1
300
_HEADER
309
CELLSTYLE_END
300
CELLSTYLE
  1
TABLEFORMAT_BEGIN
 90
        5
170
     1
 91
        0
 92
        0
 62
   257
 93
        1
300
CONTENTFORMAT
  1
CONTENTFORMAT_BEGIN
 90
        0
 91
        0
 92
        4
 93
        0
300

 40
0.0
140
1.0
 94
        2
 62
     0
340
11
144
0.18
309
CONTENTFORMAT_END
171
     1
301
MARGIN
  1
CELLMARGIN_BEGIN
 40
0.06
 40
0.06
 40
0.06
 40
0.06
 40
0.06
 40
0.06
309
CELLMARGIN_END
 94
        6
 95
        1
302
GRIDFORMAT
  1
GRIDFORMAT_BEGIN
 90
        0
 91
        1
 62
     0
 92
       -2
340
14
 93
        0
 40
0.045
309
GRIDFORMAT_END
 95
        2
302
GRIDFORMAT
  1
GRIDFORMAT_BEGIN
 90
        0
 91
        1
 62
     0
 92
       -2
340
14
 93
        0
 40
0.045
309
GRIDFORMAT_END
 95
        4
302
GRIDFORMAT
  1
GRIDFORMAT_BEGIN
 90
        0
 91
        1
 62
     0
 92
       -2
340
14
 93
        0
 40
0.045
309
GRIDFORMAT_END
 95
        8
302
GRIDFORMAT
  1
GRIDFORMAT_BEGIN
 90
        0
 91
        1
 62
     0
 92
       -2
340
14
 93
        0
 40
0.045
309
GRIDFORMAT_END
 95
       16
302
GRIDFORMAT
  1
GRIDFORMAT_BEGIN
 90
        0
 91
        1
 62
     0
 92
       -2
340
14
 93
        0
 40
0.045
309
GRIDFORMAT_END
 95
       32
302
GRIDFORMAT
  1
GRIDFORMAT_BEGIN
 90
        0
 91
        1
 62
     0
 92
       -2
340
14
 93
        0
 40
0.045
309
GRIDFORMAT_END
309
TABLEFORMAT_END
  1
CELLSTYLE_BEGIN
 90
        3
 91
        2
300
_DATA
309
CELLSTYLE_END
  0
ENDSEC
  0
EOF
