  0
SECTION
  2
HEADER
  9
$ACADVER
  1
AC1015
  9
$ACADMAINTVER
 70
     6
  9
$DWGCODEPAGE
  3
ANSI_932
  9
$INSBASE
 10
0.0
 20
0.0
 30
0.0
  9
$EXTMIN
 10
25.994444444444
 20
2.068408961789
 30
0.0
  9
$EXTMAX
 10
540.0
 20
387.308597630693
 30
0.0
  9
$LIMMIN
 10
0.0
 20
0.0
  9
$LIMMAX
 10
559.0
 20
400.0
  9
$ORTHOMODE
 70
     0
  9
$REGENMODE
 70
     1
  9
$FILLMODE
 70
     1
  9
$QTEXTMODE
 70
     0
  9
$MIRRTEXT
 70
     1
  9
$LTSCALE
 40
15.0
  9
$ATTMODE
 70
     1
  9
$TEXTSIZE
 40
8.0
  9
$TRACEWID
 40
0.05
  9
$TEXTSTYLE
  7
Standard
  9
$CLAYER
  8
CSLAYER1
  9
$CELTYPE
  6
ByLayer
  9
$CECOLOR
 62
   256
  9
$CELTSCALE
 40
1.0
  9
$DISPSILH
 70
     0
  9
$DIMSCALE
 40
1.0
  9
$DIMASZ
 40
0.18
  9
$DIMEXO
 40
0.0625
  9
$DIMDLI
 40
0.38
  9
$DIMRND
 40
0.0
  9
$DIMDLE
 40
0.0
  9
$DIMEXE
 40
0.18
  9
$DIMTP
 40
0.0
  9
$DIMTM
 40
0.0
  9
$DIMTXT
 40
0.18
  9
$DIMCEN
 40
0.09
  9
$DIMTSZ
 40
0.0
  9
$DIMTOL
 70
     0
  9
$DIMLIM
 70
     0
  9
$DIMTIH
 70
     1
  9
$DIMTOH
 70
     1
  9
$DIMSE1
 70
     0
  9
$DIMSE2
 70
     0
  9
$DIMTAD
 70
     0
  9
$DIMZIN
 70
     0
  9
$DIMBLK
  1

  9
$DIMASO
 70
     1
  9
$DIMSHO
 70
     1
  9
$DIMPOST
  1

  9
$DIMAPOST
  1

  9
$DIMALT
 70
     0
  9
$DIMALTD
 70
     2
  9
$DIMALTF
 40
25.4
  9
$DIMLFAC
 40
1.0
  9
$DIMTOFL
 70
     0
  9
$DIMTVP
 40
0.0
  9
$DIMTIX
 70
     0
  9
$DIMSOXD
 70
     0
  9
$DIMSAH
 70
     0
  9
$DIMBLK1
  1

  9
$DIMBLK2
  1

  9
$DIMSTYLE
  2
Standard
  9
$DIMCLRD
 70
     0
  9
$DIMCLRE
 70
     0
  9
$DIMCLRT
 70
     0
  9
$DIMTFAC
 40
1.0
  9
$DIMGAP
 40
0.09
  9
$DIMJUST
 70
     0
  9
$DIMSD1
 70
     0
  9
$DIMSD2
 70
     0
  9
$DIMTOLJ
 70
     1
  9
$DIMTZIN
 70
     0
  9
$DIMALTZ
 70
     0
  9
$DIMALTTZ
 70
     0
  9
$DIMUPT
 70
     0
  9
$DIMDEC
 70
     4
  9
$DIMTDEC
 70
     4
  9
$DIMALTU
 70
     2
  9
$DIMALTTD
 70
     2
  9
$DIMTXSTY
  7
Standard
  9
$DIMAUNIT
 70
     0
  9
$DIMADEC
 70
     0
  9
$DIMALTRND
 40
0.0
  9
$DIMAZIN
 70
     0
  9
$DIMDSEP
 70
    46
  9
$DIMATFIT
 70
     3
  9
$DIMFRAC
 70
     0
  9
$DIMLDRBLK
  1

  9
$DIMLUNIT
 70
     2
  9
$DIMLWD
 70
    -2
  9
$DIMLWE
 70
    -2
  9
$DIMTMOVE
 70
     2
  9
$LUNITS
 70
     2
  9
$LUPREC
 70
     4
  9
$SKETCHINC
 40
0.1
  9
$FILLETRAD
 40
0.0
  9
$AUNITS
 70
     0
  9
$AUPREC
 70
     0
  9
$MENU
  1
ACAD
  9
$ELEVATION
 40
0.0
  9
$PELEVATION
 40
0.0
  9
$THICKNESS
 40
0.0
  9
$LIMCHECK
 70
     0
  9
$CHAMFERA
 40
0.0
  9
$CHAMFERB
 40
0.0
  9
$CHAMFERC
 40
0.0
  9
$CHAMFERD
 40
0.0
  9
$SKPOLY
 70
     0
  9
$TDCREATE
 40
2452132.0
  9
$TDUCREATE
 40
2452131.625
  9
$TDUPDATE
 40
2458192.823557408
  9
$TDUUPDATE
 40
2458192.448557408
  9
$TDINDWG
 40
0.026476713
  9
$TDUSRTIMER
 40
0.026476713
  9
$USRTIMER
 70
     1
  9
$ANGBASE
 50
0.0
  9
$ANGDIR
 70
     0
  9
$PDMODE
 70
     0
  9
$PDSIZE
 40
0.0
  9
$PLINEWID
 40
0.0
  9
$SPLFRAME
 70
     0
  9
$SPLINETYPE
 70
     6
  9
$SPLINESEGS
 70
     8
  9
$HANDSEED
  5
B11
  9
$SURFTAB1
 70
     6
  9
$SURFTAB2
 70
     6
  9
$SURFTYPE
 70
     6
  9
$SURFU
 70
     6
  9
$SURFV
 70
     6
  9
$UCSBASE
  2

  9
$UCSNAME
  2

  9
$UCSORG
 10
0.0
 20
0.0
 30
0.0
  9
$UCSXDIR
 10
1.0
 20
0.0
 30
0.0
  9
$UCSYDIR
 10
0.0
 20
1.0
 30
0.0
  9
$UCSORTHOREF
  2

  9
$UCSORTHOVIEW
 70
     0
  9
$UCSORGTOP
 10
0.0
 20
0.0
 30
0.0
  9
$UCSORGBOTTOM
 10
0.0
 20
0.0
 30
0.0
  9
$UCSORGLEFT
 10
0.0
 20
0.0
 30
0.0
  9
$UCSORGRIGHT
 10
0.0
 20
0.0
 30
0.0
  9
$UCSORGFRONT
 10
0.0
 20
0.0
 30
0.0
  9
$UCSORGBACK
 10
0.0
 20
0.0
 30
0.0
  9
$PUCSBASE
  2

  9
$PUCSNAME
  2

  9
$PUCSORG
 10
0.0
 20
0.0
 30
0.0
  9
$PUCSXDIR
 10
1.0
 20
0.0
 30
0.0
  9
$PUCSYDIR
 10
0.0
 20
1.0
 30
0.0
  9
$PUCSORTHOREF
  2

  9
$PUCSORTHOVIEW
 70
     0
  9
$PUCSORGTOP
 10
0.0
 20
0.0
 30
0.0
  9
$PUCSORGBOTTOM
 10
0.0
 20
0.0
 30
0.0
  9
$PUCSORGLEFT
 10
0.0
 20
0.0
 30
0.0
  9
$PUCSORGRIGHT
 10
0.0
 20
0.0
 30
0.0
  9
$PUCSORGFRONT
 10
0.0
 20
0.0
 30
0.0
  9
$PUCSORGBACK
 10
0.0
 20
0.0
 30
0.0
  9
$USERI1
 70
     0
  9
$USERI2
 70
     0
  9
$USERI3
 70
     0
  9
$USERI4
 70
     0
  9
$USERI5
 70
     0
  9
$USERR1
 40
0.0
  9
$USERR2
 40
0.0
  9
$USERR3
 40
0.0
  9
$USERR4
 40
0.0
  9
$USERR5
 40
0.0
  9
$WORLDVIEW
 70
     1
  9
$SHADEDGE
 70
     3
  9
$SHADEDIF
 70
    70
  9
$TILEMODE
 70
     1
  9
$MAXACTVP
 70
    64
  9
$PINSBASE
 10
0.0
 20
0.0
 30
0.0
  9
$PLIMCHECK
 70
     0
  9
$PEXTMIN
 10
1.000000000000E+20
 20
1.000000000000E+20
 30
1.000000000000E+20
  9
$PEXTMAX
 10
-1.000000000000E+20
 20
-1.000000000000E+20
 30
-1.000000000000E+20
  9
$PLIMMIN
 10
0.0
 20
0.0
  9
$PLIMMAX
 10
12.0
 20
9.0
  9
$UNITMODE
 70
     0
  9
$VISRETAIN
 70
     1
  9
$PLINEGEN
 70
     0
  9
$PSLTSCALE
 70
     1
  9
$TREEDEPTH
 70
  3020
  9
$CMLSTYLE
  2
Standard
  9
$CMLJUST
 70
     0
  9
$CMLSCALE
 40
1.0
  9
$PROXYGRAPHICS
 70
     1
  9
$MEASUREMENT
 70
     0
  9
$CELWEIGHT
370
    -1
  9
$ENDCAPS
280
     0
  9
$JOINSTYLE
280
     0
  9
$LWDISPLAY
290
     0
  9
$INSUNITS
 70
     0
  9
$HYPERLINKBASE
  1

  9
$STYLESHEET
  1

  9
$XEDIT
290
     1
  9
$CEPSNTYPE
380
     0
  9
$PSTYLEMODE
290
     1
  9
$FINGERPRINTGUID
  2
{990D04BF-2E84-48DF-8E37-9D2DA4AE5296}
  9
$VERSIONGUID
  2
{FAEB1C32-E019-11D5-929B-00C0DF256EC4}
  9
$EXTNAMES
290
     1
  9
$PSVPSCALE
 40
0.0
  9
$OLESTARTUP
290
     0
  0
ENDSEC
  0
SECTION
  2
CLASSES
  0
CLASS
  1
ACDBDICTIONARYWDFLT
  2
AcDbDictionaryWithDefault
  3
ObjectDBX Classes
 90
        0
280
     0
281
     0
  0
CLASS
  1
SCALE
  2
AcDbScale
  3
ObjectDBX Classes
 90
     1153
280
     0
281
     0
  0
CLASS
  1
VISUALSTYLE
  2
AcDbVisualStyle
  3
ObjectDBX Classes
 90
     4095
280
     0
281
     0
  0
CLASS
  1
MATERIAL
  2
AcDbMaterial
  3
ObjectDBX Classes
 90
     1153
280
     0
281
     0
  0
CLASS
  1
TABLESTYLE
  2
AcDbTableStyle
  3
ObjectDBX Classes
 90
     4095
280
     0
281
     0
  0
CLASS
  1
MLEADERSTYLE
  2
AcDbMLeaderStyle
  3
ACDB_MLEADERSTYLE_CLASS
 90
     4095
280
     0
281
     0
  0
CLASS
  1
SUN
  2
AcDbSun
  3
SCENEOE
 90
     1153
280
     0
281
     0
  0
CLASS
  1
SORTENTSTABLE
  2
AcDbSortentsTable
  3
ObjectDBX Classes
 90
        0
280
     0
281
     0
  0
CLASS
  1
DICTIONARYVAR
  2
AcDbDictionaryVar
  3
ObjectDBX Classes
 90
        0
280
     0
281
     0
  0
CLASS
  1
CELLSTYLEMAP
  2
AcDbCellStyleMap
  3
ObjectDBX Classes
 90
     1152
280
     0
281
     0
  0
CLASS
  1
XRECORD
  2
AcDbXrecord
  3
ObjectDBX Classes
 90
        0
280
     0
281
     0
  0
CLASS
  1
LWPOLYLINE
  2
AcDbPolyline
  3
ObjectDBX Classes
 90
        0
280
     0
281
     1
  0
CLASS
  1
HATCH
  2
AcDbHatch
  3
ObjectDBX Classes
 90
        0
280
     0
281
     1
  0
CLASS
  1
ACDBPLACEHOLDER
  2
AcDbPlaceHolder
  3
ObjectDBX Classes
 90
        0
280
     0
281
     0
  0
CLASS
  1
LAYOUT
  2
AcDbLayout
  3
ObjectDBX Classes
 90
        0
280
     0
281
     0
  0
ENDSEC
  0
SECTION
  2
TABLES
  0
TABLE
  2
VPORT
  5
8
102
{ACAD_XDICTIONARY
360
AD5
102
}
330
0
100
AcDbSymbolTable
 70
     1
  0
VPORT
  5
3B
330
8
100
AcDbSymbolTableRecord
100
AcDbViewportTableRecord
  2
*Active
 70
     0
 10
0.0
 20
0.0
 11
1.0
 21
1.0
 12
282.997222222222
 22
194.688503296241
 13
0.0
 23
0.0
 14
0.5
 24
0.5
 15
0.5
 25
0.5
 16
0.0
 26
0.0
 36
1.0
 17
0.0
 27
0.0
 37
0.0
 40
392.944992442281
 41
1.769315673289
 42
50.0
 43
0.0
 44
0.0
 50
0.0
 51
0.0
 71
    16
 72
   100
 73
     1
 74
     3
 75
     0
 76
     0
 77
     0
 78
     0
281
     0
 65
     1
110
0.0
120
0.0
130
0.0
111
1.0
121
0.0
131
0.0
112
0.0
122
1.0
132
0.0
 79
     0
146
0.0
  0
ENDTAB
  0
TABLE
  2
LTYPE
  5
5
330
0
100
AcDbSymbolTable
 70
    10
  0
LTYPE
  5
14
330
5
100
AcDbSymbolTableRecord
100
AcDbLinetypeTableRecord
  2
ByBlock
 70
     0
  3

 72
    65
 73
     0
 40
0.0
  0
LTYPE
  5
15
330
5
100
AcDbSymbolTableRecord
100
AcDbLinetypeTableRecord
  2
ByLayer
 70
     0
  3

 72
    65
 73
     0
 40
0.0
  0
LTYPE
  5
16
330
5
100
AcDbSymbolTableRecord
100
AcDbLinetypeTableRecord
  2
CONTINUOUS
 70
     0
  3
Solid line
 72
    65
 73
     0
 40
0.0
  0
LTYPE
  5
21
330
5
100
AcDbSymbolTableRecord
100
AcDbLinetypeTableRecord
  2
DASHED
 70
     0
  3
__ __ __ __ __ __ __ __ __ __ __ __ __ __ __
 72
    65
 73
     2
 40
0.75
 49
0.5
 74
     0
 49
-0.25
 74
     0
  0
LTYPE
  5
22
330
5
100
AcDbSymbolTableRecord
100
AcDbLinetypeTableRecord
  2
HIDDEN
 70
     0
  3
_ _ _ _ _ _ _ _ _ _ _ _ _ _ _ _ _ _ _ _ _ _ _
 72
    65
 73
     2
 40
0.375
 49
0.25
 74
     0
 49
-0.125
 74
     0
  0
LTYPE
  5
23
330
5
100
AcDbSymbolTableRecord
100
AcDbLinetypeTableRecord
  2
DOT
 70
     0
  3
...............................................
 72
    65
 73
     2
 40
0.25
 49
0.0
 74
     0
 49
-0.25
 74
     0
  0
LTYPE
  5
24
330
5
100
AcDbSymbolTableRecord
100
AcDbLinetypeTableRecord
  2
DASHDOT
 70
     0
  3
__ . __ . __ . __ . __ . __ . __ . __ . __ . __
 72
    65
 73
     4
 40
1.0
 49
0.5
 74
     0
 49
-0.25
 74
     0
 49
0.0
 74
     0
 49
-0.25
 74
     0
  0
LTYPE
  5
25
330
5
100
AcDbSymbolTableRecord
100
AcDbLinetypeTableRecord
  2
DIVIDE
 70
     0
  3
__ . . __ . . __ . . __ . . __ . . __ . . __
 72
    65
 73
     6
 40
1.25
 49
0.5
 74
     0
 49
-0.25
 74
     0
 49
0.0
 74
     0
 49
-0.25
 74
     0
 49
0.0
 74
     0
 49
-0.25
 74
     0
  0
LTYPE
  5
26
330
5
100
AcDbSymbolTableRecord
100
AcDbLinetypeTableRecord
  2
CENTER
 70
     0
  3
____ _ ____ _ ____ _ ____ _ ____ _ ____ _ ____ 
 72
    65
 73
     4
 40
2.0
 49
1.25
 74
     0
 49
-0.25
 74
     0
 49
0.25
 74
     0
 49
-0.25
 74
     0
  0
LTYPE
  5
27
330
5
100
AcDbSymbolTableRecord
100
AcDbLinetypeTableRecord
  2
PHANTOM
 70
     0
  3
______  __  __  ______  __  __  ______  __  __ 
 72
    65
 73
     6
 40
2.5
 49
1.25
 74
     0
 49
-0.25
 74
     0
 49
0.25
 74
     0
 49
-0.25
 74
     0
 49
0.25
 74
     0
 49
-0.25
 74
     0
  0
LTYPE
  5
28
330
5
100
AcDbSymbolTableRecord
100
AcDbLinetypeTableRecord
  2
BORDER
 70
     0
  3
__ __ . __ __ . __ __ . __ __ . __ __ . __ __ .
 72
    65
 73
     6
 40
1.75
 49
0.5
 74
     0
 49
-0.25
 74
     0
 49
0.5
 74
     0
 49
-0.25
 74
     0
 49
0.0
 74
     0
 49
-0.25
 74
     0
  0
LTYPE
  5
8D8
330
5
100
AcDbSymbolTableRecord
100
AcDbLinetypeTableRecord
  2
DYN_DIM
 70
     0
  3
Dashed dynamic dimension line
 72
    65
 73
     2
 40
4.068238442725
 49
1.162353840778
 74
     0
 49
-2.905884601946
 74
     0
  0
ENDTAB
  0
TABLE
  2
LAYER
  5
2
330
0
100
AcDbSymbolTable
 70
    18
  0
LAYER
  5
10
330
2
100
AcDbSymbolTableRecord
100
AcDbLayerTableRecord
  2
0
 70
     0
 62
     7
  6
CONTINUOUS
370
    -3
390
F
  0
LAYER
  5
29
330
2
100
AcDbSymbolTableRecord
100
AcDbLayerTableRecord
  2
CSLAYER1
 70
     0
 62
     7
  6
CONTINUOUS
370
    -3
390
F
  0
LAYER
  5
32
330
2
100
AcDbSymbolTableRecord
100
AcDbLayerTableRecord
  2
CSLAYER10
 70
     0
 62
     7
  6
CONTINUOUS
370
    15
390
F
  0
LAYER
  5
521
330
2
100
AcDbSymbolTableRecord
100
AcDbLayerTableRecord
  2
Defpoints
 70
     0
 62
     7
  6
CONTINUOUS
290
     0
370
    -3
390
F
  0
ENDTAB
  0
TABLE
  2
STYLE
  5
3
330
0
100
AcDbSymbolTable
 70
     3
  0
STYLE
  5
11
330
3
100
AcDbSymbolTableRecord
100
AcDbTextStyleTableRecord
  2
Standard
 70
     0
 40
0.0
 41
1.0
 50
0.0
 71
     0
 42
8.0
  3
txt
  4

  0
STYLE
  5
39
330
3
100
AcDbSymbolTableRecord
100
AcDbTextStyleTableRecord
  2
FX_FONT
 70
     0
 40
1.0
 41
1.0
 50
0.0
 71
     0
 42
1.0
  3
monotxt
  4
bigfont
  0
STYLE
  5
8D7
330
3
100
AcDbSymbolTableRecord
100
AcDbTextStyleTableRecord
  2
DYN_DIM
 70
     0
 40
0.0
 41
1.0
 50
0.0
 71
     0
 42
8.0
  3
txt
  4

  0
ENDTAB
  0
TABLE
  2
VIEW
  5
6
330
0
100
AcDbSymbolTable
 70
     0
  0
ENDTAB
  0
TABLE
  2
UCS
  5
7
330
0
100
AcDbSymbolTable
 70
     0
  0
ENDTAB
  0
TABLE
  2
APPID
  5
9
330
0
100
AcDbSymbolTable
 70
     3
  0
APPID
  5
12
330
9
100
AcDbSymbolTableRecord
100
AcDbRegAppTableRecord
  2
ACAD
 70
     0
  0
APPID
  5
86F
330
9
100
AcDbSymbolTableRecord
100
AcDbRegAppTableRecord
  2
AcadAnnotative
 70
     0
  0
APPID
  5
8D0
330
9
100
AcDbSymbolTableRecord
100
AcDbRegAppTableRecord
  2
ACAD_MLEADERVER
 70
     0
  0
ENDTAB
  0
TABLE
  2
DIMSTYLE
  5
A
330
0
100
AcDbSymbolTable
 70
     1
100
AcDbDimStyleTable
  0
DIMSTYLE
105
3A
330
A
100
AcDbSymbolTableRecord
100
AcDbDimStyleTableRecord
  2
Standard
 70
     0
178
     0
340
11
  0
ENDTAB
  0
TABLE
  2
BLOCK_RECORD
  5
1
330
0
100
AcDbSymbolTable
 70
    51
  0
BLOCK_RECORD
  5
1D
102
{ACAD_XDICTIONARY
360
4F3
102
}
330
1
100
AcDbSymbolTableRecord
100
AcDbBlockTableRecord
  2
*Model_Space
340
1E
  0
BLOCK_RECORD
  5
1B
330
1
100
AcDbSymbolTableRecord
100
AcDbBlockTableRecord
  2
*Paper_Space
340
1C
  0
BLOCK_RECORD
  5
7C
330
1
100
AcDbSymbolTableRecord
100
AcDbBlockTableRecord
  2
FXDIM0000
340
0
  0
BLOCK_RECORD
  5
85
330
1
100
AcDbSymbolTableRecord
100
AcDbBlockTableRecord
  2
FXDIM0001
340
0
  0
BLOCK_RECORD
  5
117
330
1
100
AcDbSymbolTableRecord
100
AcDbBlockTableRecord
  2
FXDIM0002
340
0
  0
BLOCK_RECORD
  5
12F
330
1
100
AcDbSymbolTableRecord
100
AcDbBlockTableRecord
  2
FXDIM0003
340
0
  0
BLOCK_RECORD
  5
137
330
1
100
AcDbSymbolTableRecord
100
AcDbBlockTableRecord
  2
FXDIM0004
340
0
  0
BLOCK_RECORD
  5
16B
330
1
100
AcDbSymbolTableRecord
100
AcDbBlockTableRecord
  2
FXDIM0005
340
0
  0
BLOCK_RECORD
  5
1E6
330
1
100
AcDbSymbolTableRecord
100
AcDbBlockTableRecord
  2
BLKF0000
340
0
  0
BLOCK_RECORD
  5
228
330
1
100
AcDbSymbolTableRecord
100
AcDbBlockTableRecord
  2
BLKF0001
340
0
  0
BLOCK_RECORD
  5
231
330
1
100
AcDbSymbolTableRecord
100
AcDbBlockTableRecord
  2
BLKF0002
340
0
  0
BLOCK_RECORD
  5
236
330
1
100
AcDbSymbolTableRecord
100
AcDbBlockTableRecord
  2
BLKF0003
340
0
  0
BLOCK_RECORD
  5
456
102
{ACAD_XDICTIONARY
360
47C
102
}
330
1
100
AcDbSymbolTableRecord
100
AcDbBlockTableRecord
  2
B1800D8
340
0
  0
BLOCK_RECORD
  5
4F5
102
{ACAD_XDICTIONARY
360
51B
102
}
330
1
100
AcDbSymbolTableRecord
100
AcDbBlockTableRecord
  2
B180138
340
0
  0
BLOCK_RECORD
  5
814
102
{ACAD_XDICTIONARY
360
83A
102
}
330
1
100
AcDbSymbolTableRecord
100
AcDbBlockTableRecord
  2
B180108
340
0
  0
BLOCK_RECORD
  5
841
102
{ACAD_XDICTIONARY
360
867
102
}
330
1
100
AcDbSymbolTableRecord
100
AcDbBlockTableRecord
  2
B180128
340
0
  0
ENDTAB
  0
ENDSEC
  0
SECTION
  2
BLOCKS
  0
BLOCK
  5
42F
330
1D
100
AcDbEntity
  8
0
100
AcDbBlockBegin
  2
*Model_Space
 70
     0
 10
0.0
 20
0.0
 30
0.0
  3
*Model_Space
  1

  0
ENDBLK
  5
430
330
1D
100
AcDbEntity
  8
0
100
AcDbBlockEnd
  0
BLOCK
  5
431
330
1B
100
AcDbEntity
 67
     1
  8
0
100
AcDbBlockBegin
  2
*Paper_Space
 70
     0
 10
0.0
 20
0.0
 30
0.0
  3
*Paper_Space
  1

  0
ENDBLK
  5
432
330
1B
100
AcDbEntity
 67
     1
  8
0
100
AcDbBlockEnd
  0
BLOCK
  5
7B
330
7C
100
AcDbEntity
  8
CSLAYER1
100
AcDbBlockBegin
  2
FXDIM0000
 70
     0
 10
0.0
 20
0.0
 30
0.0
  3
FXDIM0000
  1

  0
LINE
  5
7D
330
7C
100
AcDbEntity
  8
CSLAYER1
  6
Continuous
 62
     7
100
AcDbLine
 10
294.0
 20
322.184909
 30
0.0
 11
294.0
 21
371.0
 31
0.0
  0
LINE
  5
7E
330
7C
100
AcDbEntity
  8
CSLAYER1
  6
Continuous
 62
     7
100
AcDbLine
 10
294.0
 20
370.0
 30
0.0
 11
256.0
 21
370.0
 31
0.0
  0
LINE
  5
7F
330
7C
100
AcDbEntity
  8
CSLAYER1
  6
Continuous
 62
     7
100
AcDbLine
 10
294.0
 20
370.0
 30
0.0
 11
292.068148
 21
370.517638
 31
0.0
  0
LINE
  5
80
330
7C
100
AcDbEntity
  8
CSLAYER1
  6
Continuous
 62
     7
100
AcDbLine
 10
294.0
 20
370.0
 30
0.0
 11
292.068148
 21
369.482362
 31
0.0
  0
LINE
  5
81
330
7C
100
AcDbEntity
  8
CSLAYER1
  6
Continuous
 62
     7
100
AcDbLine
 10
256.0
 20
370.0
 30
0.0
 11
257.931852
 21
370.517638
 31
0.0
  0
LINE
  5
82
330
7C
100
AcDbEntity
  8
CSLAYER1
  6
Continuous
 62
     7
100
AcDbLine
 10
256.0
 20
370.0
 30
0.0
 11
257.931852
 21
369.482362
 31
0.0
  0
ENDBLK
  5
83
330
7C
100
AcDbEntity
  8
0
100
AcDbBlockEnd
  0
BLOCK
  5
84
330
85
100
AcDbEntity
  8
CSLAYER1
100
AcDbBlockBegin
  2
FXDIM0001
 70
     0
 10
0.0
 20
0.0
 30
0.0
  3
FXDIM0001
  1

  0
TEXT
  5
86
330
85
100
AcDbEntity
  8
CSLAYER1
 62
     7
100
AcDbText
 10
272.5
 20
371.0
 30
0.0
 40
4.0
  1
38
 41
0.681818181818
  7
FX_FONT
 72
     5
 11
277.5
 21
371.0
 31
0.0
100
AcDbText
  0
ENDBLK
  5
87
330
85
100
AcDbEntity
  8
0
100
AcDbBlockEnd
  0
BLOCK
  5
116
330
117
100
AcDbEntity
  8
CSLAYER1
100
AcDbBlockBegin
  2
FXDIM0002
 70
     0
 10
0.0
 20
0.0
 30
0.0
  3
FXDIM0002
  1

  0
LINE
  5
118
330
117
100
AcDbEntity
  8
CSLAYER1
  6
Continuous
 62
     7
100
AcDbLine
 10
504.475263
 20
329.379844
 30
0.0
 11
530.0
 21
329.379844
 31
0.0
  0
ENDBLK
  5
119
330
117
100
AcDbEntity
  8
0
100
AcDbBlockEnd
  0
BLOCK
  5
12E
330
12F
100
AcDbEntity
  8
CSLAYER1
100
AcDbBlockBegin
  2
FXDIM0003
 70
     0
 10
0.0
 20
0.0
 30
0.0
  3
FXDIM0003
  1

  0
LINE
  5
130
330
12F
100
AcDbEntity
  8
CSLAYER1
  6
Continuous
 62
     7
100
AcDbLine
 10
480.932288
 20
315.961717
 30
0.0
 11
499.067712
 21
287.20226
 31
0.0
  0
LINE
  5
131
330
12F
100
AcDbEntity
  8
CSLAYER1
  6
Continuous
 62
     7
100
AcDbLine
 10
480.932288
 20
315.961717
 30
0.0
 11
482.40058
 21
314.603734
 31
0.0
  0
LINE
  5
132
330
12F
100
AcDbEntity
  8
CSLAYER1
  6
Continuous
 62
     7
100
AcDbLine
 10
480.932288
 20
315.961717
 30
0.0
 11
481.524875
 21
314.051523
 31
0.0
  0
LINE
  5
133
330
12F
100
AcDbEntity
  8
CSLAYER1
  6
Continuous
 62
     7
100
AcDbLine
 10
499.067712
 20
287.20226
 30
0.0
 11
497.59942
 21
288.560243
 31
0.0
  0
LINE
  5
134
330
12F
100
AcDbEntity
  8
CSLAYER1
  6
Continuous
 62
     7
100
AcDbLine
 10
499.067712
 20
287.20226
 30
0.0
 11
498.475125
 21
289.112454
 31
0.0
  0
ENDBLK
  5
135
330
12F
100
AcDbEntity
  8
0
100
AcDbBlockEnd
  0
BLOCK
  5
136
330
137
100
AcDbEntity
  8
CSLAYER1
100
AcDbBlockBegin
  2
FXDIM0004
 70
     0
 10
0.0
 20
0.0
 30
0.0
  3
FXDIM0004
  1

  0
TEXT
  5
138
330
137
100
AcDbEntity
  8
CSLAYER1
 62
     7
100
AcDbText
 10
370.7
 20
371.0
 30
0.0
 40
4.0
  1
2-4mmネジ用穴
 41
0.729020979021
  7
FX_FONT
 72
     5
 11
398.5
 21
371.0
 31
0.0
100
AcDbText
  0
LINE
  5
139
330
137
100
AcDbEntity
  8
CSLAYER1
  6
Continuous
 62
     7
100
AcDbLine
 10
422.0
 20
347.5
 30
0.0
 11
399.5
 21
370.0
 31
0.0
  0
LINE
  5
13A
330
137
100
AcDbEntity
  8
CSLAYER1
  6
Continuous
 62
     7
100
AcDbLine
 10
422.0
 20
347.5
 30
0.0
 11
420.267949
 21
348.5
 31
0.0
  0
LINE
  5
13B
330
137
100
AcDbEntity
  8
CSLAYER1
  6
Continuous
 62
     7
100
AcDbLine
 10
422.0
 20
347.5
 30
0.0
 11
421.0
 21
349.232051
 31
0.0
  0
LINE
  5
13C
330
137
100
AcDbEntity
  8
CSLAYER1
  6
Continuous
 62
     7
100
AcDbLine
 10
399.5
 20
370.0
 30
0.0
 11
369.5
 21
370.0
 31
0.0
  0
ENDBLK
  5
13D
330
137
100
AcDbEntity
  8
0
100
AcDbBlockEnd
  0
BLOCK
  5
16A
330
16B
100
AcDbEntity
  8
CSLAYER1
100
AcDbBlockBegin
  2
FXDIM0005
 70
     0
 10
0.0
 20
0.0
 30
0.0
  3
FXDIM0005
  1

  0
LINE
  5
16C
330
16B
100
AcDbEntity
  8
CSLAYER1
  6
Continuous
 62
     7
100
AcDbLine
 10
103.034389
 20
312.622638
 30
0.0
 11
78.464117
 21
337.19291
 31
0.0
  0
LINE
  5
16D
330
16B
100
AcDbEntity
  8
CSLAYER1
  6
Continuous
 62
     7
100
AcDbLine
 10
103.034389
 20
312.622638
 30
0.0
 11
101.302338
 21
313.622638
 31
0.0
  0
LINE
  5
16E
330
16B
100
AcDbEntity
  8
CSLAYER1
  6
Continuous
 62
     7
100
AcDbLine
 10
103.034389
 20
312.622638
 30
0.0
 11
102.034389
 21
314.354689
 31
0.0
  0
LINE
  5
16F
330
16B
100
AcDbEntity
  8
CSLAYER1
  6
Continuous
 62
     7
100
AcDbLine
 10
78.464117
 20
337.19291
 30
0.0
 11
48.464117
 21
337.19291
 31
0.0
  0
TEXT
  5
170
330
16B
100
AcDbEntity
  8
CSLAYER1
 62
     7
100
AcDbText
 10
49.664119
 20
338.192902
 30
0.0
 40
4.0
  1
2-4mmネジ用穴
 41
0.729020979021
  7
FX_FONT
 72
     5
 11
77.464119
 21
338.192902
 31
0.0
100
AcDbText
  0
ENDBLK
  5
171
330
16B
100
AcDbEntity
  8
0
100
AcDbBlockEnd
  0
BLOCK
  5
1E5
330
1E6
100
AcDbEntity
  8
CSLAYER1
100
AcDbBlockBegin
  2
BLKF0000
 70
     0
 10
0.0
 20
0.0
 30
0.0
  3
BLKF0000
  1

  0
LINE
  5
1E7
330
1E6
100
AcDbEntity
  8
CSLAYER1
  6
Continuous
 62
     3
100
AcDbLine
 10
420.0
 20
341.0
 30
0.0
 11
420.078828
 21
341.056998
 31
0.0
  0
LINE
  5
1E8
330
1E6
100
AcDbEntity
  8
CSLAYER1
  6
Continuous
 62
     3
100
AcDbLine
 10
420.078828
 20
341.056998
 30
0.0
 11
420.157648
 21
341.113722
 31
0.0
  0
LINE
  5
1E9
330
1E6
100
AcDbEntity
  8
CSLAYER1
  6
Continuous
 62
     3
100
AcDbLine
 10
420.157648
 20
341.113722
 30
0.0
 11
420.236451
 21
341.169896
 31
0.0
  0
LINE
  5
1EA
330
1E6
100
AcDbEntity
  8
CSLAYER1
  6
Continuous
 62
     3
100
AcDbLine
 10
420.236451
 20
341.169896
 30
0.0
 11
420.31523
 21
341.225245
 31
0.0
  0
LINE
  5
1EB
330
1E6
100
AcDbEntity
  8
CSLAYER1
  6
Continuous
 62
     3
100
AcDbLine
 10
420.31523
 20
341.225245
 30
0.0
 11
420.393977
 21
341.279496
 31
0.0
  0
LINE
  5
1EC
330
1E6
100
AcDbEntity
  8
CSLAYER1
  6
Continuous
 62
     3
100
AcDbLine
 10
420.393977
 20
341.279496
 30
0.0
 11
420.472683
 21
341.332373
 31
0.0
  0
LINE
  5
1ED
330
1E6
100
AcDbEntity
  8
CSLAYER1
  6
Continuous
 62
     3
100
AcDbLine
 10
420.472683
 20
341.332373
 30
0.0
 11
420.55134
 21
341.383601
 31
0.0
  0
LINE
  5
1EE
330
1E6
100
AcDbEntity
  8
CSLAYER1
  6
Continuous
 62
     3
100
AcDbLine
 10
420.55134
 20
341.383601
 30
0.0
 11
420.62994
 21
341.432906
 31
0.0
  0
LINE
  5
1EF
330
1E6
100
AcDbEntity
  8
CSLAYER1
  6
Continuous
 62
     3
100
AcDbLine
 10
420.62994
 20
341.432906
 30
0.0
 11
420.708476
 21
341.480014
 31
0.0
  0
LINE
  5
1F0
330
1E6
100
AcDbEntity
  8
CSLAYER1
  6
Continuous
 62
     3
100
AcDbLine
 10
420.708476
 20
341.480014
 30
0.0
 11
420.786938
 21
341.524648
 31
0.0
  0
LINE
  5
1F1
330
1E6
100
AcDbEntity
  8
CSLAYER1
  6
Continuous
 62
     3
100
AcDbLine
 10
420.786938
 20
341.524648
 30
0.0
 11
420.865319
 21
341.566535
 31
0.0
  0
LINE
  5
1F2
330
1E6
100
AcDbEntity
  8
CSLAYER1
  6
Continuous
 62
     3
100
AcDbLine
 10
420.865319
 20
341.566535
 30
0.0
 11
420.94361
 21
341.605399
 31
0.0
  0
LINE
  5
1F3
330
1E6
100
AcDbEntity
  8
CSLAYER1
  6
Continuous
 62
     3
100
AcDbLine
 10
420.94361
 20
341.605399
 30
0.0
 11
421.021804
 21
341.640967
 31
0.0
  0
LINE
  5
1F4
330
1E6
100
AcDbEntity
  8
CSLAYER1
  6
Continuous
 62
     3
100
AcDbLine
 10
421.021804
 20
341.640967
 30
0.0
 11
421.099893
 21
341.672963
 31
0.0
  0
LINE
  5
1F5
330
1E6
100
AcDbEntity
  8
CSLAYER1
  6
Continuous
 62
     3
100
AcDbLine
 10
421.099893
 20
341.672963
 30
0.0
 11
421.177867
 21
341.701112
 31
0.0
  0
LINE
  5
1F6
330
1E6
100
AcDbEntity
  8
CSLAYER1
  6
Continuous
 62
     3
100
AcDbLine
 10
421.177867
 20
341.701112
 30
0.0
 11
421.25572
 21
341.72514
 31
0.0
  0
LINE
  5
1F7
330
1E6
100
AcDbEntity
  8
CSLAYER1
  6
Continuous
 62
     3
100
AcDbLine
 10
421.25572
 20
341.72514
 30
0.0
 11
421.333443
 21
341.744772
 31
0.0
  0
LINE
  5
1F8
330
1E6
100
AcDbEntity
  8
CSLAYER1
  6
Continuous
 62
     3
100
AcDbLine
 10
421.333443
 20
341.744772
 30
0.0
 11
421.411027
 21
341.759734
 31
0.0
  0
LINE
  5
1F9
330
1E6
100
AcDbEntity
  8
CSLAYER1
  6
Continuous
 62
     3
100
AcDbLine
 10
421.411027
 20
341.759734
 30
0.0
 11
421.488465
 21
341.769749
 31
0.0
  0
LINE
  5
1FA
330
1E6
100
AcDbEntity
  8
CSLAYER1
  6
Continuous
 62
     3
100
AcDbLine
 10
421.488465
 20
341.769749
 30
0.0
 11
421.565749
 21
341.774545
 31
0.0
  0
LINE
  5
1FB
330
1E6
100
AcDbEntity
  8
CSLAYER1
  6
Continuous
 62
     3
100
AcDbLine
 10
421.565749
 20
341.774545
 30
0.0
 11
421.64287
 21
341.773845
 31
0.0
  0
LINE
  5
1FC
330
1E6
100
AcDbEntity
  8
CSLAYER1
  6
Continuous
 62
     3
100
AcDbLine
 10
421.64287
 20
341.773845
 30
0.0
 11
421.76182
 21
341.761678
 31
0.0
  0
LINE
  5
1FD
330
1E6
100
AcDbEntity
  8
CSLAYER1
  6
Continuous
 62
     3
100
AcDbLine
 10
421.76182
 20
341.761678
 30
0.0
 11
421.880426
 21
341.736942
 31
0.0
  0
LINE
  5
1FE
330
1E6
100
AcDbEntity
  8
CSLAYER1
  6
Continuous
 62
     3
100
AcDbLine
 10
421.880426
 20
341.736942
 30
0.0
 11
421.998754
 21
341.70087
 31
0.0
  0
LINE
  5
1FF
330
1E6
100
AcDbEntity
  8
CSLAYER1
  6
Continuous
 62
     3
100
AcDbLine
 10
421.998754
 20
341.70087
 30
0.0
 11
422.116868
 21
341.654694
 31
0.0
  0
LINE
  5
200
330
1E6
100
AcDbEntity
  8
CSLAYER1
  6
Continuous
 62
     3
100
AcDbLine
 10
422.116868
 20
341.654694
 30
0.0
 11
422.234833
 21
341.599646
 31
0.0
  0
LINE
  5
201
330
1E6
100
AcDbEntity
  8
CSLAYER1
  6
Continuous
 62
     3
100
AcDbLine
 10
422.234833
 20
341.599646
 30
0.0
 11
422.352714
 21
341.536959
 31
0.0
  0
LINE
  5
202
330
1E6
100
AcDbEntity
  8
CSLAYER1
  6
Continuous
 62
     3
100
AcDbLine
 10
422.352714
 20
341.536959
 30
0.0
 11
422.470576
 21
341.467865
 31
0.0
  0
LINE
  5
203
330
1E6
100
AcDbEntity
  8
CSLAYER1
  6
Continuous
 62
     3
100
AcDbLine
 10
422.470576
 20
341.467865
 30
0.0
 11
422.588483
 21
341.393596
 31
0.0
  0
LINE
  5
204
330
1E6
100
AcDbEntity
  8
CSLAYER1
  6
Continuous
 62
     3
100
AcDbLine
 10
422.588483
 20
341.393596
 30
0.0
 11
422.706501
 21
341.315384
 31
0.0
  0
LINE
  5
205
330
1E6
100
AcDbEntity
  8
CSLAYER1
  6
Continuous
 62
     3
100
AcDbLine
 10
422.706501
 20
341.315384
 30
0.0
 11
422.824694
 21
341.234461
 31
0.0
  0
LINE
  5
206
330
1E6
100
AcDbEntity
  8
CSLAYER1
  6
Continuous
 62
     3
100
AcDbLine
 10
422.824694
 20
341.234461
 30
0.0
 11
422.943127
 21
341.15206
 31
0.0
  0
LINE
  5
207
330
1E6
100
AcDbEntity
  8
CSLAYER1
  6
Continuous
 62
     3
100
AcDbLine
 10
422.943127
 20
341.15206
 30
0.0
 11
423.061865
 21
341.069412
 31
0.0
  0
LINE
  5
208
330
1E6
100
AcDbEntity
  8
CSLAYER1
  6
Continuous
 62
     3
100
AcDbLine
 10
423.061865
 20
341.069412
 30
0.0
 11
423.180973
 21
340.987751
 31
0.0
  0
LINE
  5
209
330
1E6
100
AcDbEntity
  8
CSLAYER1
  6
Continuous
 62
     3
100
AcDbLine
 10
423.180973
 20
340.987751
 30
0.0
 11
423.300515
 21
340.908308
 31
0.0
  0
LINE
  5
20A
330
1E6
100
AcDbEntity
  8
CSLAYER1
  6
Continuous
 62
     3
100
AcDbLine
 10
423.300515
 20
340.908308
 30
0.0
 11
423.420557
 21
340.832315
 31
0.0
  0
LINE
  5
20B
330
1E6
100
AcDbEntity
  8
CSLAYER1
  6
Continuous
 62
     3
100
AcDbLine
 10
423.420557
 20
340.832315
 30
0.0
 11
423.541162
 21
340.761004
 31
0.0
  0
LINE
  5
20C
330
1E6
100
AcDbEntity
  8
CSLAYER1
  6
Continuous
 62
     3
100
AcDbLine
 10
423.541162
 20
340.761004
 30
0.0
 11
423.662397
 21
340.695609
 31
0.0
  0
LINE
  5
20D
330
1E6
100
AcDbEntity
  8
CSLAYER1
  6
Continuous
 62
     3
100
AcDbLine
 10
423.662397
 20
340.695609
 30
0.0
 11
423.784326
 21
340.63736
 31
0.0
  0
LINE
  5
20E
330
1E6
100
AcDbEntity
  8
CSLAYER1
  6
Continuous
 62
     3
100
AcDbLine
 10
423.784326
 20
340.63736
 30
0.0
 11
423.907013
 21
340.587491
 31
0.0
  0
LINE
  5
20F
330
1E6
100
AcDbEntity
  8
CSLAYER1
  6
Continuous
 62
     3
100
AcDbLine
 10
423.907013
 20
340.587491
 30
0.0
 11
424.030524
 21
340.547233
 31
0.0
  0
LINE
  5
210
330
1E6
100
AcDbEntity
  8
CSLAYER1
  6
Continuous
 62
     3
100
AcDbLine
 10
424.030524
 20
340.547233
 30
0.0
 11
424.154923
 21
340.517819
 31
0.0
  0
LINE
  5
211
330
1E6
100
AcDbEntity
  8
CSLAYER1
  6
Continuous
 62
     3
100
AcDbLine
 10
424.154923
 20
340.517819
 30
0.0
 11
424.239924
 21
340.504546
 31
0.0
  0
LINE
  5
212
330
1E6
100
AcDbEntity
  8
CSLAYER1
  6
Continuous
 62
     3
100
AcDbLine
 10
424.239924
 20
340.504546
 30
0.0
 11
424.325344
 21
340.496576
 31
0.0
  0
LINE
  5
213
330
1E6
100
AcDbEntity
  8
CSLAYER1
  6
Continuous
 62
     3
100
AcDbLine
 10
424.325344
 20
340.496576
 30
0.0
 11
424.41116
 21
340.493643
 31
0.0
  0
LINE
  5
214
330
1E6
100
AcDbEntity
  8
CSLAYER1
  6
Continuous
 62
     3
100
AcDbLine
 10
424.41116
 20
340.493643
 30
0.0
 11
424.497354
 21
340.495482
 31
0.0
  0
LINE
  5
215
330
1E6
100
AcDbEntity
  8
CSLAYER1
  6
Continuous
 62
     3
100
AcDbLine
 10
424.497354
 20
340.495482
 30
0.0
 11
424.583904
 21
340.501829
 31
0.0
  0
LINE
  5
216
330
1E6
100
AcDbEntity
  8
CSLAYER1
  6
Continuous
 62
     3
100
AcDbLine
 10
424.583904
 20
340.501829
 30
0.0
 11
424.670788
 21
340.512418
 31
0.0
  0
LINE
  5
217
330
1E6
100
AcDbEntity
  8
CSLAYER1
  6
Continuous
 62
     3
100
AcDbLine
 10
424.670788
 20
340.512418
 30
0.0
 11
424.757986
 21
340.526983
 31
0.0
  0
LINE
  5
218
330
1E6
100
AcDbEntity
  8
CSLAYER1
  6
Continuous
 62
     3
100
AcDbLine
 10
424.757986
 20
340.526983
 30
0.0
 11
424.845477
 21
340.54526
 31
0.0
  0
LINE
  5
219
330
1E6
100
AcDbEntity
  8
CSLAYER1
  6
Continuous
 62
     3
100
AcDbLine
 10
424.845477
 20
340.54526
 30
0.0
 11
424.93324
 21
340.566984
 31
0.0
  0
LINE
  5
21A
330
1E6
100
AcDbEntity
  8
CSLAYER1
  6
Continuous
 62
     3
100
AcDbLine
 10
424.93324
 20
340.566984
 30
0.0
 11
425.021254
 21
340.591889
 31
0.0
  0
LINE
  5
21B
330
1E6
100
AcDbEntity
  8
CSLAYER1
  6
Continuous
 62
     3
100
AcDbLine
 10
425.021254
 20
340.591889
 30
0.0
 11
425.109499
 21
340.619711
 31
0.0
  0
LINE
  5
21C
330
1E6
100
AcDbEntity
  8
CSLAYER1
  6
Continuous
 62
     3
100
AcDbLine
 10
425.109499
 20
340.619711
 30
0.0
 11
425.197952
 21
340.650184
 31
0.0
  0
LINE
  5
21D
330
1E6
100
AcDbEntity
  8
CSLAYER1
  6
Continuous
 62
     3
100
AcDbLine
 10
425.197952
 20
340.650184
 30
0.0
 11
425.286595
 21
340.683043
 31
0.0
  0
LINE
  5
21E
330
1E6
100
AcDbEntity
  8
CSLAYER1
  6
Continuous
 62
     3
100
AcDbLine
 10
425.286595
 20
340.683043
 30
0.0
 11
425.375404
 21
340.718023
 31
0.0
  0
LINE
  5
21F
330
1E6
100
AcDbEntity
  8
CSLAYER1
  6
Continuous
 62
     3
100
AcDbLine
 10
425.375404
 20
340.718023
 30
0.0
 11
425.46436
 21
340.754859
 31
0.0
  0
LINE
  5
220
330
1E6
100
AcDbEntity
  8
CSLAYER1
  6
Continuous
 62
     3
100
AcDbLine
 10
425.46436
 20
340.754859
 30
0.0
 11
425.553441
 21
340.793285
 31
0.0
  0
LINE
  5
221
330
1E6
100
AcDbEntity
  8
CSLAYER1
  6
Continuous
 62
     3
100
AcDbLine
 10
425.553441
 20
340.793285
 30
0.0
 11
425.642628
 21
340.833037
 31
0.0
  0
LINE
  5
222
330
1E6
100
AcDbEntity
  8
CSLAYER1
  6
Continuous
 62
     3
100
AcDbLine
 10
425.642628
 20
340.833037
 30
0.0
 11
425.731897
 21
340.87385
 31
0.0
  0
LINE
  5
223
330
1E6
100
AcDbEntity
  8
CSLAYER1
  6
Continuous
 62
     3
100
AcDbLine
 10
425.731897
 20
340.87385
 30
0.0
 11
425.82123
 21
340.915458
 31
0.0
  0
LINE
  5
224
330
1E6
100
AcDbEntity
  8
CSLAYER1
  6
Continuous
 62
     3
100
AcDbLine
 10
425.82123
 20
340.915458
 30
0.0
 11
425.910605
 21
340.957597
 31
0.0
  0
LINE
  5
225
330
1E6
100
AcDbEntity
  8
CSLAYER1
  6
Continuous
 62
     3
100
AcDbLine
 10
425.910605
 20
340.957597
 30
0.0
 11
426.0
 21
341.0
 31
0.0
  0
ENDBLK
  5
226
330
1E6
100
AcDbEntity
  8
0
100
AcDbBlockEnd
  0
BLOCK
  5
227
330
228
100
AcDbEntity
  8
CSLAYER1
100
AcDbBlockBegin
  2
BLKF0001
 70
     0
 10
0.0
 20
0.0
 30
0.0
  3
BLKF0001
  1

  0
LINE
  5
229
330
228
100
AcDbEntity
  8
CSLAYER1
  6
Continuous
 62
     7
100
AcDbLine
 10
423.646447
 20
350.353553
 30
0.0
 11
425.06066
 21
351.767767
 31
0.0
  0
LINE
  5
22A
330
228
100
AcDbEntity
  8
CSLAYER1
  6
Continuous
 62
     7
100
AcDbLine
 10
422.585786
 20
351.414214
 30
0.0
 11
424.0
 21
352.828427
 31
0.0
  0
LINE
  5
22B
330
228
100
AcDbEntity
  8
CSLAYER1
  6
Continuous
 62
     7
100
AcDbLine
 10
422.0
 20
352.949747
 30
0.0
 11
424.0
 21
354.949747
 31
0.0
  0
LINE
  5
22C
330
228
100
AcDbEntity
  8
CSLAYER1
  6
Continuous
 62
     7
100
AcDbLine
 10
422.0
 20
355.071068
 30
0.0
 11
424.0
 21
357.071068
 31
0.0
  0
LINE
  5
22D
330
228
100
AcDbEntity
  8
CSLAYER1
  6
Continuous
 62
     7
100
AcDbLine
 10
422.0
 20
357.192388
 30
0.0
 11
424.0
 21
359.192388
 31
0.0
  0
LINE
  5
22E
330
228
100
AcDbEntity
  8
CSLAYER1
  6
Continuous
 62
     7
100
AcDbLine
 10
422.0
 20
359.313708
 30
0.0
 11
422.686292
 21
360.0
 31
0.0
  0
ENDBLK
  5
22F
330
228
100
AcDbEntity
  8
0
100
AcDbBlockEnd
  0
BLOCK
  5
230
330
231
100
AcDbEntity
  8
CSLAYER1
100
AcDbBlockBegin
  2
BLKF0002
 70
     0
 10
0.0
 20
0.0
 30
0.0
  3
BLKF0002
  1

  0
LINE
  5
232
330
231
100
AcDbEntity
  8
CSLAYER1
  6
Continuous
 62
     7
100
AcDbLine
 10
423.126846
 20
341.024861
 30
0.0
 11
424.0
 21
341.898016
 31
0.0
  0
LINE
  5
233
330
231
100
AcDbEntity
  8
CSLAYER1
  6
Continuous
 62
     7
100
AcDbLine
 10
422.0
 20
342.019336
 30
0.0
 11
424.490332
 21
344.509668
 31
0.0
  0
ENDBLK
  5
234
330
231
100
AcDbEntity
  8
0
100
AcDbBlockEnd
  0
BLOCK
  5
235
330
236
100
AcDbEntity
  8
CSLAYER1
100
AcDbBlockBegin
  2
BLKF0003
 70
     0
 10
0.0
 20
0.0
 30
0.0
  3
BLKF0003
  1

  0
LINE
  5
237
330
236
100
AcDbEntity
  8
CSLAYER1
  6
Continuous
 62
     7
100
AcDbLine
 10
497.36407
 20
286.177778
 30
0.0
 11
505.322222
 21
294.13593
 31
0.0
  0
LINE
  5
238
330
236
100
AcDbEntity
  8
CSLAYER1
  6
Continuous
 62
     7
100
AcDbLine
 10
493.152775
 20
284.794911
 30
0.0
 11
506.705089
 21
298.347225
 31
0.0
  0
LINE
  5
239
330
236
100
AcDbEntity
  8
CSLAYER1
  6
Continuous
 62
     7
100
AcDbLine
 10
490.029463
 20
284.500026
 30
0.0
 11
506.999974
 21
301.470537
 31
0.0
  0
LINE
  5
23A
330
236
100
AcDbEntity
  8
CSLAYER1
  6
Continuous
 62
     7
100
AcDbLine
 10
487.400875
 20
284.699865
 30
0.0
 11
506.800135
 21
304.099125
 31
0.0
  0
LINE
  5
23B
330
236
100
AcDbEntity
  8
CSLAYER1
  6
Continuous
 62
     7
100
AcDbLine
 10
485.095442
 20
285.222859
 30
0.0
 11
506.277141
 21
306.404558
 31
0.0
  0
LINE
  5
23C
330
236
100
AcDbEntity
  8
CSLAYER1
  6
Continuous
 62
     7
100
AcDbLine
 10
483.036004
 20
285.991848
 30
0.0
 11
505.508152
 21
308.463996
 31
0.0
  0
LINE
  5
23D
330
236
100
AcDbEntity
  8
CSLAYER1
  6
Continuous
 62
     7
100
AcDbLine
 10
481.181709
 20
286.96598
 30
0.0
 11
504.53402
 21
310.318291
 31
0.0
  0
LINE
  5
23E
330
236
100
AcDbEntity
  8
CSLAYER1
  6
Continuous
 62
     7
100
AcDbLine
 10
479.509839
 20
288.122537
 30
0.0
 11
503.377463
 21
311.990161
 31
0.0
  0
LINE
  5
23F
330
236
100
AcDbEntity
  8
CSLAYER1
  6
Continuous
 62
     7
100
AcDbLine
 10
478.008658
 20
289.449784
 30
0.0
 11
502.050216
 21
313.491342
 31
0.0
  0
LINE
  5
240
330
236
100
AcDbEntity
  8
CSLAYER1
  6
Continuous
 62
     7
100
AcDbLine
 10
476.674437
 20
290.943989
 30
0.0
 11
500.556011
 21
314.825563
 31
0.0
  0
LINE
  5
241
330
236
100
AcDbEntity
  8
CSLAYER1
  6
Continuous
 62
     7
100
AcDbLine
 10
475.510601
 20
292.608581
 30
0.0
 11
498.891419
 21
315.989399
 31
0.0
  0
LINE
  5
242
330
236
100
AcDbEntity
  8
CSLAYER1
  6
Continuous
 62
     7
100
AcDbLine
 10
474.528514
 20
294.454921
 30
0.0
 11
497.045079
 21
316.971486
 31
0.0
  0
LINE
  5
243
330
236
100
AcDbEntity
  8
CSLAYER1
  6
Continuous
 62
     7
100
AcDbLine
 10
473.750334
 20
296.505168
 30
0.0
 11
494.994832
 21
317.749666
 31
0.0
  0
LINE
  5
244
330
236
100
AcDbEntity
  8
CSLAYER1
  6
Continuous
 62
     7
100
AcDbLine
 10
473.215914
 20
298.799175
 30
0.0
 11
492.700825
 21
318.284086
 31
0.0
  0
LINE
  5
245
330
236
100
AcDbEntity
  8
CSLAYER1
  6
Continuous
 62
     7
100
AcDbLine
 10
473.000228
 20
301.411916
 30
0.0
 11
490.088084
 21
318.499772
 31
0.0
  0
LINE
  5
246
330
236
100
AcDbEntity
  8
CSLAYER1
  6
Continuous
 62
     7
100
AcDbLine
 10
473.268313
 20
304.508428
 30
0.0
 11
486.991572
 21
318.231687
 31
0.0
  0
LINE
  5
247
330
236
100
AcDbEntity
  8
CSLAYER1
  6
Continuous
 62
     7
100
AcDbLine
 10
474.572635
 20
308.641178
 30
0.0
 11
482.858822
 21
316.927365
 31
0.0
  0
ENDBLK
  5
248
330
236
100
AcDbEntity
  8
0
100
AcDbBlockEnd
  0
BLOCK
  5
4B7
330
456
100
AcDbEntity
  8
0
100
AcDbBlockBegin
  2
B1800D8
 70
     0
 10
0.0
 20
0.0
 30
0.0
  3
B1800D8
  1

  0
TEXT
  5
47E
330
456
100
AcDbEntity
  8
CSLAYER10
  6
Continuous
 62
     3
100
AcDbText
 10
0.409256114091
 20
64.030223161314
 30
0.0
 40
5.0
  1
●カラー寸法
 41
1.074422999617
  7
FX_FONT
 72
     5
 11
37.655920100807
 21
64.030223161314
 31
0.0
100
AcDbText
  0
LINE
  5
47F
330
456
100
AcDbEntity
  8
CSLAYER10
  6
Continuous
 62
     3
100
AcDbLine
 10
0.0
 20
0.0
 30
0.0
 11
87.557071326858
 21
0.0
 31
0.0
  0
LINE
  5
480
330
456
100
AcDbEntity
  8
CSLAYER10
  6
Continuous
 62
     3
100
AcDbLine
 10
0.03556
 20
32.0
 30
0.0
 11
87.557071326858
 21
32.0
 31
0.0
  0
LINE
  5
481
330
456
100
AcDbEntity
  8
CSLAYER10
  6
Continuous
 62
     3
100
AcDbLine
 10
25.03556
 20
0.0
 30
0.0
 11
25.03556
 21
40.0
 31
0.0
  0
TEXT
  5
482
330
456
100
AcDbEntity
  8
CSLAYER10
  6
Continuous
 62
     3
100
AcDbText
 10
32.210685476965
 20
33.471132672362
 30
0.0
 40
4.0
  1
高さ(H)
 41
0.89552238806
  7
FX_FONT
 72
     5
 11
50.210685476965
 21
33.471132672362
 31
0.0
100
AcDbText
  0
TEXT
  5
483
330
456
100
AcDbEntity
  8
CSLAYER10
  6
Continuous
 62
     3
100
AcDbText
 10
62.847607331655
 20
33.946842760778
 30
0.0
 40
4.0
  1
直径(D)
 41
0.89552238806
  7
FX_FONT
 72
     5
 11
80.847607331655
 21
33.946842760778
 31
0.0
100
AcDbText
  0
TEXT
  5
484
330
456
100
AcDbEntity
  8
CSLAYER10
  6
Continuous
 62
     3
100
AcDbText
 10
35.132227633649
 20
25.162432896848
 30
0.0
 40
4.0
  1
26.5
 41
0.650994575045
  7
FX_FONT
 72
     5
 11
45.132227633649
 21
25.162432896848
 31
0.0
100
AcDbText
  0
TEXT
  5
485
330
456
100
AcDbEntity
  8
CSLAYER10
  6
Continuous
 62
     3
100
AcDbText
 10
35.139063633649
 20
17.462519896848
 30
0.0
 40
4.0
  1
23.5
 41
0.652173913043
  7
FX_FONT
 72
     5
 11
45.139063633649
 21
17.462519896848
 31
0.0
100
AcDbText
  0
TEXT
  5
486
330
456
100
AcDbEntity
  8
CSLAYER10
  6
Continuous
 62
     3
100
AcDbText
 10
35.132227633649
 20
9.462100896848
 30
0.0
 40
4.0
  1
21.0
 41
0.662739322533
  7
FX_FONT
 72
     5
 11
45.132227633649
 21
9.462100896848
 31
0.0
100
AcDbText
  0
TEXT
  5
487
330
456
100
AcDbEntity
  8
CSLAYER10
  6
Continuous
 62
     3
100
AcDbText
 10
34.729639633649
 20
1.410647896848
 30
0.0
 40
4.0
  1
18.5
 41
0.652173913043
  7
FX_FONT
 72
     5
 11
44.729639633649
 21
1.410647896848
 31
0.0
100
AcDbText
  0
TEXT
  5
488
330
456
100
AcDbEntity
  8
CSLAYER10
  6
Continuous
 62
     3
100
AcDbText
 10
64.986953488339
 20
25.828648985264
 30
0.0
 40
4.0
  1
%%C50.5
 41
0.677638152647
  7
FX_FONT
 72
     5
 11
78.110545711275
 21
25.828648985264
 31
0.0
100
AcDbText
  0
TEXT
  5
489
330
456
100
AcDbEntity
  8
CSLAYER10
  6
Continuous
 62
     3
100
AcDbText
 10
64.986953488339
 20
17.938229985264
 30
0.0
 40
4.0
  1
%%C49.5
 41
0.678741480738
  7
FX_FONT
 72
     5
 11
78.110545711275
 21
17.938229985264
 31
0.0
100
AcDbText
  0
TEXT
  5
48A
330
456
100
AcDbEntity
  8
CSLAYER10
  6
Continuous
 62
     3
100
AcDbText
 10
65.092818488339
 20
9.535237985264
 30
0.0
 40
4.0
  1
%%C48.5
 41
0.656531284829
  7
FX_FONT
 72
     5
 11
77.785756661705
 21
9.535237985264
 31
0.0
100
AcDbText
  0
TEXT
  5
48B
330
456
100
AcDbEntity
  8
CSLAYER10
  6
Continuous
 62
     3
100
AcDbText
 10
64.986953488339
 20
2.157376985264
 30
0.0
 40
4.0
  1
%%C47.5
 41
0.662007060691
  7
FX_FONT
 72
     5
 11
77.785756661705
 21
2.157376985264
 31
0.0
100
AcDbText
  0
LINE
  5
48C
330
456
100
AcDbEntity
  8
CSLAYER10
  6
Continuous
 62
     3
100
AcDbLine
 10
0.03556
 20
24.0
 30
0.0
 11
87.557071326858
 21
24.0
 31
0.0
  0
LINE
  5
48D
330
456
100
AcDbEntity
  8
CSLAYER10
  6
Continuous
 62
     3
100
AcDbLine
 10
87.557071326858
 20
16.0
 30
0.0
 11
0.03556
 21
16.0
 31
0.0
  0
LINE
  5
48E
330
456
100
AcDbEntity
  8
CSLAYER10
  6
Continuous
 62
     3
100
AcDbLine
 10
0.03556
 20
8.0
 30
0.0
 11
87.557071326858
 21
8.0
 31
0.0
  0
TEXT
  5
48F
330
456
100
AcDbEntity
  8
CSLAYER10
  6
Continuous
 62
     3
100
AcDbText
 10
6.469615
 20
41.026002368393
 30
0.0
 40
5.0
  1
扉厚
 41
1.125
  7
FX_FONT
 72
     5
 11
18.469615
 21
41.026002368393
 31
0.0
100
AcDbText
  0
TEXT
  5
490
330
456
100
AcDbEntity
  8
CSLAYER10
  6
Continuous
 62
     3
100
AcDbText
 10
2.035563
 20
25.999998
 30
0.0
 40
4.0
  1
35 ~ 37未満
 41
0.629475437136
  7
FX_FONT
 72
     5
 11
23.035563
 21
25.999998
 31
0.0
100
AcDbText
  0
TEXT
  5
491
330
456
100
AcDbEntity
  8
CSLAYER10
  6
Continuous
 62
     3
100
AcDbText
 10
2.035563
 20
18.000006
 30
0.0
 40
4.0
  1
37 ~ 42未満
 41
0.63
  7
FX_FONT
 72
     5
 11
23.035563
 21
18.000006
 31
0.0
100
AcDbText
  0
TEXT
  5
492
330
456
100
AcDbEntity
  8
CSLAYER10
  6
Continuous
 62
     3
100
AcDbText
 10
2.035563
 20
10.000006
 30
0.0
 40
4.0
  1
42 ~ 47未満
 41
0.63
  7
FX_FONT
 72
     5
 11
23.035563
 21
10.000006
 31
0.0
100
AcDbText
  0
LINE
  5
493
330
456
100
AcDbEntity
  8
CSLAYER10
  6
Continuous
 62
     3
100
AcDbLine
 10
25.03556
 20
8.0
 30
0.0
 11
25.03556
 21
56.0
 31
0.0
  0
LINE
  5
494
330
456
100
AcDbEntity
  8
CSLAYER10
  6
Continuous
 62
     3
100
AcDbLine
 10
25.03556
 20
48.0
 30
0.0
 11
87.557071326858
 21
48.0
 31
0.0
  0
LINE
  5
495
330
456
100
AcDbEntity
  8
CSLAYER10
  6
Continuous
 62
     3
100
AcDbLine
 10
0.03556
 20
56.0
 30
0.0
 11
87.557071326858
 21
56.0
 31
0.0
  0
LINE
  5
496
330
456
100
AcDbEntity
  8
CSLAYER10
  6
Continuous
 62
     3
100
AcDbLine
 10
25.03556
 20
40.0
 30
0.0
 11
87.557071326858
 21
40.0
 31
0.0
  0
LINE
  5
497
330
456
100
AcDbEntity
  8
CSLAYER10
  6
Continuous
 62
     3
100
AcDbLine
 10
56.099017873703
 20
40.0
 30
0.0
 11
56.099017873703
 21
0.0
 31
0.0
  0
TEXT
  5
498
330
456
100
AcDbEntity
  8
CSLAYER10
  6
Continuous
 62
     3
100
AcDbText
 10
43.800091611358
 20
41.913961584618
 30
0.0
 40
4.0
  1
Ａ＝43.5
  7
FX_FONT
100
AcDbText
  0
TEXT
  5
499
330
456
100
AcDbEntity
  8
CSLAYER10
  6
Continuous
 62
     3
100
AcDbText
 10
29.502792872339
 20
49.871267964332
 30
0.0
 40
4.0
  1
Ｘ・ＮＸキーシリンダー
  7
FX_FONT
100
AcDbText
  0
TEXT
  5
49A
330
456
100
AcDbEntity
  8
CSLAYER10
  6
Continuous
 62
     3
100
AcDbText
 10
3.78716919717
 20
1.764554775269
 30
0.0
 40
4.0
  1
47 ~ 50
 41
0.71874781687
  7
FX_FONT
 72
     5
 11
20.977221150652
 21
1.764554775269
 31
0.0
100
AcDbText
  0
LINE
  5
49B
330
456
100
AcDbEntity
  8
CSLAYER10
  6
Continuous
 62
     3
100
AcDbLine
 10
107.62240951782
 20
0.0
 30
0.0
 11
195.179480844678
 21
0.0
 31
0.0
  0
LINE
  5
49C
330
456
100
AcDbEntity
  8
CSLAYER10
  6
Continuous
 62
     3
100
AcDbLine
 10
107.65796951782
 20
32.0
 30
0.0
 11
195.179480844678
 21
32.0
 31
0.0
  0
LINE
  5
49D
330
456
100
AcDbEntity
  8
CSLAYER10
  6
Continuous
 62
     3
100
AcDbLine
 10
132.65796951782
 20
0.0
 30
0.0
 11
132.65796951782
 21
40.0
 31
0.0
  0
TEXT
  5
49E
330
456
100
AcDbEntity
  8
CSLAYER10
  6
Continuous
 62
     3
100
AcDbText
 10
139.833094994785
 20
33.471132672362
 30
0.0
 40
4.0
  1
高さ(H)
 41
0.89552238806
  7
FX_FONT
 72
     5
 11
157.833094994785
 21
33.471132672362
 31
0.0
100
AcDbText
  0
TEXT
  5
49F
330
456
100
AcDbEntity
  8
CSLAYER10
  6
Continuous
 62
     3
100
AcDbText
 10
170.470016849475
 20
33.946842760778
 30
0.0
 40
4.0
  1
直径(D)
 41
0.89552238806
  7
FX_FONT
 72
     5
 11
188.470016849475
 21
33.946842760778
 31
0.0
100
AcDbText
  0
TEXT
  5
4A0
330
456
100
AcDbEntity
  8
CSLAYER10
  6
Continuous
 62
     3
100
AcDbText
 10
142.754637151469
 20
25.162432896848
 30
0.0
 40
4.0
  1
21.0
 41
0.662739322533
  7
FX_FONT
 72
     5
 11
152.754637151469
 21
25.162432896848
 31
0.0
100
AcDbText
  0
TEXT
  5
4A1
330
456
100
AcDbEntity
  8
CSLAYER10
  6
Continuous
 62
     3
100
AcDbText
 10
142.761473151469
 20
17.462519896848
 30
0.0
 40
4.0
  1
18.5
 41
0.652173913043
  7
FX_FONT
 72
     5
 11
152.761473151469
 21
17.462519896848
 31
0.0
100
AcDbText
  0
TEXT
  5
4A2
330
456
100
AcDbEntity
  8
CSLAYER10
  6
Continuous
 62
     3
100
AcDbText
 10
142.754637151469
 20
9.462100896848
 30
0.0
 40
4.0
  1
16.0
 41
0.661521499449
  7
FX_FONT
 72
     5
 11
152.754637151469
 21
9.462100896848
 31
0.0
100
AcDbText
  0
TEXT
  5
4A3
330
456
100
AcDbEntity
  8
CSLAYER10
  6
Continuous
 62
     3
100
AcDbText
 10
142.352049151469
 20
1.410647896848
 30
0.0
 40
4.0
  1
13.5
 41
0.652173913043
  7
FX_FONT
 72
     5
 11
152.352049151469
 21
1.410647896848
 31
0.0
100
AcDbText
  0
TEXT
  5
4A4
330
456
100
AcDbEntity
  8
CSLAYER10
  6
Continuous
 62
     3
100
AcDbText
 10
172.609363006158
 20
25.828648985264
 30
0.0
 40
4.0
  1
%%C48.5
 41
0.67880649429
  7
FX_FONT
 72
     5
 11
185.732955229094
 21
25.828648985264
 31
0.0
100
AcDbText
  0
TEXT
  5
4A5
330
456
100
AcDbEntity
  8
CSLAYER10
  6
Continuous
 62
     3
100
AcDbText
 10
172.609363006158
 20
17.938229985264
 30
0.0
 40
4.0
  1
%%C47.5
 41
0.67880649429
  7
FX_FONT
 72
     5
 11
185.732955229094
 21
17.938229985264
 31
0.0
100
AcDbText
  0
TEXT
  5
4A6
330
456
100
AcDbEntity
  8
CSLAYER10
  6
Continuous
 62
     3
100
AcDbText
 10
172.715228006158
 20
9.535237985264
 30
0.0
 40
4.0
  1
%%C46.5
 41
0.655589346114
  7
FX_FONT
 72
     5
 11
185.408166179525
 21
9.535237985264
 31
0.0
100
AcDbText
  0
TEXT
  5
4A7
330
456
100
AcDbEntity
  8
CSLAYER10
  6
Continuous
 62
     3
100
AcDbText
 10
172.609363006158
 20
2.157376985264
 30
0.0
 40
4.0
  1
%%C45.5
 41
0.661057265769
  7
FX_FONT
 72
     5
 11
185.408166179525
 21
2.157376985264
 31
0.0
100
AcDbText
  0
LINE
  5
4A8
330
456
100
AcDbEntity
  8
CSLAYER10
  6
Continuous
 62
     3
100
AcDbLine
 10
107.65796951782
 20
24.0
 30
0.0
 11
195.179480844678
 21
24.0
 31
0.0
  0
LINE
  5
4A9
330
456
100
AcDbEntity
  8
CSLAYER10
  6
Continuous
 62
     3
100
AcDbLine
 10
195.179480844678
 20
16.0
 30
0.0
 11
107.65796951782
 21
16.0
 31
0.0
  0
LINE
  5
4AA
330
456
100
AcDbEntity
  8
CSLAYER10
  6
Continuous
 62
     3
100
AcDbLine
 10
107.65796951782
 20
8.0
 30
0.0
 11
195.179480844678
 21
8.0
 31
0.0
  0
TEXT
  5
4AB
330
456
100
AcDbEntity
  8
CSLAYER10
  6
Continuous
 62
     3
100
AcDbText
 10
114.09202451782
 20
41.026002368393
 30
0.0
 40
5.0
  1
扉厚
 41
1.125
  7
FX_FONT
 72
     5
 11
126.09202451782
 21
41.026002368393
 31
0.0
100
AcDbText
  0
TEXT
  5
4AC
330
456
100
AcDbEntity
  8
CSLAYER10
  6
Continuous
 62
     3
100
AcDbText
 10
109.65797251782
 20
25.999998
 30
0.0
 40
4.0
  1
35 ~ 38未満
 41
0.629475437136
  7
FX_FONT
 72
     5
 11
130.65797251782
 21
25.999998
 31
0.0
100
AcDbText
  0
TEXT
  5
4AD
330
456
100
AcDbEntity
  8
CSLAYER10
  6
Continuous
 62
     3
100
AcDbText
 10
109.65797251782
 20
18.000006
 30
0.0
 40
4.0
  1
38 ~ 43未満
 41
0.63
  7
FX_FONT
 72
     5
 11
130.65797251782
 21
18.000006
 31
0.0
100
AcDbText
  0
TEXT
  5
4AE
330
456
100
AcDbEntity
  8
CSLAYER10
  6
Continuous
 62
     3
100
AcDbText
 10
109.65797251782
 20
10.000006
 30
0.0
 40
4.0
  1
43 ~ 48未満
 41
0.63
  7
FX_FONT
 72
     5
 11
130.65797251782
 21
10.000006
 31
0.0
100
AcDbText
  0
LINE
  5
4AF
330
456
100
AcDbEntity
  8
CSLAYER10
  6
Continuous
 62
     3
100
AcDbLine
 10
132.65796951782
 20
8.0
 30
0.0
 11
132.65796951782
 21
56.0
 31
0.0
  0
LINE
  5
4B0
330
456
100
AcDbEntity
  8
CSLAYER10
  6
Continuous
 62
     3
100
AcDbLine
 10
132.65796951782
 20
48.0
 30
0.0
 11
195.179480844678
 21
48.0
 31
0.0
  0
LINE
  5
4B1
330
456
100
AcDbEntity
  8
CSLAYER10
  6
Continuous
 62
     3
100
AcDbLine
 10
107.65796951782
 20
56.0
 30
0.0
 11
195.179480844678
 21
56.0
 31
0.0
  0
LINE
  5
4B2
330
456
100
AcDbEntity
  8
CSLAYER10
  6
Continuous
 62
     3
100
AcDbLine
 10
132.65796951782
 20
40.0
 30
0.0
 11
195.179480844678
 21
40.0
 31
0.0
  0
LINE
  5
4B3
330
456
100
AcDbEntity
  8
CSLAYER10
  6
Continuous
 62
     3
100
AcDbLine
 10
163.721427391523
 20
40.0
 30
0.0
 11
163.721427391523
 21
0.0
 31
0.0
  0
TEXT
  5
4B4
330
456
100
AcDbEntity
  8
CSLAYER10
  6
Continuous
 62
     3
100
AcDbText
 10
151.422501129178
 20
41.913961584618
 30
0.0
 40
4.0
  1
Ａ＝38
  7
FX_FONT
100
AcDbText
  0
TEXT
  5
4B5
330
456
100
AcDbEntity
  8
CSLAYER10
  6
Continuous
 62
     3
100
AcDbText
 10
137.46584189711
 20
50.204420888713
 30
0.0
 40
4.0
  1
ピンシリンダー及びサムターン
 41
0.8
  7
FX_FONT
100
AcDbText
  0
TEXT
  5
4B6
330
456
100
AcDbEntity
  8
CSLAYER10
  6
Continuous
 62
     3
100
AcDbText
 10
110.305075832914
 20
1.679593015109
 30
0.0
 40
4.0
  1
48 ~ 50
 41
0.71874781687
  7
FX_FONT
 72
     5
 11
127.495127786396
 21
1.679593015109
 31
0.0
100
AcDbText
  0
ENDBLK
  5
4B8
330
456
100
AcDbEntity
  8
0
100
AcDbBlockEnd
  0
BLOCK
  5
51E
330
4F5
100
AcDbEntity
  8
0
100
AcDbBlockBegin
  2
B180138
 70
     0
 10
0.0
 20
0.0
 30
0.0
  3
B180138
  1

  0
TEXT
  5
51D
330
4F5
100
AcDbEntity
  8
CSLAYER10
  6
Continuous
 62
     3
100
AcDbText
 10
-0.358140999872
 20
0.0
 30
0.0
 40
5.0
  1
●カラー寸法
 41
1.074422999617
  7
FX_FONT
 72
     5
 11
36.888522986844
 21
0.0
 31
0.0
100
AcDbText
  0
ENDBLK
  5
51F
330
4F5
100
AcDbEntity
  8
0
100
AcDbBlockEnd
  0
BLOCK
  5
83D
330
814
100
AcDbEntity
  8
0
100
AcDbBlockBegin
  2
B180108
 70
     0
 10
0.0
 20
0.0
 30
0.0
  3
B180108
  1

  0
TEXT
  5
83C
330
814
100
AcDbEntity
  8
CSLAYER10
 62
     7
100
AcDbText
 10
-0.6
 20
0.0
 30
0.0
 40
4.0
  1
H
 41
0.9
  7
FX_FONT
 72
     5
 11
2.4
 21
0.0
 31
0.0
100
AcDbText
  0
ENDBLK
  5
83E
330
814
100
AcDbEntity
  8
0
100
AcDbBlockEnd
  0
BLOCK
  5
86A
330
841
100
AcDbEntity
  8
0
100
AcDbBlockBegin
  2
B180128
 70
     0
 10
0.0
 20
0.0
 30
0.0
  3
B180128
  1

  0
TEXT
  5
869
330
841
100
AcDbEntity
  8
CSLAYER10
 62
     7
100
AcDbText
 10
4.0
 20
-0.6
 30
0.0
 40
4.0
  1
D
 50
90.0
 41
0.9
  7
FX_FONT
 72
     5
 11
4.0
 21
2.4
 31
0.0
100
AcDbText
  0
ENDBLK
  5
86B
330
841
100
AcDbEntity
  8
0
100
AcDbBlockEnd
  0
ENDSEC
  0
SECTION
  2
ENTITIES
  0
LINE
  5
286
330
1D
100
AcDbEntity
  8
CSLAYER10
  6
Continuous
 62
     3
100
AcDbLine
 10
345.970262974651
 20
58.068408961789
 30
0.0
 11
401.017691126129
 21
58.068408961789
 31
0.0
  0
LINE
  5
288
330
1D
100
AcDbEntity
  8
CSLAYER10
  6
Continuous
 62
     3
100
AcDbLine
 10
401.017691126129
 20
26.068408961789
 30
0.0
 11
345.970262974651
 21
26.068408961789
 31
0.0
  0
LINE
  5
289
330
1D
100
AcDbEntity
  8
CSLAYER10
  6
Continuous
 62
     3
100
AcDbLine
 10
373.49397705039
 20
26.068408961789
 30
0.0
 11
373.49397705039
 21
58.068408961789
 31
0.0
  0
LINE
  5
28A
330
1D
100
AcDbEntity
  8
CSLAYER10
  6
Continuous
 62
     3
100
AcDbLine
 10
345.970262974651
 20
50.068408961789
 30
0.0
 11
401.017691126129
 21
50.068408961789
 31
0.0
  0
LINE
  5
28E
330
1D
100
AcDbEntity
  8
CSLAYER1
  6
Continuous
100
AcDbLine
 10
426.0
 20
88.461202
 30
0.0
 11
426.0
 21
114.461202
 31
0.0
  0
LINE
  5
28F
330
1D
100
AcDbEntity
  8
CSLAYER1
  6
Continuous
100
AcDbLine
 10
426.0
 20
114.461202
 30
0.0
 11
424.0
 21
114.461202
 31
0.0
  0
ARC
  5
290
330
1D
100
AcDbEntity
  8
CSLAYER1
  6
Continuous
100
AcDbCircle
 10
424.0
 20
112.461202
 30
0.0
 40
2.0
100
AcDbArc
 50
90.0
 51
180.0
  0
LINE
  5
291
330
1D
100
AcDbEntity
  8
CSLAYER1
  6
Continuous
100
AcDbLine
 10
422.0
 20
114.461202
 30
0.0
 11
420.0
 21
114.461202
 31
0.0
  0
LINE
  5
292
330
1D
100
AcDbEntity
  8
CSLAYER1
  6
Continuous
100
AcDbLine
 10
420.0
 20
114.461202
 30
0.0
 11
420.0
 21
88.461202
 31
0.0
  0
LINE
  5
293
330
1D
100
AcDbEntity
  8
CSLAYER1
  6
Continuous
100
AcDbLine
 10
420.0
 20
88.461202
 30
0.0
 11
422.0
 21
88.461202
 31
0.0
  0
LINE
  5
294
330
1D
100
AcDbEntity
  8
CSLAYER1
  6
Continuous
100
AcDbLine
 10
422.0
 20
88.461202
 30
0.0
 11
422.0
 21
114.461202
 31
0.0
  0
LINE
  5
295
330
1D
100
AcDbEntity
  8
CSLAYER1
  6
Continuous
100
AcDbLine
 10
424.0
 20
111.961202
 30
0.0
 11
424.0
 21
90.961202
 31
0.0
  0
LINE
  5
296
330
1D
100
AcDbEntity
  8
CSLAYER1
  6
Continuous
100
AcDbLine
 10
424.0
 20
90.961202
 30
0.0
 11
512.0
 21
90.961202
 31
0.0
  0
ARC
  5
297
330
1D
100
AcDbEntity
  8
CSLAYER1
  6
Continuous
100
AcDbCircle
 10
512.0
 20
92.961202
 30
0.0
 40
2.0
100
AcDbArc
 50
270.0
 51
0.0
  0
LINE
  5
298
330
1D
100
AcDbEntity
  8
CSLAYER1
  6
Continuous
100
AcDbLine
 10
514.0
 20
92.961202
 30
0.0
 11
514.0
 21
111.961202
 31
0.0
  0
LINE
  5
299
330
1D
100
AcDbEntity
  8
CSLAYER1
  6
Continuous
100
AcDbLine
 10
514.0
 20
111.961202
 30
0.0
 11
424.0
 21
111.961202
 31
0.0
  0
ARC
  5
29A
330
1D
100
AcDbEntity
  8
CSLAYER1
  6
Continuous
100
AcDbCircle
 10
424.0
 20
90.461202
 30
0.0
 40
2.0
100
AcDbArc
 50
180.0
 51
270.0
  0
LINE
  5
29B
330
1D
100
AcDbEntity
  8
CSLAYER1
  6
Continuous
100
AcDbLine
 10
424.0
 20
88.461202
 30
0.0
 11
426.0
 21
88.461202
 31
0.0
  0
LINE
  5
29C
330
1D
100
AcDbEntity
  8
CSLAYER1
  6
Continuous
100
AcDbLine
 10
446.0
 20
110.461202
 30
0.0
 11
514.0
 21
110.461202
 31
0.0
  0
LINE
  5
29D
330
1D
100
AcDbEntity
  8
CSLAYER1
  6
Continuous
100
AcDbLine
 10
446.0
 20
110.461202
 30
0.0
 11
446.0
 21
111.961202
 31
0.0
  0
LINE
  5
29E
330
1D
100
AcDbEntity
  8
CSLAYER1
  6
Continuous
100
AcDbLine
 10
426.0
 20
163.0
 30
0.0
 11
420.0
 21
163.0
 31
0.0
  0
LINE
  5
29F
330
1D
100
AcDbEntity
  8
CSLAYER1
  6
Continuous
100
AcDbLine
 10
420.0
 20
163.0
 30
0.0
 11
420.0
 21
360.0
 31
0.0
  0
LINE
  5
2A0
102
{ACAD_REACTORS
330
873
102
}
330
1D
100
AcDbEntity
  8
CSLAYER1
  6
Continuous
100
AcDbLine
 10
420.0
 20
360.0
 30
0.0
 11
426.0
 21
360.0
 31
0.0
  0
LINE
  5
2A1
330
1D
100
AcDbEntity
  8
CSLAYER1
  6
Continuous
100
AcDbLine
 10
426.0
 20
360.0
 30
0.0
 11
426.0
 21
163.0
 31
0.0
  0
LINE
  5
2A2
102
{ACAD_REACTORS
330
873
102
}
330
1D
100
AcDbEntity
  8
CSLAYER1
  6
Continuous
100
AcDbLine
 10
422.0
 20
163.0
 30
0.0
 11
422.0
 21
360.0
 31
0.0
  0
LINE
  5
2A3
102
{ACAD_REACTORS
330
873
102
}
330
1D
100
AcDbEntity
  8
CSLAYER1
  6
Continuous
100
AcDbLine
 10
424.0
 20
360.0
 30
0.0
 11
424.0
 21
352.828427
 31
0.0
  0
LINE
  5
2A4
102
{ACAD_REACTORS
330
873
102
}
330
1D
100
AcDbEntity
  8
CSLAYER1
  6
Continuous
100
AcDbLine
 10
424.0
 20
352.828427
 30
0.0
 11
425.414214
 21
351.414214
 31
0.0
  0
LINE
  5
2A5
330
1D
100
AcDbEntity
  8
CSLAYER1
  6
Continuous
100
AcDbLine
 10
425.414214
 20
351.414214
 30
0.0
 11
425.414214
 21
343.585786
 31
0.0
  0
LINE
  5
2A6
102
{ACAD_REACTORS
330
873
102
}
330
1D
100
AcDbEntity
  8
CSLAYER1
  6
Continuous
100
AcDbLine
 10
425.414214
 20
343.585786
 30
0.0
 11
424.0
 21
345.0
 31
0.0
  0
LINE
  5
2A7
330
1D
100
AcDbEntity
  8
CSLAYER1
  6
Continuous
100
AcDbLine
 10
424.0
 20
345.0
 30
0.0
 11
424.0
 21
350.0
 31
0.0
  0
LINE
  5
2A8
102
{ACAD_REACTORS
330
873
102
}
330
1D
100
AcDbEntity
  8
CSLAYER1
  6
Continuous
100
AcDbLine
 10
424.0
 20
350.0
 30
0.0
 11
425.414214
 21
351.414214
 31
0.0
  0
LINE
  5
2A9
102
{ACAD_REACTORS
330
873
102
}
330
1D
100
AcDbEntity
  8
CSLAYER1
  6
Continuous
100
AcDbLine
 10
424.0
 20
350.0
 30
0.0
 11
422.548546
 21
351.451454
 31
0.0
  0
ARC
  5
2AA
102
{ACAD_REACTORS
330
873
102
}
330
1D
100
AcDbEntity
  8
CSLAYER1
  6
Continuous
100
AcDbCircle
 10
424.0
 20
352.828427
 30
0.0
 40
2.0
100
AcDbArc
 50
180.0
 51
225.0
  0
LINE
  5
2AB
102
{ACAD_REACTORS
330
873
102
}
330
1D
100
AcDbEntity
  8
CSLAYER1
  6
Continuous
100
AcDbLine
 10
424.0
 20
345.0
 30
0.0
 11
422.585786
 21
343.585786
 31
0.0
  0
ARC
  5
2AC
102
{ACAD_REACTORS
330
873
102
}
330
1D
100
AcDbEntity
  8
CSLAYER1
  6
Continuous
100
AcDbCircle
 10
424.0
 20
342.171573
 30
0.0
 40
2.0
100
AcDbArc
 50
135.0
 51
180.0
  0
LINE
  5
2AD
102
{ACAD_REACTORS
330
873
102
}
330
1D
100
AcDbEntity
  8
CSLAYER1
  6
Continuous
100
AcDbLine
 10
424.0
 20
342.171573
 30
0.0
 11
425.414214
 21
343.585786
 31
0.0
  0
LINE
  5
2AE
102
{ACAD_REACTORS
330
873
102
}
330
1D
100
AcDbEntity
  8
CSLAYER1
  6
Continuous
100
AcDbLine
 10
424.0
 20
342.171573
 30
0.0
 11
424.0
 21
340.557182
 31
0.0
  0
LINE
  5
2AF
330
1D
100
AcDbEntity
  8
CSLAYER1
  6
Continuous
100
AcDbLine
 10
426.0
 20
329.5
 30
0.0
 11
503.0
 21
329.5
 31
0.0
  0
LINE
  5
2B0
330
1D
100
AcDbEntity
  8
CSLAYER1
  6
Continuous
100
AcDbLine
 10
502.0
 20
329.5
 30
0.0
 11
502.0
 21
318.9
 31
0.0
  0
LINE
  5
2B1
330
1D
100
AcDbEntity
  8
CSLAYER1
  6
Continuous
100
AcDbLine
 10
502.0
 20
320.106034
 30
0.0
 11
504.0
 21
320.106034
 31
0.0
  0
LINE
  5
2B2
330
1D
100
AcDbEntity
  8
CSLAYER1
  6
Continuous
100
AcDbLine
 10
504.0
 20
320.106034
 30
0.0
 11
504.0
 21
328.5
 31
0.0
  0
ARC
  5
2B3
330
1D
100
AcDbEntity
  8
CSLAYER1
  6
Continuous
100
AcDbCircle
 10
503.0
 20
328.5
 30
0.0
 40
1.0
100
AcDbArc
 50
0.0
 51
90.0
  0
LINE
  5
2B4
330
1D
100
AcDbEntity
  8
CSLAYER1
  6
Continuous
100
AcDbLine
 10
495.0
 20
323.9
 30
0.0
 11
495.0
 21
321.4
 31
0.0
  0
LINE
  5
2B5
330
1D
100
AcDbEntity
  8
CSLAYER1
  6
Continuous
100
AcDbLine
 10
495.0
 20
321.4
 30
0.0
 11
470.0
 21
321.4
 31
0.0
  0
LINE
  5
2B6
330
1D
100
AcDbEntity
  8
CSLAYER1
  6
Continuous
100
AcDbLine
 10
470.0
 20
321.4
 30
0.0
 11
470.0
 21
323.9
 31
0.0
  0
LINE
  5
2B7
330
1D
100
AcDbEntity
  8
CSLAYER1
  6
Continuous
100
AcDbLine
 10
470.0
 20
323.9
 30
0.0
 11
495.0
 21
323.9
 31
0.0
  0
LINE
  5
2B8
330
1D
100
AcDbEntity
  8
CSLAYER1
  6
Continuous
100
AcDbLine
 10
491.0
 20
323.9
 30
0.0
 11
491.0
 21
321.4
 31
0.0
  0
LINE
  5
2B9
330
1D
100
AcDbEntity
  8
CSLAYER1
  6
Continuous
100
AcDbLine
 10
514.0
 20
318.9
 30
0.0
 11
514.0
 21
193.5
 31
0.0
  0
LINE
  5
2BA
330
1D
100
AcDbEntity
  8
CSLAYER1
  6
Continuous
100
AcDbLine
 10
514.0
 20
193.5
 30
0.0
 11
426.0
 21
193.5
 31
0.0
  0
LINE
  5
2BB
330
1D
100
AcDbEntity
  8
CSLAYER1
  6
Continuous
100
AcDbLine
 10
426.0
 20
318.9
 30
0.0
 11
514.0
 21
318.9
 31
0.0
  0
CIRCLE
  5
2BC
102
{ACAD_REACTORS
330
86E
102
}
330
1D
100
AcDbEntity
  8
CSLAYER10
  6
PHANTOM
 62
     3
 48
0.5
100
AcDbCircle
 10
490.0
 20
301.5
 30
0.0
 40
17.0
  0
LINE
  5
2BD
330
1D
100
AcDbEntity
  8
CSLAYER1
  6
Continuous
100
AcDbLine
 10
314.0
 20
309.723413
 30
0.0
 11
314.0
 21
285.82127
 31
0.0
  0
LINE
  5
2BE
330
1D
100
AcDbEntity
  8
CSLAYER1
  6
Continuous
100
AcDbLine
 10
312.186681
 20
283.830001
 30
0.0
 11
298.0
 21
282.5
 31
0.0
  0
LINE
  5
2BF
330
1D
100
AcDbEntity
  8
CSLAYER1
  6
Continuous
100
AcDbLine
 10
298.0
 20
282.5
 30
0.0
 11
298.0
 21
285.5
 31
0.0
  0
ARC
  5
2C0
330
1D
100
AcDbEntity
  8
CSLAYER1
  6
Continuous
100
AcDbCircle
 10
296.0
 20
285.5
 30
0.0
 40
2.0
100
AcDbArc
 50
0.0
 51
90.0
  0
LINE
  5
2C1
330
1D
100
AcDbEntity
  8
CSLAYER1
  6
Continuous
100
AcDbLine
 10
296.0
 20
287.5
 30
0.0
 11
296.0
 21
303.5
 31
0.0
  0
LINE
  5
2C2
330
1D
100
AcDbEntity
  8
CSLAYER1
  6
Continuous
100
AcDbLine
 10
296.0
 20
303.5
 30
0.0
 11
294.0
 21
303.5
 31
0.0
  0
ARC
  5
2C3
330
1D
100
AcDbEntity
  8
CSLAYER1
  6
Continuous
100
AcDbCircle
 10
296.0
 20
305.5
 30
0.0
 40
2.0
100
AcDbArc
 50
270.0
 51
0.0
  0
LINE
  5
2C4
330
1D
100
AcDbEntity
  8
CSLAYER1
  6
Continuous
100
AcDbLine
 10
298.0
 20
305.5
 30
0.0
 11
298.0
 21
313.5
 31
0.0
  0
LINE
  5
2C5
330
1D
100
AcDbEntity
  8
CSLAYER1
  6
Continuous
100
AcDbLine
 10
298.0
 20
313.5
 30
0.0
 11
311.733352
 21
312.212498
 31
0.0
  0
ARC
  5
2C6
330
1D
100
AcDbEntity
  8
CSLAYER1
  6
Continuous
100
AcDbCircle
 10
311.5
 20
309.723413
 30
0.0
 40
2.5
100
AcDbArc
 50
0.0
 51
84.644175
  0
ARC
  5
2C7
330
1D
100
AcDbEntity
  8
CSLAYER1
  6
Continuous
100
AcDbCircle
 10
293.0
 20
321.184909
 30
0.0
 40
1.0
100
AcDbArc
 50
0.0
 51
78.366366
  0
LINE
  5
2C8
330
1D
100
AcDbEntity
  8
CSLAYER1
  6
Continuous
100
AcDbLine
 10
293.201653
 20
322.164366
 30
0.0
 11
276.0
 21
325.5
 31
0.0
  0
LINE
  5
2C9
330
1D
100
AcDbEntity
  8
CSLAYER1
  6
Continuous
100
AcDbLine
 10
276.0
 20
325.5
 30
0.0
 11
276.0
 21
277.5
 31
0.0
  0
LINE
  5
2CA
330
1D
100
AcDbEntity
  8
CSLAYER1
  6
Continuous
100
AcDbLine
 10
276.0
 20
277.5
 30
0.0
 11
293.201653
 21
280.835634
 31
0.0
  0
ARC
  5
2CB
330
1D
100
AcDbEntity
  8
CSLAYER1
  6
Continuous
100
AcDbCircle
 10
293.0
 20
281.815091
 30
0.0
 40
1.0
100
AcDbArc
 50
281.633634
 51
0.0
  0
LINE
  5
2CC
330
1D
100
AcDbEntity
  8
CSLAYER1
  6
Continuous
100
AcDbLine
 10
294.0
 20
281.815091
 30
0.0
 11
294.0
 21
321.184909
 31
0.0
  0
LINE
  5
2CD
330
1D
100
AcDbEntity
  8
CSLAYER1
  6
Continuous
100
AcDbLine
 10
294.0
 20
287.5
 30
0.0
 11
296.0
 21
287.5
 31
0.0
  0
ARC
  5
2CE
330
1D
100
AcDbEntity
  8
CSLAYER1
  6
Continuous
100
AcDbCircle
 10
312.0
 20
285.82127
 30
0.0
 40
2.0
100
AcDbArc
 50
275.355825
 51
0.0
  0
LINE
  5
2CF
330
1D
100
AcDbEntity
  8
CSLAYER1
  6
Continuous
100
AcDbLine
 10
262.0
 20
295.5
 30
0.0
 11
250.0
 21
295.5
 31
0.0
  0
LINE
  5
2D0
330
1D
100
AcDbEntity
  8
CSLAYER1
  6
Continuous
100
AcDbLine
 10
250.0
 20
295.5
 30
0.0
 11
250.0
 21
265.5
 31
0.0
  0
LINE
  5
2D1
330
1D
100
AcDbEntity
  8
CSLAYER1
  6
Continuous
100
AcDbLine
 10
250.0
 20
265.5
 30
0.0
 11
262.0
 21
265.5
 31
0.0
  0
LINE
  5
2D2
330
1D
100
AcDbEntity
  8
CSLAYER1
  6
Continuous
100
AcDbLine
 10
262.0
 20
265.5
 30
0.0
 11
262.0
 21
295.5
 31
0.0
  0
LINE
  5
2D3
330
1D
100
AcDbEntity
  8
CSLAYER1
  6
Continuous
100
AcDbLine
 10
236.0
 20
277.5
 30
0.0
 11
218.798347
 21
280.835634
 31
0.0
  0
ARC
  5
2D4
330
1D
100
AcDbEntity
  8
CSLAYER1
  6
Continuous
100
AcDbCircle
 10
219.0
 20
281.815091
 30
0.0
 40
1.0
100
AcDbArc
 50
180.0
 51
258.366366
  0
LINE
  5
2D5
330
1D
100
AcDbEntity
  8
CSLAYER1
  6
Continuous
100
AcDbLine
 10
218.0
 20
281.815091
 30
0.0
 11
218.0
 21
321.184909
 31
0.0
  0
ARC
  5
2D6
330
1D
100
AcDbEntity
  8
CSLAYER1
  6
Continuous
100
AcDbCircle
 10
219.0
 20
321.184909
 30
0.0
 40
1.0
100
AcDbArc
 50
101.633634
 51
180.0
  0
LINE
  5
2D7
330
1D
100
AcDbEntity
  8
CSLAYER1
  6
Continuous
100
AcDbLine
 10
218.798347
 20
322.164366
 30
0.0
 11
236.0
 21
325.5
 31
0.0
  0
LINE
  5
2D8
330
1D
100
AcDbEntity
  8
CSLAYER1
  6
Continuous
100
AcDbLine
 10
236.0
 20
325.5
 30
0.0
 11
236.0
 21
277.5
 31
0.0
  0
LINE
  5
2D9
330
1D
100
AcDbEntity
  8
CSLAYER1
  6
Continuous
100
AcDbLine
 10
254.797918
 20
332.090812
 30
0.0
 11
255.505025
 21
332.797918
 31
0.0
  0
ARC
  5
2DA
330
1D
100
AcDbEntity
  8
CSLAYER1
  6
Continuous
100
AcDbCircle
 10
256.0
 20
332.302944
 30
0.0
 40
0.7
100
AcDbArc
 50
45.0
 51
135.0
  0
LINE
  5
2DB
330
1D
100
AcDbEntity
  8
CSLAYER1
  6
Continuous
100
AcDbLine
 10
256.494975
 20
332.797918
 30
0.0
 11
257.202082
 21
332.090812
 31
0.0
  0
LINE
  5
2DC
330
1D
100
AcDbEntity
  8
CSLAYER1
  6
Continuous
100
AcDbLine
 10
257.202082
 20
332.090812
 30
0.0
 11
257.909188
 21
332.797918
 31
0.0
  0
LINE
  5
2DD
330
1D
100
AcDbEntity
  8
CSLAYER1
  6
Continuous
100
AcDbLine
 10
257.909188
 20
332.797918
 30
0.0
 11
257.202082
 21
333.505025
 31
0.0
  0
LINE
  5
2DE
330
1D
100
AcDbEntity
  8
CSLAYER1
  6
Continuous
100
AcDbLine
 10
257.202082
 20
334.494975
 30
0.0
 11
257.909188
 21
335.202082
 31
0.0
  0
LINE
  5
2DF
330
1D
100
AcDbEntity
  8
CSLAYER1
  6
Continuous
100
AcDbLine
 10
257.909188
 20
335.202082
 30
0.0
 11
257.202082
 21
335.909188
 31
0.0
  0
LINE
  5
2E0
330
1D
100
AcDbEntity
  8
CSLAYER1
  6
Continuous
100
AcDbLine
 10
257.202082
 20
335.909188
 30
0.0
 11
256.494975
 21
335.202082
 31
0.0
  0
ARC
  5
2E1
330
1D
100
AcDbEntity
  8
CSLAYER1
  6
Continuous
100
AcDbCircle
 10
256.0
 20
335.697056
 30
0.0
 40
0.7
100
AcDbArc
 50
225.0
 51
315.0
  0
LINE
  5
2E2
330
1D
100
AcDbEntity
  8
CSLAYER1
  6
Continuous
100
AcDbLine
 10
255.505025
 20
335.202082
 30
0.0
 11
254.797918
 21
335.909188
 31
0.0
  0
LINE
  5
2E3
330
1D
100
AcDbEntity
  8
CSLAYER1
  6
Continuous
100
AcDbLine
 10
254.797918
 20
335.909188
 30
0.0
 11
254.090812
 21
335.202082
 31
0.0
  0
LINE
  5
2E4
330
1D
100
AcDbEntity
  8
CSLAYER1
  6
Continuous
100
AcDbLine
 10
254.090812
 20
335.202082
 30
0.0
 11
254.797918
 21
334.494975
 31
0.0
  0
ARC
  5
2E5
330
1D
100
AcDbEntity
  8
CSLAYER1
  6
Continuous
100
AcDbCircle
 10
254.302944
 20
334.0
 30
0.0
 40
0.7
100
AcDbArc
 50
315.0
 51
45.0
  0
LINE
  5
2E6
330
1D
100
AcDbEntity
  8
CSLAYER1
  6
Continuous
100
AcDbLine
 10
254.797918
 20
333.505025
 30
0.0
 11
254.090812
 21
332.797918
 31
0.0
  0
LINE
  5
2E7
330
1D
100
AcDbEntity
  8
CSLAYER1
  6
Continuous
100
AcDbLine
 10
254.090812
 20
332.797918
 30
0.0
 11
254.797918
 21
332.090812
 31
0.0
  0
ARC
  5
2E8
330
1D
100
AcDbEntity
  8
CSLAYER1
  6
Continuous
100
AcDbCircle
 10
257.697056
 20
334.0
 30
0.0
 40
0.7
100
AcDbArc
 50
135.0
 51
225.0
  0
CIRCLE
  5
2E9
330
1D
100
AcDbEntity
  8
CSLAYER1
  6
Continuous
100
AcDbCircle
 10
256.0
 20
334.0
 30
0.0
 40
4.25
  0
LINE
  5
2EA
330
1D
100
AcDbEntity
  8
CSLAYER1
  6
Continuous
100
AcDbLine
 10
269.0
 20
360.0
 30
0.0
 11
243.0
 21
360.0
 31
0.0
  0
LINE
  5
2EB
330
1D
100
AcDbEntity
  8
CSLAYER1
  6
Continuous
100
AcDbLine
 10
243.0
 20
360.0
 30
0.0
 11
243.0
 21
163.0
 31
0.0
  0
LINE
  5
2EC
330
1D
100
AcDbEntity
  8
CSLAYER1
  6
Continuous
100
AcDbLine
 10
243.0
 20
163.0
 30
0.0
 11
269.0
 21
163.0
 31
0.0
  0
LINE
  5
2ED
330
1D
100
AcDbEntity
  8
CSLAYER1
  6
Continuous
100
AcDbLine
 10
269.0
 20
163.0
 30
0.0
 11
269.0
 21
360.0
 31
0.0
  0
LINE
  5
2EE
330
1D
100
AcDbEntity
  8
CSLAYER1
  6
Continuous
100
AcDbLine
 10
120.0
 20
319.0
 30
0.0
 11
120.0
 21
196.0
 31
0.0
  0
LINE
  5
2EF
330
1D
100
AcDbEntity
  8
CSLAYER1
  6
Continuous
100
AcDbLine
 10
119.0
 20
195.0
 30
0.0
 11
93.0
 21
195.0
 31
0.0
  0
LINE
  5
2F0
330
1D
100
AcDbEntity
  8
CSLAYER1
  6
Continuous
100
AcDbLine
 10
92.0
 20
196.0
 30
0.0
 11
92.0
 21
319.0
 31
0.0
  0
LINE
  5
2F1
330
1D
100
AcDbEntity
  8
CSLAYER1
  6
Continuous
100
AcDbLine
 10
93.0
 20
320.0
 30
0.0
 11
119.0
 21
320.0
 31
0.0
  0
ARC
  5
2F2
330
1D
100
AcDbEntity
  8
CSLAYER1
  6
Continuous
100
AcDbCircle
 10
119.0
 20
319.0
 30
0.0
 40
1.0
100
AcDbArc
 50
0.0
 51
90.0
  0
CIRCLE
  5
2F3
330
1D
100
AcDbEntity
  8
CSLAYER1
  6
Continuous
100
AcDbCircle
 10
106.0
 20
310.0
 30
0.0
 40
4.1
  0
CIRCLE
  5
2F4
330
1D
100
AcDbEntity
  8
CSLAYER1
  6
Continuous
100
AcDbCircle
 10
106.0
 20
310.0
 30
0.0
 40
3.25
  0
LINE
  5
2F5
330
1D
100
AcDbEntity
  8
CSLAYER1
  6
Continuous
100
AcDbLine
 10
114.0
 20
298.5
 30
0.0
 11
98.0
 21
298.5
 31
0.0
  0
ARC
  5
2F6
330
1D
100
AcDbEntity
  8
CSLAYER1
  6
Continuous
100
AcDbCircle
 10
98.0
 20
297.5
 30
0.0
 40
1.0
100
AcDbArc
 50
90.0
 51
180.0
  0
LINE
  5
2F7
330
1D
100
AcDbEntity
  8
CSLAYER1
  6
Continuous
100
AcDbLine
 10
97.0
 20
297.5
 30
0.0
 11
97.0
 21
295.5
 31
0.0
  0
ARC
  5
2F8
330
1D
100
AcDbEntity
  8
CSLAYER1
  6
Continuous
100
AcDbCircle
 10
98.0
 20
295.5
 30
0.0
 40
1.0
100
AcDbArc
 50
180.0
 51
270.0
  0
LINE
  5
2F9
330
1D
100
AcDbEntity
  8
CSLAYER1
  6
Continuous
100
AcDbLine
 10
98.0
 20
294.5
 30
0.0
 11
98.0
 21
264.5
 31
0.0
  0
ARC
  5
2FA
330
1D
100
AcDbEntity
  8
CSLAYER1
  6
Continuous
100
AcDbCircle
 10
98.0
 20
263.5
 30
0.0
 40
1.0
100
AcDbArc
 50
90.0
 51
180.0
  0
LINE
  5
2FB
330
1D
100
AcDbEntity
  8
CSLAYER1
  6
Continuous
100
AcDbLine
 10
97.0
 20
263.5
 30
0.0
 11
97.0
 21
261.5
 31
0.0
  0
ARC
  5
2FC
330
1D
100
AcDbEntity
  8
CSLAYER1
  6
Continuous
100
AcDbCircle
 10
98.0
 20
261.5
 30
0.0
 40
1.0
100
AcDbArc
 50
180.0
 51
270.0
  0
LINE
  5
2FD
330
1D
100
AcDbEntity
  8
CSLAYER1
  6
Continuous
100
AcDbLine
 10
98.0
 20
260.5
 30
0.0
 11
114.0
 21
260.5
 31
0.0
  0
ARC
  5
2FE
330
1D
100
AcDbEntity
  8
CSLAYER1
  6
Continuous
100
AcDbCircle
 10
114.0
 20
261.5
 30
0.0
 40
1.0
100
AcDbArc
 50
270.0
 51
0.0
  0
LINE
  5
2FF
330
1D
100
AcDbEntity
  8
CSLAYER1
  6
Continuous
100
AcDbLine
 10
115.0
 20
261.5
 30
0.0
 11
115.0
 21
263.5
 31
0.0
  0
ARC
  5
300
330
1D
100
AcDbEntity
  8
CSLAYER1
  6
Continuous
100
AcDbCircle
 10
114.0
 20
263.5
 30
0.0
 40
1.0
100
AcDbArc
 50
0.0
 51
90.0
  0
LINE
  5
301
330
1D
100
AcDbEntity
  8
CSLAYER1
  6
Continuous
100
AcDbLine
 10
114.0
 20
264.5
 30
0.0
 11
114.0
 21
294.5
 31
0.0
  0
ARC
  5
302
330
1D
100
AcDbEntity
  8
CSLAYER1
  6
Continuous
100
AcDbCircle
 10
114.0
 20
295.5
 30
0.0
 40
1.0
100
AcDbArc
 50
270.0
 51
0.0
  0
LINE
  5
303
330
1D
100
AcDbEntity
  8
CSLAYER1
  6
Continuous
100
AcDbLine
 10
115.0
 20
295.5
 30
0.0
 11
115.0
 21
297.5
 31
0.0
  0
ARC
  5
304
330
1D
100
AcDbEntity
  8
CSLAYER1
  6
Continuous
100
AcDbCircle
 10
114.0
 20
297.5
 30
0.0
 40
1.0
100
AcDbArc
 50
0.0
 51
90.0
  0
ARC
  5
305
330
1D
100
AcDbEntity
  8
CSLAYER1
  6
Continuous
100
AcDbCircle
 10
93.0
 20
319.0
 30
0.0
 40
1.0
100
AcDbArc
 50
90.0
 51
180.0
  0
LINE
  5
306
330
1D
100
AcDbEntity
  8
CSLAYER1
  6
Continuous
100
AcDbLine
 10
61.0
 20
320.0
 30
0.0
 11
59.0
 21
320.0
 31
0.0
  0
LINE
  5
307
330
1D
100
AcDbEntity
  8
CSLAYER1
  6
Continuous
100
AcDbLine
 10
59.0
 20
320.0
 30
0.0
 11
59.0
 21
195.0
 31
0.0
  0
LINE
  5
308
330
1D
100
AcDbEntity
  8
CSLAYER1
  6
Continuous
100
AcDbLine
 10
59.0
 20
195.0
 30
0.0
 11
61.0
 21
195.0
 31
0.0
  0
LINE
  5
309
330
1D
100
AcDbEntity
  8
CSLAYER1
  6
Continuous
100
AcDbLine
 10
61.0
 20
195.0
 30
0.0
 11
61.0
 21
320.0
 31
0.0
  0
LINE
  5
30A
330
1D
100
AcDbEntity
  8
CSLAYER1
  6
Continuous
100
AcDbLine
 10
59.0
 20
319.0
 30
0.0
 11
58.5
 21
319.0
 31
0.0
  0
LINE
  5
30B
330
1D
100
AcDbEntity
  8
CSLAYER1
  6
Continuous
100
AcDbLine
 10
58.5
 20
319.0
 30
0.0
 11
58.5
 21
300.0
 31
0.0
  0
LINE
  5
30C
330
1D
100
AcDbEntity
  8
CSLAYER1
  6
Continuous
100
AcDbLine
 10
58.5
 20
300.0
 30
0.0
 11
41.5
 21
300.0
 31
0.0
  0
ARC
  5
30D
330
1D
100
AcDbEntity
  8
CSLAYER1
  6
Continuous
100
AcDbCircle
 10
41.5
 20
299.5
 30
0.0
 40
0.5
100
AcDbArc
 50
90.0
 51
180.0
  0
LINE
  5
30E
330
1D
100
AcDbEntity
  8
CSLAYER1
  6
Continuous
100
AcDbLine
 10
41.0
 20
299.5
 30
0.0
 11
41.0
 21
215.5
 31
0.0
  0
LINE
  5
30F
330
1D
100
AcDbEntity
  8
CSLAYER1
  6
Continuous
100
AcDbLine
 10
41.0
 20
215.5
 30
0.0
 11
59.0
 21
215.5
 31
0.0
  0
LINE
  5
310
330
1D
100
AcDbEntity
  8
CSLAYER1
  6
Continuous
100
AcDbLine
 10
58.5
 20
215.0
 30
0.0
 11
58.5
 21
196.0
 31
0.0
  0
LINE
  5
311
330
1D
100
AcDbEntity
  8
CSLAYER1
  6
Continuous
100
AcDbLine
 10
58.5
 20
196.0
 30
0.0
 11
59.0
 21
196.0
 31
0.0
  0
LINE
  5
312
330
1D
100
AcDbEntity
  8
CSLAYER1
  6
Continuous
100
AcDbLine
 10
58.5
 20
215.0
 30
0.0
 11
41.5
 21
215.0
 31
0.0
  0
ARC
  5
313
330
1D
100
AcDbEntity
  8
CSLAYER1
  6
Continuous
100
AcDbCircle
 10
41.5
 20
215.5
 30
0.0
 40
0.5
100
AcDbArc
 50
180.0
 51
270.0
  0
ARC
  5
314
330
1D
100
AcDbEntity
  8
CSLAYER1
  6
Continuous
100
AcDbCircle
 10
93.0
 20
196.0
 30
0.0
 40
1.0
100
AcDbArc
 50
180.0
 51
270.0
  0
CIRCLE
  5
315
330
1D
100
AcDbEntity
  8
CSLAYER1
  6
Continuous
100
AcDbCircle
 10
106.0
 20
205.0
 30
0.0
 40
3.25
  0
CIRCLE
  5
316
330
1D
100
AcDbEntity
  8
CSLAYER1
  6
Continuous
100
AcDbCircle
 10
106.0
 20
205.0
 30
0.0
 40
4.1
  0
ARC
  5
317
330
1D
100
AcDbEntity
  8
CSLAYER1
  6
Continuous
100
AcDbCircle
 10
119.0
 20
196.0
 30
0.0
 40
1.0
100
AcDbArc
 50
270.0
 51
0.0
  0
LINE
  5
318
330
1D
100
AcDbEntity
  8
CSLAYER1
  6
Continuous
100
AcDbLine
 10
120.0
 20
157.5
 30
0.0
 11
92.0
 21
157.5
 31
0.0
  0
LINE
  5
319
330
1D
100
AcDbEntity
  8
CSLAYER1
  6
Continuous
100
AcDbLine
 10
92.0
 20
157.5
 30
0.0
 11
92.0
 21
155.5
 31
0.0
  0
LINE
  5
31A
330
1D
100
AcDbEntity
  8
CSLAYER1
  6
Continuous
100
AcDbLine
 10
92.0
 20
155.5
 30
0.0
 11
120.046732
 21
155.5
 31
0.0
  0
LINE
  5
31B
330
1D
100
AcDbEntity
  8
CSLAYER1
  6
Continuous
100
AcDbLine
 10
120.0
 20
155.5
 30
0.0
 11
120.0
 21
157.5
 31
0.0
  0
LINE
  5
31C
330
1D
100
AcDbEntity
  8
CSLAYER1
  6
Continuous
100
AcDbLine
 10
118.0
 20
155.5
 30
0.0
 11
117.997866
 21
137.962187
 31
0.0
  0
LINE
  5
31D
330
1D
100
AcDbEntity
  8
CSLAYER1
  6
Continuous
100
AcDbLine
 10
117.497866
 20
137.5
 30
0.0
 11
94.5
 21
137.5
 31
0.0
  0
LINE
  5
31E
330
1D
100
AcDbEntity
  8
CSLAYER1
  6
Continuous
100
AcDbLine
 10
94.0
 20
138.0
 30
0.0
 11
94.0
 21
155.5
 31
0.0
  0
LINE
  5
31F
330
1D
100
AcDbEntity
  8
CSLAYER1
  6
Continuous
100
AcDbLine
 10
94.0
 20
155.0
 30
0.0
 11
118.0
 21
155.0
 31
0.0
  0
LINE
  5
320
330
1D
100
AcDbEntity
  8
CSLAYER1
  6
Continuous
100
AcDbLine
 10
109.5
 20
155.0
 30
0.0
 11
109.5
 21
155.5
 31
0.0
  0
LINE
  5
321
330
1D
100
AcDbEntity
  8
CSLAYER1
  6
Continuous
100
AcDbLine
 10
102.5
 20
155.5
 30
0.0
 11
102.5
 21
155.0
 31
0.0
  0
ARC
  5
322
330
1D
100
AcDbEntity
  8
CSLAYER1
  6
Continuous
100
AcDbCircle
 10
94.5
 20
138.0
 30
0.0
 40
0.5
100
AcDbArc
 50
180.0
 51
270.0
  0
ARC
  5
323
330
1D
100
AcDbEntity
  8
CSLAYER1
  6
Continuous
100
AcDbCircle
 10
117.497866
 20
138.0
 30
0.0
 40
0.5
100
AcDbArc
 50
270.0
 51
0.0
  0
LINE
  5
324
330
1D
100
AcDbEntity
  8
CSLAYER1
  6
Continuous
100
AcDbLine
 10
254.090812
 20
187.797918
 30
0.0
 11
254.797918
 21
187.090812
 31
0.0
  0
LINE
  5
325
330
1D
100
AcDbEntity
  8
CSLAYER1
  6
Continuous
100
AcDbLine
 10
254.797918
 20
187.090812
 30
0.0
 11
255.505025
 21
187.797918
 31
0.0
  0
ARC
  5
326
330
1D
100
AcDbEntity
  8
CSLAYER1
  6
Continuous
100
AcDbCircle
 10
256.0
 20
187.302944
 30
0.0
 40
0.7
100
AcDbArc
 50
45.0
 51
135.0
  0
LINE
  5
327
330
1D
100
AcDbEntity
  8
CSLAYER1
  6
Continuous
100
AcDbLine
 10
256.494975
 20
187.797918
 30
0.0
 11
257.202082
 21
187.090812
 31
0.0
  0
LINE
  5
328
330
1D
100
AcDbEntity
  8
CSLAYER1
  6
Continuous
100
AcDbLine
 10
257.202082
 20
187.090812
 30
0.0
 11
257.909188
 21
187.797918
 31
0.0
  0
LINE
  5
329
330
1D
100
AcDbEntity
  8
CSLAYER1
  6
Continuous
100
AcDbLine
 10
257.909188
 20
187.797918
 30
0.0
 11
257.202082
 21
188.505025
 31
0.0
  0
LINE
  5
32A
330
1D
100
AcDbEntity
  8
CSLAYER1
  6
Continuous
100
AcDbLine
 10
257.202082
 20
189.494975
 30
0.0
 11
257.909188
 21
190.202082
 31
0.0
  0
LINE
  5
32B
330
1D
100
AcDbEntity
  8
CSLAYER1
  6
Continuous
100
AcDbLine
 10
257.909188
 20
190.202082
 30
0.0
 11
257.202082
 21
190.909188
 31
0.0
  0
LINE
  5
32C
330
1D
100
AcDbEntity
  8
CSLAYER1
  6
Continuous
100
AcDbLine
 10
257.202082
 20
190.909188
 30
0.0
 11
256.494975
 21
190.202082
 31
0.0
  0
ARC
  5
32D
330
1D
100
AcDbEntity
  8
CSLAYER1
  6
Continuous
100
AcDbCircle
 10
256.0
 20
190.697056
 30
0.0
 40
0.7
100
AcDbArc
 50
225.0
 51
315.0
  0
LINE
  5
32E
330
1D
100
AcDbEntity
  8
CSLAYER1
  6
Continuous
100
AcDbLine
 10
255.505025
 20
190.202082
 30
0.0
 11
254.797918
 21
190.909188
 31
0.0
  0
LINE
  5
32F
330
1D
100
AcDbEntity
  8
CSLAYER1
  6
Continuous
100
AcDbLine
 10
254.797918
 20
190.909188
 30
0.0
 11
254.090812
 21
190.202082
 31
0.0
  0
LINE
  5
330
330
1D
100
AcDbEntity
  8
CSLAYER1
  6
Continuous
100
AcDbLine
 10
254.090812
 20
190.202082
 30
0.0
 11
254.797918
 21
189.494975
 31
0.0
  0
ARC
  5
331
330
1D
100
AcDbEntity
  8
CSLAYER1
  6
Continuous
100
AcDbCircle
 10
254.302944
 20
189.0
 30
0.0
 40
0.7
100
AcDbArc
 50
315.0
 51
45.0
  0
LINE
  5
332
330
1D
100
AcDbEntity
  8
CSLAYER1
  6
Continuous
100
AcDbLine
 10
254.797918
 20
188.505025
 30
0.0
 11
254.090812
 21
187.797918
 31
0.0
  0
ARC
  5
333
330
1D
100
AcDbEntity
  8
CSLAYER1
  6
Continuous
100
AcDbCircle
 10
257.697056
 20
189.0
 30
0.0
 40
0.7
100
AcDbArc
 50
135.0
 51
225.0
  0
CIRCLE
  5
334
330
1D
100
AcDbEntity
  8
CSLAYER1
  6
Continuous
100
AcDbCircle
 10
256.0
 20
189.0
 30
0.0
 40
4.25
  0
LINE
  5
336
330
1D
100
AcDbEntity
  8
CSLAYER1
  6
Continuous
100
AcDbLine
 10
59.0
 20
299.5
 30
0.0
 11
41.0
 21
299.5
 31
0.0
  0
TEXT
  5
361
330
1D
100
AcDbEntity
  8
CSLAYER10
 62
     3
100
AcDbText
 10
463.961334
 20
345.387604
 30
0.0
 40
4.0
  1
%%C34貫通穴
 41
0.592105263158
  7
FX_FONT
 72
     5
 11
478.961334
 21
345.387604
 31
0.0
100
AcDbText
  0
TEXT
  5
36F
330
1D
100
AcDbEntity
  8
CSLAYER10
 62
     3
100
AcDbText
 10
509.65
 20
14.281871
 30
0.0
 40
2.7
  1
 
 41
1.666666666667
  7
FX_FONT
 72
     5
 11
512.35
 21
14.281871
 31
0.0
100
AcDbText
  0
TEXT
  5
39C
330
1D
100
AcDbEntity
  8
CSLAYER10
  6
Continuous
 62
     3
100
AcDbText
 10
350.266267710722
 20
51.784122497379
 30
0.0
 40
4.429919
  1
バックセット(A)
 41
0.437696898259
  7
FX_FONT
 72
     5
 11
369.316567453078
 21
51.784122497379
 31
0.0
100
AcDbText
  0
TEXT
  5
39D
330
1D
100
AcDbEntity
  8
CSLAYER10
  6
Continuous
 62
     3
100
AcDbText
 10
381.591188126129
 20
52.423074961789
 30
0.0
 40
3.739113
  1
錠奥行(B)
 41
0.59400287058
  7
FX_FONT
 72
     5
 11
395.417186126129
 21
52.423074961789
 31
0.0
100
AcDbText
  0
TEXT
  5
39E
330
1D
100
AcDbEntity
  8
CSLAYER10
  6
Continuous
 62
     3
100
AcDbText
 10
355.414510407338
 20
43.520902497379
 30
0.0
 40
4.0
  1
70
 41
0.846394984326
  7
FX_FONT
 72
     5
 11
361.414510407338
 21
43.520902497379
 31
0.0
100
AcDbText
  0
TEXT
  5
39F
330
1D
100
AcDbEntity
  8
CSLAYER10
  6
Continuous
 62
     3
100
AcDbText
 10
355.414510407338
 20
35.694890497379
 30
0.0
 40
4.0
  1
90
 41
0.846173935753
  7
FX_FONT
 72
     5
 11
361.414510407338
 21
35.694890497379
 31
0.0
100
AcDbText
  0
TEXT
  5
3A0
330
1D
100
AcDbEntity
  8
CSLAYER10
  6
Continuous
 62
     3
100
AcDbText
 10
353.914510407338
 20
27.868878497379
 30
0.0
 40
4.0
  1
100
 41
0.811216825238
  7
FX_FONT
 72
     5
 11
362.914510407338
 21
27.868878497379
 31
0.0
100
AcDbText
  0
TEXT
  5
3A1
330
1D
100
AcDbEntity
  8
CSLAYER10
  6
Continuous
 62
     3
100
AcDbText
 10
384.591193126129
 20
43.727506961789
 30
0.0
 40
4.0
  1
94
 41
0.817975258773
  7
FX_FONT
 72
     5
 11
390.591193126129
 21
43.727506961789
 31
0.0
100
AcDbText
  0
TEXT
  5
3A2
330
1D
100
AcDbEntity
  8
CSLAYER10
  6
Continuous
 62
     3
100
AcDbText
 10
383.091193126129
 20
35.901494961789
 30
0.0
 40
4.0
  1
114
 41
0.794117647059
  7
FX_FONT
 72
     5
 11
392.091193126129
 21
35.901494961789
 31
0.0
100
AcDbText
  0
TEXT
  5
3A3
330
1D
100
AcDbEntity
  8
CSLAYER10
  6
Continuous
 62
     3
100
AcDbText
 10
383.091193126129
 20
28.075482961789
 30
0.0
 40
4.0
  1
124
 41
0.794117647059
  7
FX_FONT
 72
     5
 11
392.091193126129
 21
28.075482961789
 31
0.0
100
AcDbText
  0
TEXT
  5
3A9
330
1D
100
AcDbEntity
  8
CSLAYER10
 62
     3
100
AcDbText
 10
251.025757
 20
135.978134
 30
0.0
 40
4.0
  1
扉厚
 41
1.40625
  7
FX_FONT
 72
     5
 11
263.025757
 21
135.978134
 31
0.0
100
AcDbText
  0
TEXT
  5
3AA
330
1D
100
AcDbEntity
  8
CSLAYER10
 62
     3
100
AcDbText
 10
254.018494
 20
141.021881
 30
0.0
 40
6.0
  1
~
 41
0.8
  7
FX_FONT
 72
     5
 11
258.018494
 21
141.021881
 31
0.0
100
AcDbText
  0
TEXT
  5
3AB
330
1D
100
AcDbEntity
  8
CSLAYER10
 62
     3
100
AcDbText
 10
245.499985
 20
142.000015
 30
0.0
 40
4.0
  1
35   57
 41
0.929660600098
  7
FX_FONT
 72
     5
 11
266.499985
 21
142.000015
 31
0.0
100
AcDbText
  0
LINE
  5
3B4
330
1D
100
AcDbEntity
  8
CSLAYER10
  6
Continuous
 62
     3
100
AcDbLine
 10
236.0
 20
138.705441
 30
0.0
 11
236.0
 21
276.777476
 31
0.0
  0
LINE
  5
3B5
330
1D
100
AcDbEntity
  8
CSLAYER10
  6
Continuous
 62
     3
100
AcDbLine
 10
246.930124
 20
280.5
 30
0.0
 11
265.135325
 21
280.5
 31
0.0
  0
LINE
  5
3B6
330
1D
100
AcDbEntity
  8
CSLAYER10
  6
Continuous
 62
     3
100
AcDbLine
 10
276.0
 20
276.777476
 30
0.0
 11
276.0
 21
138.705441
 31
0.0
  0
LINE
  5
3B7
330
1D
100
AcDbEntity
  8
CSLAYER10
  6
Continuous
 62
     3
100
AcDbLine
 10
276.0
 20
141.0
 30
0.0
 11
236.0
 21
141.0
 31
0.0
  0
LINE
  5
3B8
330
1D
100
AcDbEntity
  8
CSLAYER10
  6
Continuous
 62
     3
100
AcDbLine
 10
276.0
 20
141.0
 30
0.0
 11
274.068148
 21
141.517638
 31
0.0
  0
LINE
  5
3BA
330
1D
100
AcDbEntity
  8
CSLAYER10
  6
Continuous
 62
     3
100
AcDbLine
 10
236.0
 20
141.0
 30
0.0
 11
237.931852
 21
141.517638
 31
0.0
  0
LINE
  5
3BB
330
1D
100
AcDbEntity
  8
CSLAYER10
  6
Continuous
 62
     3
100
AcDbLine
 10
236.0
 20
141.0
 30
0.0
 11
237.931852
 21
140.482362
 31
0.0
  0
LINE
  5
3C0
330
1D
100
AcDbEntity
  8
CSLAYER10
  6
Continuous
 62
     3
100
AcDbLine
 10
276.0
 20
141.0
 30
0.0
 11
274.068148
 21
140.482362
 31
0.0
  0
LINE
  5
3C1
330
1D
100
AcDbEntity
  8
CSLAYER10
  6
Continuous
 62
     3
100
AcDbLine
 10
256.0
 20
158.0
 30
0.0
 11
256.0
 21
303.5
 31
0.0
  0
LINE
  5
3C2
330
1D
100
AcDbEntity
  8
CSLAYER10
  6
Continuous
 62
     3
100
AcDbLine
 10
256.0
 20
313.0
 30
0.0
 11
256.0
 21
371.0
 31
0.0
  0
LINE
  5
3C3
330
1D
100
AcDbEntity
  8
CSLAYER10
  6
Continuous
 62
     3
100
AcDbLine
 10
247.75
 20
334.0
 30
0.0
 11
264.25
 21
334.0
 31
0.0
  0
LINE
  5
3C4
330
1D
100
AcDbEntity
  8
CSLAYER10
  6
Continuous
 62
     3
100
AcDbLine
 10
278.481624
 20
325.5
 30
0.0
 11
327.0
 21
325.5
 31
0.0
  0
LINE
  5
3C5
330
1D
100
AcDbEntity
  8
CSLAYER10
  6
Continuous
 62
     3
100
AcDbLine
 10
326.0
 20
325.5
 30
0.0
 11
326.0
 21
277.5
 31
0.0
  0
LINE
  5
3C6
330
1D
100
AcDbEntity
  8
CSLAYER10
  6
Continuous
 62
     3
100
AcDbLine
 10
326.0
 20
325.5
 30
0.0
 11
325.482362
 21
323.568148
 31
0.0
  0
LINE
  5
3C7
330
1D
100
AcDbEntity
  8
CSLAYER10
  6
Continuous
 62
     3
100
AcDbLine
 10
326.0
 20
325.5
 30
0.0
 11
326.517638
 21
323.568148
 31
0.0
  0
LINE
  5
3C8
330
1D
100
AcDbEntity
  8
CSLAYER10
  6
Continuous
 62
     3
100
AcDbLine
 10
326.0
 20
277.5
 30
0.0
 11
325.482362
 21
279.431852
 31
0.0
  0
LINE
  5
3C9
330
1D
100
AcDbEntity
  8
CSLAYER10
  6
Continuous
 62
     3
100
AcDbLine
 10
326.0
 20
277.5
 30
0.0
 11
326.517638
 21
279.431852
 31
0.0
  0
LINE
  5
3CA
330
1D
100
AcDbEntity
  8
CSLAYER10
  6
Continuous
 62
     3
100
AcDbLine
 10
327.0
 20
277.5
 30
0.0
 11
278.481624
 21
277.5
 31
0.0
  0
LINE
  5
3CB
330
1D
100
AcDbEntity
  8
CSLAYER10
  6
Continuous
 62
     3
100
AcDbLine
 10
286.955801
 20
295.5
 30
0.0
 11
317.597063
 21
295.5
 31
0.0
  0
LINE
  5
3CC
330
1D
100
AcDbEntity
  8
CSLAYER10
  6
Continuous
 62
     3
100
AcDbLine
 10
316.701835
 20
301.5
 30
0.0
 11
272.304968
 21
301.5
 31
0.0
  0
LINE
  5
3CD
330
1D
100
AcDbEntity
  8
CSLAYER10
  6
Continuous
 62
     3
100
AcDbLine
 10
239.695032
 20
301.5
 30
0.0
 11
210.583744
 21
301.5
 31
0.0
  0
LINE
  5
3CE
330
1D
100
AcDbEntity
  8
CSLAYER10
  6
Continuous
 62
     3
100
AcDbLine
 10
144.5
 20
310.0
 30
0.0
 11
99.325802
 21
310.0
 31
0.0
  0
LINE
  5
3CF
330
1D
100
AcDbEntity
  8
CSLAYER10
  6
Continuous
 62
     3
100
AcDbLine
 10
106.0
 20
323.26705
 30
0.0
 11
106.0
 21
250.806458
 31
0.0
  0
LINE
  5
3D0
330
1D
100
AcDbEntity
  8
CSLAYER10
  6
Continuous
 62
     3
100
AcDbLine
 10
106.0
 20
244.411447
 30
0.0
 11
106.0
 21
191.599651
 31
0.0
  0
LINE
  5
3D1
330
1D
100
AcDbEntity
  8
CSLAYER10
  6
Continuous
 62
     3
100
AcDbLine
 10
99.325802
 20
205.0
 30
0.0
 11
144.5
 21
205.0
 31
0.0
  0
LINE
  5
3D2
330
1D
100
AcDbEntity
  8
CSLAYER10
  6
Continuous
 62
     3
100
AcDbLine
 10
106.0
 20
158.933009
 30
0.0
 11
106.0
 21
128.18392
 31
0.0
  0
LINE
  5
3D3
330
1D
100
AcDbEntity
  8
CSLAYER10
  6
Continuous
 62
     3
100
AcDbLine
 10
117.997866
 20
121.596352
 30
0.0
 11
117.997866
 21
136.779946
 31
0.0
  0
LINE
  5
3D4
330
1D
100
AcDbEntity
  8
CSLAYER10
  6
Continuous
 62
     3
100
AcDbLine
 10
63.729587
 20
257.5
 30
0.0
 11
39.146053
 21
257.5
 31
0.0
  0
LINE
  5
3D5
330
1D
100
AcDbEntity
  8
CSLAYER10
  6
Continuous
 62
     3
100
AcDbLine
 10
90.319939
 20
279.5
 30
0.0
 11
122.071649
 21
279.5
 31
0.0
  0
LINE
  5
3D6
330
1D
100
AcDbEntity
  8
CSLAYER10
  6
Continuous
 62
     3
100
AcDbLine
 10
247.75
 20
189.0
 30
0.0
 11
264.25
 21
189.0
 31
0.0
  0
LINE
  5
3D7
330
1D
100
AcDbEntity
  8
CSLAYER10
  6
Continuous
 62
     3
100
AcDbLine
 10
368.5
 20
175.5
 30
0.0
 11
428.015306
 21
175.5
 31
0.0
  0
LINE
  5
3D8
330
1D
100
AcDbEntity
  8
CSLAYER10
  6
PHANTOM
 62
     3
 48
0.5
100
AcDbLine
 10
420.0
 20
107.461202
 30
0.0
 11
399.8
 21
107.461202
 31
0.0
  0
ARC
  5
3D9
330
1D
100
AcDbEntity
  8
CSLAYER10
  6
PHANTOM
 62
     3
 48
0.5
100
AcDbCircle
 10
459.65
 20
101.461202
 30
0.0
 40
60.15
100
AcDbArc
 50
174.27519
 51
185.72481
  0
LINE
  5
3DA
330
1D
100
AcDbEntity
  8
CSLAYER10
  6
PHANTOM
 62
     3
 48
0.5
100
AcDbLine
 10
399.8
 20
95.461202
 30
0.0
 11
420.0
 21
95.461202
 31
0.0
  0
LINE
  5
3DB
330
1D
100
AcDbEntity
  8
CSLAYER10
  6
Continuous
 62
     3
100
AcDbLine
 10
394.973552
 20
101.461202
 30
0.0
 11
516.434419
 21
101.461202
 31
0.0
  0
ARC
  5
3DC
330
1D
100
AcDbEntity
  8
CSLAYER10
  6
PHANTOM
 62
     3
 48
0.3
100
AcDbCircle
 10
466.85958
 20
125.24391
 30
0.0
 40
30.0
100
AcDbArc
 50
333.745573
 51
356.171622
  0
ARC
  5
3DD
330
1D
100
AcDbEntity
  8
CSLAYER10
  6
PHANTOM
 62
     3
 48
0.3
100
AcDbCircle
 10
493.5
 20
123.461202
 30
0.0
 40
3.3
100
AcDbArc
 50
356.171622
 51
149.686484
  0
LINE
  5
3DE
330
1D
100
AcDbEntity
  8
CSLAYER10
  6
PHANTOM
 62
     3
 48
0.2
100
AcDbLine
 10
490.651188
 20
125.126815
 30
0.0
 11
485.0
 21
115.461202
 31
0.0
  0
LINE
  5
3DF
330
1D
100
AcDbEntity
  8
CSLAYER10
  6
PHANTOM
 62
     3
 48
0.3
100
AcDbLine
 10
485.0
 20
115.461202
 30
0.0
 11
480.467125
 21
112.061546
 31
0.0
  0
LINE
  5
3E0
330
1D
100
AcDbEntity
  8
CSLAYER10
  6
Continuous
 62
     3
100
AcDbLine
 10
490.0
 20
116.810895
 30
0.0
 11
490.0
 21
87.413086
 31
0.0
  0
LINE
  5
3E1
330
1D
100
AcDbEntity
  8
CSLAYER10
  6
PHANTOM
 62
     3
 48
0.2
100
AcDbLine
 10
485.0
 20
87.461202
 30
0.0
 11
490.651188
 21
77.795589
 31
0.0
  0
ARC
  5
3E2
330
1D
100
AcDbEntity
  8
CSLAYER10
  6
PHANTOM
 62
     3
100
AcDbCircle
 10
493.5
 20
79.461202
 30
0.0
 40
3.3
100
AcDbArc
 50
210.313516
 51
3.828378
  0
ARC
  5
3E3
330
1D
100
AcDbEntity
  8
CSLAYER10
  6
PHANTOM
 62
     3
 48
0.3
100
AcDbCircle
 10
466.85958
 20
77.678494
 30
0.0
 40
30.0
100
AcDbArc
 50
3.828378
 51
26.363401
  0
LINE
  5
3E4
330
1D
100
AcDbEntity
  8
CSLAYER10
  6
PHANTOM
 62
     3
100
AcDbLine
 10
485.0
 20
87.461202
 30
0.0
 11
480.384815
 21
90.92259
 31
0.0
  0
LINE
  5
402
102
{ACAD_REACTORS
330
86E
102
}
330
1D
100
AcDbEntity
  8
CSLAYER10
  6
Continuous
 62
     3
100
AcDbLine
 10
490.0
 20
142.0
 30
0.0
 11
490.0
 21
333.563218
 31
0.0
  0
LINE
  5
403
330
1D
100
AcDbEntity
  8
CSLAYER10
  6
Continuous
 62
     3
100
AcDbLine
 10
481.108374
 20
344.171007
 30
0.0
 11
463.143794
 21
344.171007
 31
0.0
  0
LINE
  5
404
102
{ACAD_REACTORS
330
86E
102
}
330
1D
100
AcDbEntity
  8
CSLAYER10
  6
Continuous
 62
     3
100
AcDbLine
 10
463.143794
 20
344.171007
 30
0.0
 11
490.058875
 21
301.5
 31
0.0
  0
LINE
  5
405
102
{ACAD_REACTORS
330
86E
102
}
330
1D
100
AcDbEntity
  8
CSLAYER10
  6
Continuous
 62
     3
100
AcDbLine
 10
465.889252
 20
301.5
 30
0.0
 11
530.0
 21
301.5
 31
0.0
  0
LINE
  5
406
330
1D
100
AcDbEntity
  8
CSLAYER10
  6
PHANTOM
 62
     3
 48
0.5
100
AcDbLine
 10
420.0
 20
295.5
 30
0.0
 11
399.5
 21
295.5
 31
0.0
  0
LINE
  5
407
330
1D
100
AcDbEntity
  8
CSLAYER10
  6
PHANTOM
 62
     3
 48
0.5
100
AcDbLine
 10
399.5
 20
295.5
 30
0.0
 11
399.5
 21
265.5
 31
0.0
  0
LINE
  5
408
330
1D
100
AcDbEntity
  8
CSLAYER10
  6
PHANTOM
 62
     3
 48
0.5
100
AcDbLine
 10
399.5
 20
265.5
 30
0.0
 11
420.0
 21
265.5
 31
0.0
  0
LINE
  5
409
330
1D
100
AcDbEntity
  8
CSLAYER10
  6
Continuous
 62
     3
100
AcDbLine
 10
429.561185
 20
347.5
 30
0.0
 11
368.5
 21
347.5
 31
0.0
  0
LINE
  5
40A
330
1D
100
AcDbEntity
  8
CSLAYER10
  6
Continuous
 62
     3
100
AcDbLine
 10
401.017691126129
 20
42.068408961789
 30
0.0
 11
345.970262974651
 21
42.068408961789
 31
0.0
  0
LINE
  5
40B
330
1D
100
AcDbEntity
  8
CSLAYER10
  6
Continuous
 62
     3
100
AcDbLine
 10
345.970262974651
 20
34.068408961789
 30
0.0
 11
401.017691126129
 21
34.068408961789
 31
0.0
  0
TEXT
  5
4BA
330
1D
100
AcDbEntity
  8
CSLAYER10
  6
Continuous
 62
     3
100
AcDbText
 10
122.279741734102
 20
66.098632123104
 30
0.0
 40
5.0
  1
●カラー寸法
 41
1.074422999617
  7
FX_FONT
 72
     5
 11
159.526405720818
 21
66.098632123104
 31
0.0
100
AcDbText
  0
LINE
  5
4BB
330
1D
100
AcDbEntity
  8
CSLAYER10
  6
Continuous
 62
     3
100
AcDbLine
 10
121.870485620011
 20
2.068408961789
 30
0.0
 11
209.427556946869
 21
2.068408961789
 31
0.0
  0
LINE
  5
4BC
330
1D
100
AcDbEntity
  8
CSLAYER10
  6
Continuous
 62
     3
100
AcDbLine
 10
121.906045620011
 20
34.068408961789
 30
0.0
 11
209.427556946869
 21
34.068408961789
 31
0.0
  0
LINE
  5
4BD
330
1D
100
AcDbEntity
  8
CSLAYER10
  6
Continuous
 62
     3
100
AcDbLine
 10
146.906045620011
 20
2.068408961789
 30
0.0
 11
146.906045620011
 21
58.068408961789
 31
0.0
  0
TEXT
  5
4BE
330
1D
100
AcDbEntity
  8
CSLAYER10
  6
Continuous
 62
     3
100
AcDbText
 10
154.081171096976
 20
35.539541634152
 30
0.0
 40
4.0
  1
高さ(H)
 41
0.89552238806
  7
FX_FONT
 72
     5
 11
172.081171096976
 21
35.539541634152
 31
0.0
100
AcDbText
  0
TEXT
  5
4BF
330
1D
100
AcDbEntity
  8
CSLAYER10
  6
Continuous
 62
     3
100
AcDbText
 10
184.718092951665
 20
36.015251722568
 30
0.0
 40
4.0
  1
直径(D)
 41
0.89552238806
  7
FX_FONT
 72
     5
 11
202.718092951665
 21
36.015251722568
 31
0.0
100
AcDbText
  0
TEXT
  5
4C0
330
1D
100
AcDbEntity
  8
CSLAYER10
  6
Continuous
 62
     3
100
AcDbText
 10
157.00271325366
 20
27.230841858637
 30
0.0
 40
4.0
  1
26.5
 41
0.650994575045
  7
FX_FONT
 72
     5
 11
167.00271325366
 21
27.230841858637
 31
0.0
100
AcDbText
  0
TEXT
  5
4C1
330
1D
100
AcDbEntity
  8
CSLAYER10
  6
Continuous
 62
     3
100
AcDbText
 10
157.00954925366
 20
19.530928858637
 30
0.0
 40
4.0
  1
23.5
 41
0.652173913043
  7
FX_FONT
 72
     5
 11
167.00954925366
 21
19.530928858637
 31
0.0
100
AcDbText
  0
TEXT
  5
4C2
330
1D
100
AcDbEntity
  8
CSLAYER10
  6
Continuous
 62
     3
100
AcDbText
 10
157.00271325366
 20
11.530509858637
 30
0.0
 40
4.0
  1
21.0
 41
0.662739322533
  7
FX_FONT
 72
     5
 11
167.00271325366
 21
11.530509858637
 31
0.0
100
AcDbText
  0
TEXT
  5
4C3
330
1D
100
AcDbEntity
  8
CSLAYER10
  6
Continuous
 62
     3
100
AcDbText
 10
156.60012525366
 20
3.479056858637
 30
0.0
 40
4.0
  1
18.5
 41
0.652173913043
  7
FX_FONT
 72
     5
 11
166.60012525366
 21
3.479056858637
 31
0.0
100
AcDbText
  0
TEXT
  5
4C4
330
1D
100
AcDbEntity
  8
CSLAYER10
  6
Continuous
 62
     3
100
AcDbText
 10
186.857439108349
 20
27.897057947053
 30
0.0
 40
4.0
  1
%%C50.5
 41
0.677638152647
  7
FX_FONT
 72
     5
 11
199.981031331285
 21
27.897057947053
 31
0.0
100
AcDbText
  0
TEXT
  5
4C5
330
1D
100
AcDbEntity
  8
CSLAYER10
  6
Continuous
 62
     3
100
AcDbText
 10
186.857439108349
 20
20.006638947053
 30
0.0
 40
4.0
  1
%%C49.5
 41
0.678741480738
  7
FX_FONT
 72
     5
 11
199.981031331285
 21
20.006638947053
 31
0.0
100
AcDbText
  0
TEXT
  5
4C6
330
1D
100
AcDbEntity
  8
CSLAYER10
  6
Continuous
 62
     3
100
AcDbText
 10
186.963304108349
 20
11.603646947053
 30
0.0
 40
4.0
  1
%%C48.5
 41
0.656531284829
  7
FX_FONT
 72
     5
 11
199.656242281716
 21
11.603646947053
 31
0.0
100
AcDbText
  0
TEXT
  5
4C7
330
1D
100
AcDbEntity
  8
CSLAYER10
  6
Continuous
 62
     3
100
AcDbText
 10
186.857439108349
 20
4.225785947053
 30
0.0
 40
4.0
  1
%%C47.5
 41
0.662007060691
  7
FX_FONT
 72
     5
 11
199.656242281716
 21
4.225785947053
 31
0.0
100
AcDbText
  0
LINE
  5
4C8
330
1D
100
AcDbEntity
  8
CSLAYER10
  6
Continuous
 62
     3
100
AcDbLine
 10
121.906045620011
 20
26.068408961789
 30
0.0
 11
209.427556946869
 21
26.068408961789
 31
0.0
  0
LINE
  5
4C9
330
1D
100
AcDbEntity
  8
CSLAYER10
  6
Continuous
 62
     3
100
AcDbLine
 10
209.427556946869
 20
18.068408961789
 30
0.0
 11
121.906045620011
 21
18.068408961789
 31
0.0
  0
LINE
  5
4CA
330
1D
100
AcDbEntity
  8
CSLAYER10
  6
Continuous
 62
     3
100
AcDbLine
 10
121.906045620011
 20
10.068408961789
 30
0.0
 11
209.427556946869
 21
10.068408961789
 31
0.0
  0
TEXT
  5
4CB
330
1D
100
AcDbEntity
  8
CSLAYER10
  6
Continuous
 62
     3
100
AcDbText
 10
128.340100620011
 20
43.094411330183
 30
0.0
 40
5.0
  1
扉厚
 41
1.125
  7
FX_FONT
 72
     5
 11
140.340100620011
 21
43.094411330183
 31
0.0
100
AcDbText
  0
TEXT
  5
4CC
330
1D
100
AcDbEntity
  8
CSLAYER10
  6
Continuous
 62
     3
100
AcDbText
 10
123.906048620011
 20
28.068406961789
 30
0.0
 40
4.0
  1
35 ~ 37未満
 41
0.629475437136
  7
FX_FONT
 72
     5
 11
144.906048620011
 21
28.068406961789
 31
0.0
100
AcDbText
  0
TEXT
  5
4CD
330
1D
100
AcDbEntity
  8
CSLAYER10
  6
Continuous
 62
     3
100
AcDbText
 10
123.906048620011
 20
20.068414961789
 30
0.0
 40
4.0
  1
37 ~ 42未満
 41
0.63
  7
FX_FONT
 72
     5
 11
144.906048620011
 21
20.068414961789
 31
0.0
100
AcDbText
  0
TEXT
  5
4CE
330
1D
100
AcDbEntity
  8
CSLAYER10
  6
Continuous
 62
     3
100
AcDbText
 10
123.906048620011
 20
12.068414961789
 30
0.0
 40
4.0
  1
42 ~ 47未満
 41
0.63
  7
FX_FONT
 72
     5
 11
144.906048620011
 21
12.068414961789
 31
0.0
100
AcDbText
  0
LINE
  5
4D0
330
1D
100
AcDbEntity
  8
CSLAYER10
  6
Continuous
 62
     3
100
AcDbLine
 10
146.906045620011
 20
50.068408961789
 30
0.0
 11
209.427556946869
 21
50.068408961789
 31
0.0
  0
LINE
  5
4D1
330
1D
100
AcDbEntity
  8
CSLAYER10
  6
Continuous
 62
     3
100
AcDbLine
 10
121.906045620011
 20
58.068408961789
 30
0.0
 11
209.427556946869
 21
58.068408961789
 31
0.0
  0
LINE
  5
4D2
330
1D
100
AcDbEntity
  8
CSLAYER10
  6
Continuous
 62
     3
100
AcDbLine
 10
146.906045620011
 20
42.068408961789
 30
0.0
 11
209.427556946869
 21
42.068408961789
 31
0.0
  0
LINE
  5
4D3
330
1D
100
AcDbEntity
  8
CSLAYER10
  6
Continuous
 62
     3
100
AcDbLine
 10
177.969503493714
 20
42.068408961789
 30
0.0
 11
177.969503493714
 21
2.068408961789
 31
0.0
  0
TEXT
  5
4D4
330
1D
100
AcDbEntity
  8
CSLAYER10
  6
Continuous
 62
     3
100
AcDbText
 10
165.670577231369
 20
43.982370546408
 30
0.0
 40
4.0
  1
Ａ＝43.5
  7
FX_FONT
100
AcDbText
  0
TEXT
  5
4D5
330
1D
100
AcDbEntity
  8
CSLAYER10
  6
Continuous
 62
     3
100
AcDbText
 10
151.373278492349
 20
51.939676926121
 30
0.0
 40
4.0
  1
Ｘ・ＮＸキーシリンダー
  7
FX_FONT
100
AcDbText
  0
TEXT
  5
4D6
330
1D
100
AcDbEntity
  8
CSLAYER10
  6
Continuous
 62
     3
100
AcDbText
 10
124.038735639484
 20
3.94860082118
 30
0.0
 40
4.0
  1
47 ~ 50未満
 41
0.625592247499
  7
FX_FONT
 72
     5
 11
144.912663631044
 21
3.94860082118
 31
0.0
100
AcDbText
  0
LINE
  5
4D7
330
1D
100
AcDbEntity
  8
CSLAYER10
  6
Continuous
 62
     3
100
AcDbLine
 10
229.49289513783
 20
2.068408961789
 30
0.0
 11
317.049966464688
 21
2.068408961789
 31
0.0
  0
LINE
  5
4D8
330
1D
100
AcDbEntity
  8
CSLAYER10
  6
Continuous
 62
     3
100
AcDbLine
 10
229.52845513783
 20
34.068408961789
 30
0.0
 11
317.049966464688
 21
34.068408961789
 31
0.0
  0
LINE
  5
4D9
330
1D
100
AcDbEntity
  8
CSLAYER10
  6
Continuous
 62
     3
100
AcDbLine
 10
254.52845513783
 20
2.068408961789
 30
0.0
 11
254.52845513783
 21
58.068408961789
 31
0.0
  0
TEXT
  5
4DA
330
1D
100
AcDbEntity
  8
CSLAYER10
  6
Continuous
 62
     3
100
AcDbText
 10
261.703580614796
 20
35.539541634152
 30
0.0
 40
4.0
  1
高さ(H)
 41
0.89552238806
  7
FX_FONT
 72
     5
 11
279.703580614796
 21
35.539541634152
 31
0.0
100
AcDbText
  0
TEXT
  5
4DB
330
1D
100
AcDbEntity
  8
CSLAYER10
  6
Continuous
 62
     3
100
AcDbText
 10
292.340502469485
 20
36.015251722568
 30
0.0
 40
4.0
  1
直径(D)
 41
0.89552238806
  7
FX_FONT
 72
     5
 11
310.340502469485
 21
36.015251722568
 31
0.0
100
AcDbText
  0
TEXT
  5
4DC
330
1D
100
AcDbEntity
  8
CSLAYER10
  6
Continuous
 62
     3
100
AcDbText
 10
264.625122771479
 20
27.230841858637
 30
0.0
 40
4.0
  1
21.0
 41
0.662739322533
  7
FX_FONT
 72
     5
 11
274.625122771479
 21
27.230841858637
 31
0.0
100
AcDbText
  0
TEXT
  5
4DD
330
1D
100
AcDbEntity
  8
CSLAYER10
  6
Continuous
 62
     3
100
AcDbText
 10
264.63195877148
 20
19.530928858637
 30
0.0
 40
4.0
  1
18.5
 41
0.652173913043
  7
FX_FONT
 72
     5
 11
274.63195877148
 21
19.530928858637
 31
0.0
100
AcDbText
  0
TEXT
  5
4DE
330
1D
100
AcDbEntity
  8
CSLAYER10
  6
Continuous
 62
     3
100
AcDbText
 10
264.625122771479
 20
11.530509858637
 30
0.0
 40
4.0
  1
16.0
 41
0.661521499449
  7
FX_FONT
 72
     5
 11
274.625122771479
 21
11.530509858637
 31
0.0
100
AcDbText
  0
TEXT
  5
4DF
330
1D
100
AcDbEntity
  8
CSLAYER10
  6
Continuous
 62
     3
100
AcDbText
 10
264.222534771479
 20
3.479056858637
 30
0.0
 40
4.0
  1
13.5
 41
0.652173913043
  7
FX_FONT
 72
     5
 11
274.222534771479
 21
3.479056858637
 31
0.0
100
AcDbText
  0
TEXT
  5
4E0
330
1D
100
AcDbEntity
  8
CSLAYER10
  6
Continuous
 62
     3
100
AcDbText
 10
294.479848626169
 20
27.897057947053
 30
0.0
 40
4.0
  1
%%C48.5
 41
0.67880649429
  7
FX_FONT
 72
     5
 11
307.603440849105
 21
27.897057947053
 31
0.0
100
AcDbText
  0
TEXT
  5
4E1
330
1D
100
AcDbEntity
  8
CSLAYER10
  6
Continuous
 62
     3
100
AcDbText
 10
294.479848626169
 20
20.006638947053
 30
0.0
 40
4.0
  1
%%C47.5
 41
0.67880649429
  7
FX_FONT
 72
     5
 11
307.603440849105
 21
20.006638947053
 31
0.0
100
AcDbText
  0
TEXT
  5
4E2
330
1D
100
AcDbEntity
  8
CSLAYER10
  6
Continuous
 62
     3
100
AcDbText
 10
294.585713626169
 20
11.603646947053
 30
0.0
 40
4.0
  1
%%C46.5
 41
0.655589346114
  7
FX_FONT
 72
     5
 11
307.278651799535
 21
11.603646947053
 31
0.0
100
AcDbText
  0
TEXT
  5
4E3
330
1D
100
AcDbEntity
  8
CSLAYER10
  6
Continuous
 62
     3
100
AcDbText
 10
294.479848626169
 20
4.225785947053
 30
0.0
 40
4.0
  1
%%C45.5
 41
0.661057265769
  7
FX_FONT
 72
     5
 11
307.278651799535
 21
4.225785947053
 31
0.0
100
AcDbText
  0
LINE
  5
4E4
330
1D
100
AcDbEntity
  8
CSLAYER10
  6
Continuous
 62
     3
100
AcDbLine
 10
229.52845513783
 20
26.068408961789
 30
0.0
 11
317.049966464688
 21
26.068408961789
 31
0.0
  0
LINE
  5
4E5
330
1D
100
AcDbEntity
  8
CSLAYER10
  6
Continuous
 62
     3
100
AcDbLine
 10
317.049966464688
 20
18.068408961789
 30
0.0
 11
229.52845513783
 21
18.068408961789
 31
0.0
  0
LINE
  5
4E6
330
1D
100
AcDbEntity
  8
CSLAYER10
  6
Continuous
 62
     3
100
AcDbLine
 10
229.52845513783
 20
10.068408961789
 30
0.0
 11
317.049966464688
 21
10.068408961789
 31
0.0
  0
TEXT
  5
4E7
330
1D
100
AcDbEntity
  8
CSLAYER10
  6
Continuous
 62
     3
100
AcDbText
 10
235.96251013783
 20
43.094411330183
 30
0.0
 40
5.0
  1
扉厚
 41
1.125
  7
FX_FONT
 72
     5
 11
247.96251013783
 21
43.094411330183
 31
0.0
100
AcDbText
  0
TEXT
  5
4E8
330
1D
100
AcDbEntity
  8
CSLAYER10
  6
Continuous
 62
     3
100
AcDbText
 10
231.52845813783
 20
28.068406961789
 30
0.0
 40
4.0
  1
35 ~ 38未満
 41
0.629475437136
  7
FX_FONT
 72
     5
 11
252.52845813783
 21
28.068406961789
 31
0.0
100
AcDbText
  0
TEXT
  5
4E9
330
1D
100
AcDbEntity
  8
CSLAYER10
  6
Continuous
 62
     3
100
AcDbText
 10
231.52845813783
 20
20.068414961789
 30
0.0
 40
4.0
  1
38 ~ 43未満
 41
0.63
  7
FX_FONT
 72
     5
 11
252.52845813783
 21
20.068414961789
 31
0.0
100
AcDbText
  0
TEXT
  5
4EA
330
1D
100
AcDbEntity
  8
CSLAYER10
  6
Continuous
 62
     3
100
AcDbText
 10
231.52845813783
 20
12.068414961789
 30
0.0
 40
4.0
  1
43 ~ 48未満
 41
0.63
  7
FX_FONT
 72
     5
 11
252.52845813783
 21
12.068414961789
 31
0.0
100
AcDbText
  0
LINE
  5
4EC
330
1D
100
AcDbEntity
  8
CSLAYER10
  6
Continuous
 62
     3
100
AcDbLine
 10
254.52845513783
 20
50.068408961789
 30
0.0
 11
317.049966464688
 21
50.068408961789
 31
0.0
  0
LINE
  5
4ED
330
1D
100
AcDbEntity
  8
CSLAYER10
  6
Continuous
 62
     3
100
AcDbLine
 10
229.52845513783
 20
58.068408961789
 30
0.0
 11
317.049966464688
 21
58.068408961789
 31
0.0
  0
LINE
  5
4EE
330
1D
100
AcDbEntity
  8
CSLAYER10
  6
Continuous
 62
     3
100
AcDbLine
 10
254.52845513783
 20
42.068408961789
 30
0.0
 11
317.049966464688
 21
42.068408961789
 31
0.0
  0
LINE
  5
4EF
330
1D
100
AcDbEntity
  8
CSLAYER10
  6
Continuous
 62
     3
100
AcDbLine
 10
285.591913011533
 20
42.068408961789
 30
0.0
 11
285.591913011533
 21
2.068408961789
 31
0.0
  0
TEXT
  5
4F0
330
1D
100
AcDbEntity
  8
CSLAYER10
  6
Continuous
 62
     3
100
AcDbText
 10
273.292986749188
 20
43.982370546408
 30
0.0
 40
4.0
  1
Ａ＝38
  7
FX_FONT
100
AcDbText
  0
TEXT
  5
4F1
330
1D
100
AcDbEntity
  8
CSLAYER10
  6
Continuous
 62
     3
100
AcDbText
 10
259.336327517121
 20
52.272829850503
 30
0.0
 40
4.0
  1
ピンシリンダー及びサムターン
 41
0.8
  7
FX_FONT
100
AcDbText
  0
TEXT
  5
4F2
330
1D
100
AcDbEntity
  8
CSLAYER10
  6
Continuous
 62
     3
100
AcDbText
 10
231.423029408195
 20
3.748001976899
 30
0.0
 40
4.0
  1
48 ~ 50未満
 41
0.634479130326
  7
FX_FONT
 72
     5
 11
252.593483056742
 21
3.748001976899
 31
0.0
100
AcDbText
  0
TEXT
  5
6A6
330
1D
100
AcDbEntity
  8
CSLAYER10
 62
     3
100
AcDbText
 10
75.598312
 20
160.464554
 30
0.0
 40
4.0
  1
2
 50
90.0
 41
0.75
  7
FX_FONT
 72
     5
 11
75.598312
 21
162.964554
 31
0.0
100
AcDbText
  0
LINE
  5
6A7
330
1D
100
AcDbEntity
  8
CSLAYER10
  6
Continuous
 62
     3
100
AcDbLine
 10
91.0
 20
155.5
 30
0.0
 11
76.0
 21
155.5
 31
0.0
  0
LINE
  5
6A8
330
1D
100
AcDbEntity
  8
CSLAYER10
  6
Continuous
 62
     3
100
AcDbLine
 10
91.0
 20
157.5
 30
0.0
 11
76.0
 21
157.5
 31
0.0
  0
LINE
  5
6AA
330
1D
100
AcDbEntity
  8
CSLAYER10
  6
Continuous
 62
     3
100
AcDbLine
 10
77.0
 20
149.5
 30
0.0
 11
77.0
 21
163.5
 31
0.0
  0
LINE
  5
6AB
330
1D
100
AcDbEntity
  8
CSLAYER10
  6
Continuous
 62
     3
100
AcDbLine
 10
77.0
 20
155.5
 30
0.0
 11
76.482362
 21
153.568148
 31
0.0
  0
LINE
  5
6AC
330
1D
100
AcDbEntity
  8
CSLAYER10
  6
Continuous
 62
     3
100
AcDbLine
 10
77.0
 20
155.5
 30
0.0
 11
77.517638
 21
153.568148
 31
0.0
  0
LINE
  5
6AE
330
1D
100
AcDbEntity
  8
CSLAYER10
  6
Continuous
 62
     3
100
AcDbLine
 10
77.0
 20
157.5
 30
0.0
 11
76.482362
 21
159.431852
 31
0.0
  0
LINE
  5
6AF
330
1D
100
AcDbEntity
  8
CSLAYER10
  6
Continuous
 62
     3
100
AcDbLine
 10
77.0
 20
157.5
 30
0.0
 11
77.517638
 21
159.431852
 31
0.0
  0
TEXT
  5
6B0
330
1D
100
AcDbEntity
  8
CSLAYER10
 62
     3
100
AcDbText
 10
103.5
 20
246.5
 30
0.0
 40
4.0
  1
16
 41
0.681818181818
  7
FX_FONT
 72
     5
 11
108.5
 21
246.5
 31
0.0
100
AcDbText
  0
LINE
  5
6B1
330
1D
100
AcDbEntity
  8
CSLAYER10
  6
Continuous
 62
     3
100
AcDbLine
 10
98.0
 20
263.5
 30
0.0
 11
98.0
 21
244.5
 31
0.0
  0
LINE
  5
6B2
330
1D
100
AcDbEntity
  8
CSLAYER10
  6
Continuous
 62
     3
100
AcDbLine
 10
114.0
 20
263.5
 30
0.0
 11
114.0
 21
244.5
 31
0.0
  0
LINE
  5
6B3
330
1D
100
AcDbEntity
  8
CSLAYER10
  6
Continuous
 62
     3
100
AcDbLine
 10
98.0
 20
245.5
 30
0.0
 11
114.0
 21
245.5
 31
0.0
  0
LINE
  5
6B4
330
1D
100
AcDbEntity
  8
CSLAYER10
  6
Continuous
 62
     3
100
AcDbLine
 10
98.0
 20
245.5
 30
0.0
 11
99.931852
 21
246.017638
 31
0.0
  0
LINE
  5
6B5
330
1D
100
AcDbEntity
  8
CSLAYER10
  6
Continuous
 62
     3
100
AcDbLine
 10
98.0
 20
245.5
 30
0.0
 11
99.931852
 21
244.982362
 31
0.0
  0
LINE
  5
6B6
330
1D
100
AcDbEntity
  8
CSLAYER10
  6
Continuous
 62
     3
100
AcDbLine
 10
114.0
 20
245.5
 30
0.0
 11
112.068148
 21
246.017638
 31
0.0
  0
LINE
  5
6B7
330
1D
100
AcDbEntity
  8
CSLAYER10
  6
Continuous
 62
     3
100
AcDbLine
 10
114.0
 20
245.5
 30
0.0
 11
112.068148
 21
244.982362
 31
0.0
  0
TEXT
  5
6B8
330
1D
100
AcDbEntity
  8
CSLAYER10
 62
     3
100
AcDbText
 10
76.0
 20
304.25
 30
0.0
 40
4.0
  1
21.5
 50
90.0
 41
0.652173913043
  7
FX_FONT
 72
     5
 11
76.0
 21
314.25
 31
0.0
100
AcDbText
  0
LINE
  5
6B9
330
1D
100
AcDbEntity
  8
CSLAYER10
  6
Continuous
 62
     3
100
AcDbLine
 10
92.0
 20
320.0
 30
0.0
 11
76.0
 21
320.0
 31
0.0
  0
LINE
  5
6BD
330
1D
100
AcDbEntity
  8
CSLAYER10
  6
Continuous
 62
     3
100
AcDbLine
 10
77.0
 20
320.0
 30
0.0
 11
76.482362
 21
318.068148
 31
0.0
  0
LINE
  5
6BE
330
1D
100
AcDbEntity
  8
CSLAYER10
  6
Continuous
 62
     3
100
AcDbLine
 10
77.0
 20
320.0
 30
0.0
 11
77.517638
 21
318.068148
 31
0.0
  0
TEXT
  5
6BF
330
1D
100
AcDbEntity
  8
CSLAYER10
 62
     3
100
AcDbText
 10
76.0
 20
277.0
 30
0.0
 40
4.0
  1
38
 50
90.0
 41
0.681818181818
  7
FX_FONT
 72
     5
 11
76.0
 21
282.0
 31
0.0
100
AcDbText
  0
LINE
  5
6C0
330
1D
100
AcDbEntity
  8
CSLAYER10
  6
Continuous
 62
     3
100
AcDbLine
 10
97.0
 20
260.5
 30
0.0
 11
76.0
 21
260.5
 31
0.0
  0
LINE
  5
6C1
330
1D
100
AcDbEntity
  8
CSLAYER10
  6
Continuous
 62
     3
100
AcDbLine
 10
97.0
 20
298.5
 30
0.0
 11
76.0
 21
298.5
 31
0.0
  0
LINE
  5
6C2
330
1D
100
AcDbEntity
  8
CSLAYER10
  6
Continuous
 62
     3
100
AcDbLine
 10
77.0
 20
260.5
 30
0.0
 11
77.0
 21
320.0
 31
0.0
  0
LINE
  5
6C3
330
1D
100
AcDbEntity
  8
CSLAYER10
  6
Continuous
 62
     3
100
AcDbLine
 10
77.0
 20
260.5
 30
0.0
 11
76.482362
 21
262.431852
 31
0.0
  0
LINE
  5
6C4
330
1D
100
AcDbEntity
  8
CSLAYER10
  6
Continuous
 62
     3
100
AcDbLine
 10
77.0
 20
260.5
 30
0.0
 11
77.517638
 21
262.431852
 31
0.0
  0
LINE
  5
6C5
330
1D
100
AcDbEntity
  8
CSLAYER10
  6
Continuous
 62
     3
100
AcDbLine
 10
77.517638
 20
300.431852
 30
0.0
 11
76.482362
 21
296.568148
 31
0.0
  0
LINE
  5
6C6
330
1D
100
AcDbEntity
  8
CSLAYER10
  6
Continuous
 62
     3
100
AcDbLine
 10
76.482362
 20
300.431852
 30
0.0
 11
77.517638
 21
296.568148
 31
0.0
  0
TEXT
  5
6C7
330
1D
100
AcDbEntity
  8
CSLAYER10
 62
     3
100
AcDbText
 10
103.5
 20
181.0
 30
0.0
 40
4.0
  1
28
 41
0.681818181818
  7
FX_FONT
 72
     5
 11
108.5
 21
181.0
 31
0.0
100
AcDbText
  0
LINE
  5
6C8
330
1D
100
AcDbEntity
  8
CSLAYER10
  6
Continuous
 62
     3
100
AcDbLine
 10
92.0
 20
195.0
 30
0.0
 11
92.0
 21
179.0
 31
0.0
  0
LINE
  5
6C9
330
1D
100
AcDbEntity
  8
CSLAYER10
  6
Continuous
 62
     3
100
AcDbLine
 10
120.0
 20
195.0
 30
0.0
 11
120.0
 21
179.0
 31
0.0
  0
LINE
  5
6CA
330
1D
100
AcDbEntity
  8
CSLAYER10
  6
Continuous
 62
     3
100
AcDbLine
 10
92.0
 20
180.0
 30
0.0
 11
120.0
 21
180.0
 31
0.0
  0
LINE
  5
6CB
330
1D
100
AcDbEntity
  8
CSLAYER10
  6
Continuous
 62
     3
100
AcDbLine
 10
92.0
 20
180.0
 30
0.0
 11
93.931852
 21
180.517638
 31
0.0
  0
LINE
  5
6CC
330
1D
100
AcDbEntity
  8
CSLAYER10
  6
Continuous
 62
     3
100
AcDbLine
 10
92.0
 20
180.0
 30
0.0
 11
93.931852
 21
179.482362
 31
0.0
  0
LINE
  5
6CD
330
1D
100
AcDbEntity
  8
CSLAYER10
  6
Continuous
 62
     3
100
AcDbLine
 10
120.0
 20
180.0
 30
0.0
 11
118.068148
 21
180.517638
 31
0.0
  0
LINE
  5
6CE
330
1D
100
AcDbEntity
  8
CSLAYER10
  6
Continuous
 62
     3
100
AcDbLine
 10
120.0
 20
180.0
 30
0.0
 11
118.068148
 21
179.482362
 31
0.0
  0
TEXT
  5
6CF
330
1D
100
AcDbEntity
  8
CSLAYER10
 62
     3
100
AcDbText
 10
378.5
 20
224.25
 30
0.0
 40
4.0
  1
105
 50
90.0
 41
0.661440470358
  7
FX_FONT
 72
     5
 11
378.5
 21
231.75
 31
0.0
100
AcDbText
  0
LINE
  5
6D0
330
1D
100
AcDbEntity
  8
CSLAYER10
  6
Continuous
 62
     3
100
AcDbLine
 10
379.5
 20
175.5
 30
0.0
 11
379.5
 21
280.5
 31
0.0
  0
LINE
  5
6D1
330
1D
100
AcDbEntity
  8
CSLAYER10
  6
Continuous
 62
     3
100
AcDbLine
 10
379.5
 20
175.5
 30
0.0
 11
378.982362
 21
177.431852
 31
0.0
  0
LINE
  5
6D2
330
1D
100
AcDbEntity
  8
CSLAYER10
  6
Continuous
 62
     3
100
AcDbLine
 10
379.5
 20
175.5
 30
0.0
 11
380.017638
 21
177.431852
 31
0.0
  0
LINE
  5
6D3
330
1D
100
AcDbEntity
  8
CSLAYER10
  6
Continuous
 62
     3
100
AcDbLine
 10
380.017638
 20
282.431852
 30
0.0
 11
379.5
 21
280.5
 31
0.0
  0
LINE
  5
6D4
330
1D
100
AcDbEntity
  8
CSLAYER10
  6
Continuous
 62
     3
100
AcDbLine
 10
378.982362
 20
282.431852
 30
0.0
 11
379.5
 21
280.5
 31
0.0
  0
TEXT
  5
6D5
330
1D
100
AcDbEntity
  8
CSLAYER10
 62
     3
100
AcDbText
 10
528.0
 20
243.75
 30
0.0
 40
4.0
  1
108
 50
90.0
 41
0.661440470358
  7
FX_FONT
 72
     5
 11
528.0
 21
251.25
 31
0.0
100
AcDbText
  0
LINE
  5
6D6
330
1D
100
AcDbEntity
  8
CSLAYER10
  6
Continuous
 62
     3
100
AcDbLine
 10
529.0
 20
193.5
 30
0.0
 11
529.0
 21
301.484218
 31
0.0
  0
LINE
  5
6D7
330
1D
100
AcDbEntity
  8
CSLAYER10
  6
Continuous
 62
     3
100
AcDbLine
 10
529.0
 20
193.5
 30
0.0
 11
528.482362
 21
195.431852
 31
0.0
  0
LINE
  5
6D8
330
1D
100
AcDbEntity
  8
CSLAYER10
  6
Continuous
 62
     3
100
AcDbLine
 10
529.0
 20
193.5
 30
0.0
 11
529.517638
 21
195.431852
 31
0.0
  0
LINE
  5
6D9
330
1D
100
AcDbEntity
  8
CSLAYER10
  6
Continuous
 62
     3
100
AcDbLine
 10
529.0
 20
301.5
 30
0.0
 11
528.482362
 21
299.568148
 31
0.0
  0
LINE
  5
6DA
330
1D
100
AcDbEntity
  8
CSLAYER10
  6
Continuous
 62
     3
100
AcDbLine
 10
529.0
 20
301.5
 30
0.0
 11
529.517638
 21
299.568148
 31
0.0
  0
TEXT
  5
6DB
330
1D
100
AcDbEntity
  8
CSLAYER10
 62
     3
100
AcDbText
 10
30.0
 20
255.0
 30
0.0
 40
4.0
  1
85
 50
90.0
 41
0.681818181818
  7
FX_FONT
 72
     5
 11
30.0
 21
260.0
 31
0.0
100
AcDbText
  0
LINE
  5
6DC
330
1D
100
AcDbEntity
  8
CSLAYER10
  6
Continuous
 62
     3
100
AcDbLine
 10
40.5
 20
215.0
 30
0.0
 11
30.0
 21
215.0
 31
0.0
  0
LINE
  5
6DD
330
1D
100
AcDbEntity
  8
CSLAYER10
  6
Continuous
 62
     3
100
AcDbLine
 10
40.5
 20
300.0
 30
0.0
 11
30.0
 21
300.0
 31
0.0
  0
LINE
  5
6DE
330
1D
100
AcDbEntity
  8
CSLAYER10
  6
Continuous
 62
     3
100
AcDbLine
 10
31.0
 20
215.0
 30
0.0
 11
31.0
 21
300.0
 31
0.0
  0
LINE
  5
6DF
330
1D
100
AcDbEntity
  8
CSLAYER10
  6
Continuous
 62
     3
100
AcDbLine
 10
31.0
 20
215.0
 30
0.0
 11
30.482362
 21
216.931852
 31
0.0
  0
LINE
  5
6E0
330
1D
100
AcDbEntity
  8
CSLAYER10
  6
Continuous
 62
     3
100
AcDbLine
 10
31.0
 20
215.0
 30
0.0
 11
31.517638
 21
216.931852
 31
0.0
  0
LINE
  5
6E1
330
1D
100
AcDbEntity
  8
CSLAYER10
  6
Continuous
 62
     3
100
AcDbLine
 10
31.0
 20
300.0
 30
0.0
 11
30.482362
 21
298.068148
 31
0.0
  0
LINE
  5
6E2
330
1D
100
AcDbEntity
  8
CSLAYER10
  6
Continuous
 62
     3
100
AcDbLine
 10
31.0
 20
300.0
 30
0.0
 11
31.517638
 21
298.068148
 31
0.0
  0
TEXT
  5
6E3
330
1D
100
AcDbEntity
  8
CSLAYER10
 62
     3
100
AcDbText
 10
142.5
 20
253.75
 30
0.0
 40
4.0
  1
105
 50
90.0
 41
0.661440470358
  7
FX_FONT
 72
     5
 11
142.5
 21
261.25
 31
0.0
100
AcDbText
  0
LINE
  5
6E4
330
1D
100
AcDbEntity
  8
CSLAYER10
  6
Continuous
 62
     3
100
AcDbLine
 10
143.5
 20
205.0
 30
0.0
 11
143.5
 21
310.0
 31
0.0
  0
LINE
  5
6E5
330
1D
100
AcDbEntity
  8
CSLAYER10
  6
Continuous
 62
     3
100
AcDbLine
 10
143.5
 20
205.0
 30
0.0
 11
142.982362
 21
206.931852
 31
0.0
  0
LINE
  5
6E6
330
1D
100
AcDbEntity
  8
CSLAYER10
  6
Continuous
 62
     3
100
AcDbLine
 10
143.5
 20
205.0
 30
0.0
 11
144.017638
 21
206.931852
 31
0.0
  0
LINE
  5
6E7
330
1D
100
AcDbEntity
  8
CSLAYER10
  6
Continuous
 62
     3
100
AcDbLine
 10
143.5
 20
310.0
 30
0.0
 11
142.982362
 21
308.068148
 31
0.0
  0
LINE
  5
6E8
330
1D
100
AcDbEntity
  8
CSLAYER10
  6
Continuous
 62
     3
100
AcDbLine
 10
143.5
 20
310.0
 30
0.0
 11
144.017638
 21
308.068148
 31
0.0
  0
TEXT
  5
6E9
330
1D
100
AcDbEntity
  8
CSLAYER10
 62
     3
100
AcDbText
 10
152.5
 20
337.5
 30
0.0
 40
4.0
  1
40
 50
90.0
 41
0.705329153605
  7
FX_FONT
 72
     5
 11
152.5
 21
342.5
 31
0.0
100
AcDbText
  0
LINE
  5
6EA
330
1D
100
AcDbEntity
  8
CSLAYER10
  6
Continuous
 62
     3
100
AcDbLine
 10
242.0
 20
360.0
 30
0.0
 11
152.5
 21
360.0
 31
0.0
  0
LINE
  5
6EE
330
1D
100
AcDbEntity
  8
CSLAYER10
  6
Continuous
 62
     3
100
AcDbLine
 10
153.5
 20
360.0
 30
0.0
 11
152.982362
 21
358.068148
 31
0.0
  0
LINE
  5
6EF
330
1D
100
AcDbEntity
  8
CSLAYER10
  6
Continuous
 62
     3
100
AcDbLine
 10
153.5
 20
360.0
 30
0.0
 11
154.017638
 21
358.068148
 31
0.0
  0
TEXT
  5
6F0
330
1D
100
AcDbEntity
  8
CSLAYER10
 62
     3
100
AcDbText
 10
152.5
 20
253.75
 30
0.0
 40
4.0
  1
125
 50
90.0
 41
0.661764705882
  7
FX_FONT
 72
     5
 11
152.5
 21
261.25
 31
0.0
100
AcDbText
  0
LINE
  5
6F1
330
1D
100
AcDbEntity
  8
CSLAYER10
  6
Continuous
 62
     3
100
AcDbLine
 10
121.026325
 20
195.0
 30
0.0
 11
154.5
 21
195.0
 31
0.0
  0
LINE
  5
6F2
330
1D
100
AcDbEntity
  8
CSLAYER10
  6
Continuous
 62
     3
100
AcDbLine
 10
121.026325
 20
320.0
 30
0.0
 11
154.5
 21
320.0
 31
0.0
  0
LINE
  5
6F3
330
1D
100
AcDbEntity
  8
CSLAYER10
  6
Continuous
 62
     3
100
AcDbLine
 10
153.5
 20
195.0
 30
0.0
 11
153.5
 21
320.0
 31
0.0
  0
LINE
  5
6F4
330
1D
100
AcDbEntity
  8
CSLAYER10
  6
Continuous
 62
     3
100
AcDbLine
 10
153.5
 20
195.0
 30
0.0
 11
152.982362
 21
196.931852
 31
0.0
  0
LINE
  5
6F5
330
1D
100
AcDbEntity
  8
CSLAYER10
  6
Continuous
 62
     3
100
AcDbLine
 10
153.5
 20
195.0
 30
0.0
 11
154.017638
 21
196.931852
 31
0.0
  0
LINE
  5
6F6
330
1D
100
AcDbEntity
  8
CSLAYER10
  6
Continuous
 62
     3
100
AcDbLine
 10
153.5
 20
320.0
 30
0.0
 11
152.982362
 21
318.068148
 31
0.0
  0
LINE
  5
6F8
330
1D
100
AcDbEntity
  8
CSLAYER10
  6
Continuous
 62
     3
100
AcDbLine
 10
103.034389
 20
312.622638
 30
0.0
 11
78.464117
 21
337.19291
 31
0.0
  0
LINE
  5
6F9
330
1D
100
AcDbEntity
  8
CSLAYER10
  6
Continuous
 62
     3
100
AcDbLine
 10
103.034389
 20
312.622638
 30
0.0
 11
101.302338
 21
313.622638
 31
0.0
  0
LINE
  5
6FA
330
1D
100
AcDbEntity
  8
CSLAYER10
  6
Continuous
 62
     3
100
AcDbLine
 10
103.034389
 20
312.622638
 30
0.0
 11
102.034389
 21
314.354689
 31
0.0
  0
LINE
  5
6FB
330
1D
100
AcDbEntity
  8
CSLAYER10
  6
Continuous
 62
     3
100
AcDbLine
 10
78.464117
 20
337.19291
 30
0.0
 11
48.464117
 21
337.19291
 31
0.0
  0
TEXT
  5
6FC
330
1D
100
AcDbEntity
  8
CSLAYER10
 62
     3
100
AcDbText
 10
49.664119
 20
338.192902
 30
0.0
 40
4.0
  1
2-4mmネジ用穴
 41
0.729020979021
  7
FX_FONT
 72
     5
 11
77.464119
 21
338.192902
 31
0.0
100
AcDbText
  0
TEXT
  5
6FD
330
1D
100
AcDbEntity
  8
CSLAYER10
 62
     3
100
AcDbText
 10
103.550461
 20
123.500008
 30
0.0
 40
4.0
  1
24
 41
0.681818181818
  7
FX_FONT
 72
     5
 11
108.550461
 21
123.500008
 31
0.0
100
AcDbText
  0
LINE
  5
6FE
330
1D
100
AcDbEntity
  8
CSLAYER10
  6
Continuous
 62
     3
100
AcDbLine
 10
94.103055
 20
136.5
 30
0.0
 11
94.103055
 21
121.5
 31
0.0
  0
LINE
  5
6FF
330
1D
100
AcDbEntity
  8
CSLAYER10
  6
Continuous
 62
     3
100
AcDbLine
 10
94.103055
 20
122.5
 30
0.0
 11
117.997866
 21
122.5
 31
0.0
  0
LINE
  5
700
330
1D
100
AcDbEntity
  8
CSLAYER10
  6
Continuous
 62
     3
100
AcDbLine
 10
94.103055
 20
122.5
 30
0.0
 11
96.034906
 21
123.017638
 31
0.0
  0
LINE
  5
701
330
1D
100
AcDbEntity
  8
CSLAYER10
  6
Continuous
 62
     3
100
AcDbLine
 10
94.103055
 20
122.5
 30
0.0
 11
96.034906
 21
121.982362
 31
0.0
  0
LINE
  5
702
330
1D
100
AcDbEntity
  8
CSLAYER10
  6
Continuous
 62
     3
100
AcDbLine
 10
117.997866
 20
122.5
 30
0.0
 11
116.066014
 21
123.017638
 31
0.0
  0
LINE
  5
703
330
1D
100
AcDbEntity
  8
CSLAYER10
  6
Continuous
 62
     3
100
AcDbLine
 10
117.997866
 20
122.5
 30
0.0
 11
116.066014
 21
121.982362
 31
0.0
  0
TEXT
  5
704
330
1D
100
AcDbEntity
  8
CSLAYER10
 62
     3
100
AcDbText
 10
48.500004
 20
171.0
 30
0.0
 40
4.0
  1
20
 41
0.705329153605
  7
FX_FONT
 72
     5
 11
53.500004
 21
171.0
 31
0.0
100
AcDbText
  0
LINE
  5
705
330
1D
100
AcDbEntity
  8
CSLAYER10
  6
Continuous
 62
     3
100
AcDbLine
 10
41.0
 20
214.5
 30
0.0
 11
41.0
 21
169.0
 31
0.0
  0
LINE
  5
706
330
1D
100
AcDbEntity
  8
CSLAYER10
  6
Continuous
 62
     3
100
AcDbLine
 10
41.0
 20
170.0
 30
0.0
 11
61.0
 21
170.0
 31
0.0
  0
LINE
  5
707
330
1D
100
AcDbEntity
  8
CSLAYER10
  6
Continuous
 62
     3
100
AcDbLine
 10
41.0
 20
170.0
 30
0.0
 11
42.931852
 21
170.517638
 31
0.0
  0
LINE
  5
708
330
1D
100
AcDbEntity
  8
CSLAYER10
  6
Continuous
 62
     3
100
AcDbLine
 10
41.0
 20
170.0
 30
0.0
 11
42.931852
 21
169.482362
 31
0.0
  0
LINE
  5
709
330
1D
100
AcDbEntity
  8
CSLAYER10
  6
Continuous
 62
     3
100
AcDbLine
 10
61.0
 20
170.0
 30
0.0
 11
59.068148
 21
170.517638
 31
0.0
  0
LINE
  5
70A
330
1D
100
AcDbEntity
  8
CSLAYER10
  6
Continuous
 62
     3
100
AcDbLine
 10
61.0
 20
170.0
 30
0.0
 11
59.068148
 21
169.482362
 31
0.0
  0
TEXT
  5
70B
330
1D
100
AcDbEntity
  8
CSLAYER10
 62
     3
100
AcDbText
 10
62.25
 20
181.0
 30
0.0
 40
4.0
  1
2.5
 41
0.661764705882
  7
FX_FONT
 72
     5
 11
69.75
 21
181.0
 31
0.0
100
AcDbText
  0
LINE
  5
70C
330
1D
100
AcDbEntity
  8
CSLAYER10
  6
Continuous
 62
     3
100
AcDbLine
 10
58.5
 20
195.0
 30
0.0
 11
58.5
 21
179.0
 31
0.0
  0
LINE
  5
70D
330
1D
100
AcDbEntity
  8
CSLAYER10
  6
Continuous
 62
     3
100
AcDbLine
 10
61.0
 20
194.0
 30
0.0
 11
61.0
 21
169.0
 31
0.0
  0
LINE
  5
70E
330
1D
100
AcDbEntity
  8
CSLAYER10
  6
Continuous
 62
     3
100
AcDbLine
 10
71.0
 20
180.0
 30
0.0
 11
53.5
 21
180.0
 31
0.0
  0
LINE
  5
70F
330
1D
100
AcDbEntity
  8
CSLAYER10
  6
Continuous
 62
     3
100
AcDbLine
 10
58.5
 20
180.0
 30
0.0
 11
56.568148
 21
180.517638
 31
0.0
  0
LINE
  5
710
330
1D
100
AcDbEntity
  8
CSLAYER10
  6
Continuous
 62
     3
100
AcDbLine
 10
58.5
 20
180.0
 30
0.0
 11
56.568148
 21
179.482362
 31
0.0
  0
LINE
  5
712
330
1D
100
AcDbEntity
  8
CSLAYER10
  6
Continuous
 62
     3
100
AcDbLine
 10
61.0
 20
180.0
 30
0.0
 11
62.931852
 21
180.517638
 31
0.0
  0
LINE
  5
713
330
1D
100
AcDbEntity
  8
CSLAYER10
  6
Continuous
 62
     3
100
AcDbLine
 10
61.0
 20
180.0
 30
0.0
 11
62.931852
 21
179.482362
 31
0.0
  0
TEXT
  5
715
330
1D
100
AcDbEntity
  8
CSLAYER10
 62
     3
100
AcDbText
 10
526.000061
 20
98.961205
 30
0.0
 40
4.0
  1
21
 50
90.0
 41
0.75
  7
FX_FONT
 72
     5
 11
526.000061
 21
103.961205
 31
0.0
100
AcDbText
  0
LINE
  5
716
330
1D
100
AcDbEntity
  8
CSLAYER10
  6
Continuous
 62
     3
100
AcDbLine
 10
512.955281
 20
90.961202
 30
0.0
 11
528.0
 21
90.961202
 31
0.0
  0
LINE
  5
717
330
1D
100
AcDbEntity
  8
CSLAYER10
  6
Continuous
 62
     3
100
AcDbLine
 10
515.0
 20
111.961202
 30
0.0
 11
528.0
 21
111.961202
 31
0.0
  0
LINE
  5
718
330
1D
100
AcDbEntity
  8
CSLAYER10
  6
Continuous
 62
     3
100
AcDbLine
 10
527.0
 20
90.961202
 30
0.0
 11
527.0
 21
111.961202
 31
0.0
  0
LINE
  5
719
330
1D
100
AcDbEntity
  8
CSLAYER10
  6
Continuous
 62
     3
100
AcDbLine
 10
527.0
 20
90.961202
 30
0.0
 11
526.482362
 21
92.893054
 31
0.0
  0
LINE
  5
71A
330
1D
100
AcDbEntity
  8
CSLAYER10
  6
Continuous
 62
     3
100
AcDbLine
 10
527.0
 20
90.961202
 30
0.0
 11
527.517638
 21
92.893054
 31
0.0
  0
LINE
  5
71B
330
1D
100
AcDbEntity
  8
CSLAYER10
  6
Continuous
 62
     3
100
AcDbLine
 10
527.0
 20
111.961202
 30
0.0
 11
526.482362
 21
110.02935
 31
0.0
  0
LINE
  5
71C
330
1D
100
AcDbEntity
  8
CSLAYER10
  6
Continuous
 62
     3
100
AcDbLine
 10
527.0
 20
111.961202
 30
0.0
 11
527.517638
 21
110.02935
 31
0.0
  0
TEXT
  5
71D
330
1D
100
AcDbEntity
  8
CSLAYER10
 62
     3
100
AcDbText
 10
370.7
 20
371.0
 30
0.0
 40
4.0
  1
2-4mmネジ用穴
 41
0.729020979021
  7
FX_FONT
 72
     5
 11
398.5
 21
371.0
 31
0.0
100
AcDbText
  0
LINE
  5
71E
330
1D
100
AcDbEntity
  8
CSLAYER10
  6
Continuous
 62
     3
100
AcDbLine
 10
422.0
 20
347.5
 30
0.0
 11
399.5
 21
370.0
 31
0.0
  0
LINE
  5
71F
330
1D
100
AcDbEntity
  8
CSLAYER10
  6
Continuous
 62
     3
100
AcDbLine
 10
422.0
 20
347.5
 30
0.0
 11
420.267949
 21
348.5
 31
0.0
  0
LINE
  5
720
330
1D
100
AcDbEntity
  8
CSLAYER10
  6
Continuous
 62
     3
100
AcDbLine
 10
422.0
 20
347.5
 30
0.0
 11
421.0
 21
349.232051
 31
0.0
  0
LINE
  5
721
330
1D
100
AcDbEntity
  8
CSLAYER10
  6
Continuous
 62
     3
100
AcDbLine
 10
399.5
 20
370.0
 30
0.0
 11
369.5
 21
370.0
 31
0.0
  0
LINE
  5
722
102
{ACAD_REACTORS
330
86E
102
}
330
1D
100
AcDbEntity
  8
CSLAYER10
  6
Continuous
 62
     3
100
AcDbLine
 10
480.932288
 20
315.961717
 30
0.0
 11
499.067712
 21
287.20226
 31
0.0
  0
LINE
  5
723
330
1D
100
AcDbEntity
  8
CSLAYER10
  6
Continuous
 62
     3
100
AcDbLine
 10
480.932288
 20
315.961717
 30
0.0
 11
482.40058
 21
314.603734
 31
0.0
  0
LINE
  5
724
330
1D
100
AcDbEntity
  8
CSLAYER10
  6
Continuous
 62
     3
100
AcDbLine
 10
480.932288
 20
315.961717
 30
0.0
 11
481.524875
 21
314.051523
 31
0.0
  0
LINE
  5
725
330
1D
100
AcDbEntity
  8
CSLAYER10
  6
Continuous
 62
     3
100
AcDbLine
 10
499.067712
 20
287.20226
 30
0.0
 11
497.59942
 21
288.560243
 31
0.0
  0
LINE
  5
726
330
1D
100
AcDbEntity
  8
CSLAYER10
  6
Continuous
 62
     3
100
AcDbLine
 10
499.067712
 20
287.20226
 30
0.0
 11
498.475125
 21
289.112454
 31
0.0
  0
TEXT
  5
727
330
1D
100
AcDbEntity
  8
CSLAYER10
 62
     3
100
AcDbText
 10
537.592683303462
 20
96.315927008821
 30
0.0
 40
4.0
  1
21 ～ 48
 50
90.0
 41
0.507503728511
  7
FX_FONT
 72
     5
 11
537.592683303462
 21
108.969686639685
 31
0.0
100
AcDbText
  0
LINE
  5
728
330
1D
100
AcDbEntity
  8
CSLAYER10
  6
Continuous
 62
     3
100
AcDbLine
 10
494.195141
 20
76.175314
 30
0.0
 11
540.0
 21
76.175314
 31
0.0
  0
LINE
  5
729
330
1D
100
AcDbEntity
  8
CSLAYER10
  6
Continuous
 62
     3
100
AcDbLine
 10
494.962753
 20
126.728596
 30
0.0
 11
540.0
 21
126.728596
 31
0.0
  0
LINE
  5
72A
330
1D
100
AcDbEntity
  8
CSLAYER10
  6
Continuous
 62
     3
100
AcDbLine
 10
539.0
 20
76.175314
 30
0.0
 11
539.0
 21
126.728596
 31
0.0
  0
LINE
  5
72B
330
1D
100
AcDbEntity
  8
CSLAYER10
  6
Continuous
 62
     3
100
AcDbLine
 10
539.0
 20
76.175314
 30
0.0
 11
538.482362
 21
78.107166
 31
0.0
  0
LINE
  5
72C
330
1D
100
AcDbEntity
  8
CSLAYER10
  6
Continuous
 62
     3
100
AcDbLine
 10
539.0
 20
76.175314
 30
0.0
 11
539.517638
 21
78.107166
 31
0.0
  0
LINE
  5
72D
330
1D
100
AcDbEntity
  8
CSLAYER10
  6
Continuous
 62
     3
100
AcDbLine
 10
539.0
 20
126.728596
 30
0.0
 11
538.482362
 21
124.796744
 31
0.0
  0
LINE
  5
72E
330
1D
100
AcDbEntity
  8
CSLAYER10
  6
Continuous
 62
     3
100
AcDbLine
 10
539.0
 20
126.728596
 30
0.0
 11
539.517638
 21
124.796744
 31
0.0
  0
TEXT
  5
72F
330
1D
100
AcDbEntity
  8
CSLAYER10
 62
     3
100
AcDbText
 10
528.000061
 20
312.992126
 30
0.0
 40
4.0
  1
28
 50
90.0
 41
0.681818181818
  7
FX_FONT
 72
     5
 11
528.000061
 21
317.992126
 31
0.0
100
AcDbText
  0
LINE
  5
731
330
1D
100
AcDbEntity
  8
CSLAYER10
  6
Continuous
 62
     3
100
AcDbLine
 10
529.0
 20
301.484218
 30
0.0
 11
528.995771227343
 21
301.5
 31
0.0
  0
LINE
  5
732
330
1D
100
AcDbEntity
  8
CSLAYER10
  6
Continuous
 62
     3
100
AcDbLine
 10
529.0
 20
301.484218
 30
0.0
 11
529.004228772657
 21
301.5
 31
0.0
  0
LINE
  5
733
330
1D
100
AcDbEntity
  8
CSLAYER10
  6
Continuous
 62
     3
100
AcDbLine
 10
529.0
 20
329.5
 30
0.0
 11
528.482362
 21
327.568148
 31
0.0
  0
LINE
  5
734
330
1D
100
AcDbEntity
  8
CSLAYER10
  6
Continuous
 62
     3
100
AcDbLine
 10
529.0
 20
329.5
 30
0.0
 11
529.517638
 21
327.568148
 31
0.0
  0
TEXT
  5
736
330
1D
100
AcDbEntity
  8
CSLAYER10
 62
     3
100
AcDbText
 10
538.000061
 20
257.75
 30
0.0
 40
4.0
  1
136
 50
90.0
 41
0.661764705882
  7
FX_FONT
 72
     5
 11
538.000061
 21
265.25
 31
0.0
100
AcDbText
  0
LINE
  5
73A
330
1D
100
AcDbEntity
  8
CSLAYER10
  6
Continuous
 62
     3
100
AcDbLine
 10
539.0
 20
329.5
 30
0.0
 11
538.482362
 21
327.568148
 31
0.0
  0
LINE
  5
73B
330
1D
100
AcDbEntity
  8
CSLAYER10
  6
Continuous
 62
     3
100
AcDbLine
 10
539.0
 20
329.5
 30
0.0
 11
539.517638
 21
327.568148
 31
0.0
  0
TEXT
  5
73C
330
1D
100
AcDbEntity
  8
CSLAYER10
 62
     3
100
AcDbText
 10
538.000061
 20
339.75
 30
0.0
 40
4.0
  1
30.5
 50
90.0
 41
0.651937703731
  7
FX_FONT
 72
     5
 11
538.000061
 21
349.75
 31
0.0
100
AcDbText
  0
LINE
  5
73D
330
1D
100
AcDbEntity
  8
CSLAYER10
  6
Continuous
 62
     3
100
AcDbLine
 10
504.0
 20
329.5
 30
0.0
 11
540.0
 21
329.5
 31
0.0
  0
LINE
  5
73E
330
1D
100
AcDbEntity
  8
CSLAYER10
  6
Continuous
 62
     3
100
AcDbLine
 10
427.0
 20
360.0
 30
0.0
 11
540.0
 21
360.0
 31
0.0
  0
LINE
  5
742
330
1D
100
AcDbEntity
  8
CSLAYER10
  6
Continuous
 62
     3
100
AcDbLine
 10
539.0
 20
360.0
 30
0.0
 11
538.482362
 21
358.068148
 31
0.0
  0
LINE
  5
743
330
1D
100
AcDbEntity
  8
CSLAYER10
  6
Continuous
 62
     3
100
AcDbLine
 10
539.0
 20
360.0
 30
0.0
 11
539.517638
 21
358.068148
 31
0.0
  0
TEXT
  5
744
330
1D
100
AcDbEntity
  8
CSLAYER10
 62
     3
100
AcDbText
 10
538.000061
 20
173.249985
 30
0.0
 40
4.0
  1
30.5
 50
90.0
 41
0.651937703731
  7
FX_FONT
 72
     5
 11
538.000061
 21
183.249985
 31
0.0
100
AcDbText
  0
LINE
  5
745
330
1D
100
AcDbEntity
  8
CSLAYER10
  6
Continuous
 62
     3
100
AcDbLine
 10
427.0
 20
163.0
 30
0.0
 11
540.0
 21
163.0
 31
0.0
  0
LINE
  5
746
330
1D
100
AcDbEntity
  8
CSLAYER10
  6
Continuous
 62
     3
100
AcDbLine
 10
515.0
 20
193.5
 30
0.0
 11
540.0
 21
193.5
 31
0.0
  0
LINE
  5
747
330
1D
100
AcDbEntity
  8
CSLAYER10
  6
Continuous
 62
     3
100
AcDbLine
 10
539.0
 20
193.5
 30
0.0
 11
539.0
 21
329.5
 31
0.0
  0
LINE
  5
748
330
1D
100
AcDbEntity
  8
CSLAYER10
  6
Continuous
 62
     3
100
AcDbLine
 10
539.0
 20
163.0
 30
0.0
 11
538.482362
 21
164.931852
 31
0.0
  0
LINE
  5
749
330
1D
100
AcDbEntity
  8
CSLAYER10
  6
Continuous
 62
     3
100
AcDbLine
 10
539.0
 20
163.0
 30
0.0
 11
539.517638
 21
164.931852
 31
0.0
  0
LINE
  5
74A
330
1D
100
AcDbEntity
  8
CSLAYER10
  6
Continuous
 62
     3
100
AcDbLine
 10
539.517638
 20
195.431852
 30
0.0
 11
539.0
 21
193.5
 31
0.0
  0
LINE
  5
74B
330
1D
100
AcDbEntity
  8
CSLAYER10
  6
Continuous
 62
     3
100
AcDbLine
 10
538.482362
 20
195.431852
 30
0.0
 11
539.0
 21
193.5
 31
0.0
  0
TEXT
  5
74C
330
1D
100
AcDbEntity
  8
CSLAYER10
 62
     3
100
AcDbText
 10
452.5
 20
143.999985
 30
0.0
 40
4.0
  1
(A) 
 41
0.437140353071
  7
FX_FONT
 72
     5
 11
458.794821084222
 21
143.999985
 31
0.0
100
AcDbText
  0
LINE
  5
74D
330
1D
100
AcDbEntity
  8
CSLAYER10
  6
Continuous
 62
     3
100
AcDbLine
 10
420.0
 20
143.0
 30
0.0
 11
490.0
 21
143.0
 31
0.0
  0
LINE
  5
74E
330
1D
100
AcDbEntity
  8
CSLAYER10
  6
Continuous
 62
     3
100
AcDbLine
 10
420.0
 20
143.0
 30
0.0
 11
421.931852
 21
143.517638
 31
0.0
  0
LINE
  5
74F
330
1D
100
AcDbEntity
  8
CSLAYER10
  6
Continuous
 62
     3
100
AcDbLine
 10
420.0
 20
143.0
 30
0.0
 11
421.931852
 21
142.482362
 31
0.0
  0
LINE
  5
750
330
1D
100
AcDbEntity
  8
CSLAYER10
  6
Continuous
 62
     3
100
AcDbLine
 10
490.0
 20
143.0
 30
0.0
 11
488.068148
 21
143.517638
 31
0.0
  0
LINE
  5
751
330
1D
100
AcDbEntity
  8
CSLAYER10
  6
Continuous
 62
     3
100
AcDbLine
 10
490.0
 20
143.0
 30
0.0
 11
488.068148
 21
142.482362
 31
0.0
  0
TEXT
  5
752
330
1D
100
AcDbEntity
  8
CSLAYER10
 62
     3
100
AcDbText
 10
464.5
 20
133.999985
 30
0.0
 40
4.0
  1
(B) 
 41
0.489714530607
  7
FX_FONT
 72
     5
 11
471.551889240736
 21
133.999985
 31
0.0
100
AcDbText
  0
LINE
  5
753
330
1D
100
AcDbEntity
  8
CSLAYER10
  6
Continuous
 62
     3
100
AcDbLine
 10
514.0
 20
192.5
 30
0.0
 11
514.0
 21
132.0
 31
0.0
  0
LINE
  5
754
330
1D
100
AcDbEntity
  8
CSLAYER10
  6
Continuous
 62
     3
100
AcDbLine
 10
420.0
 20
133.0
 30
0.0
 11
514.0
 21
133.0
 31
0.0
  0
LINE
  5
755
330
1D
100
AcDbEntity
  8
CSLAYER10
  6
Continuous
 62
     3
100
AcDbLine
 10
420.0
 20
133.0
 30
0.0
 11
421.931852
 21
133.517638
 31
0.0
  0
LINE
  5
756
330
1D
100
AcDbEntity
  8
CSLAYER10
  6
Continuous
 62
     3
100
AcDbLine
 10
420.0
 20
133.0
 30
0.0
 11
421.931852
 21
132.482362
 31
0.0
  0
LINE
  5
757
330
1D
100
AcDbEntity
  8
CSLAYER10
  6
Continuous
 62
     3
100
AcDbLine
 10
514.0
 20
133.0
 30
0.0
 11
512.068148
 21
133.517638
 31
0.0
  0
LINE
  5
758
330
1D
100
AcDbEntity
  8
CSLAYER10
  6
Continuous
 62
     3
100
AcDbLine
 10
514.0
 20
133.0
 30
0.0
 11
512.068148
 21
132.482362
 31
0.0
  0
TEXT
  5
759
330
1D
100
AcDbEntity
  8
CSLAYER10
 62
     3
100
AcDbText
 10
421.75
 20
153.999985
 30
0.0
 40
4.0
  1
6
 41
0.75
  7
FX_FONT
 72
     5
 11
424.25
 21
153.999985
 31
0.0
100
AcDbText
  0
LINE
  5
75A
330
1D
100
AcDbEntity
  8
CSLAYER10
  6
Continuous
 62
     3
100
AcDbLine
 10
420.0
 20
162.0
 30
0.0
 11
420.0
 21
132.0
 31
0.0
  0
LINE
  5
75B
330
1D
100
AcDbEntity
  8
CSLAYER10
  6
Continuous
 62
     3
100
AcDbLine
 10
426.0
 20
162.0
 30
0.0
 11
426.0
 21
152.0
 31
0.0
  0
LINE
  5
75C
330
1D
100
AcDbEntity
  8
CSLAYER10
  6
Continuous
 62
     3
100
AcDbLine
 10
420.0
 20
153.0
 30
0.0
 11
426.0
 21
153.0
 31
0.0
  0
LINE
  5
75D
330
1D
100
AcDbEntity
  8
CSLAYER10
  6
Continuous
 62
     3
100
AcDbLine
 10
420.0
 20
153.0
 30
0.0
 11
421.931852
 21
153.517638
 31
0.0
  0
LINE
  5
75E
330
1D
100
AcDbEntity
  8
CSLAYER10
  6
Continuous
 62
     3
100
AcDbLine
 10
420.0
 20
153.0
 30
0.0
 11
421.931852
 21
152.482362
 31
0.0
  0
LINE
  5
75F
330
1D
100
AcDbEntity
  8
CSLAYER10
  6
Continuous
 62
     3
100
AcDbLine
 10
426.0
 20
153.0
 30
0.0
 11
424.068148
 21
153.517638
 31
0.0
  0
LINE
  5
760
330
1D
100
AcDbEntity
  8
CSLAYER10
  6
Continuous
 62
     3
100
AcDbLine
 10
426.0
 20
153.0
 30
0.0
 11
424.068148
 21
152.482362
 31
0.0
  0
TEXT
  5
761
330
1D
100
AcDbEntity
  8
CSLAYER10
 62
     3
100
AcDbText
 10
378.5
 20
311.5
 30
0.0
 40
4.0
  1
67
 50
90.0
 41
0.679245283019
  7
FX_FONT
 72
     5
 11
378.5
 21
316.5
 31
0.0
100
AcDbText
  0
LINE
  5
762
330
1D
100
AcDbEntity
  8
CSLAYER10
  6
Continuous
 62
     3
100
AcDbLine
 10
431.0
 20
280.5
 30
0.0
 11
391.0
 21
280.5
 31
0.0
  0
LINE
  5
766
330
1D
100
AcDbEntity
  8
CSLAYER10
  6
Continuous
 62
     3
100
AcDbLine
 10
379.5
 20
347.5
 30
0.0
 11
378.982362
 21
345.568148
 31
0.0
  0
LINE
  5
767
330
1D
100
AcDbEntity
  8
CSLAYER10
  6
Continuous
 62
     3
100
AcDbLine
 10
379.5
 20
347.5
 30
0.0
 11
380.017638
 21
345.568148
 31
0.0
  0
LINE
  5
768
330
1D
100
AcDbEntity
  8
CSLAYER10
  6
Continuous
 62
     3
100
AcDbLine
 10
384.5
 20
280.5
 30
0.0
 11
378.5
 21
280.5
 31
0.0
  0
TEXT
  5
769
330
1D
100
AcDbEntity
  8
CSLAYER10
 62
     3
100
AcDbText
 10
368.5
 20
164.261841
 30
0.0
 40
4.0
  1
12.5
 50
90.0
 41
0.652173913043
  7
FX_FONT
 72
     5
 11
368.5
 21
174.261841
 31
0.0
100
AcDbText
  0
LINE
  5
76A
330
1D
100
AcDbEntity
  8
CSLAYER10
  6
Continuous
 62
     3
100
AcDbLine
 10
368.682752
 20
163.023705
 30
0.0
 11
368.5
 21
163.023705
 31
0.0
  0
LINE
  5
76B
330
1D
100
AcDbEntity
  8
CSLAYER10
  6
Continuous
 62
     3
100
AcDbLine
 10
369.5
 20
175.5
 30
0.0
 11
369.5
 21
347.5
 31
0.0
  0
LINE
  5
76C
330
1D
100
AcDbEntity
  8
CSLAYER10
  6
Continuous
 62
     3
100
AcDbLine
 10
369.5
 20
163.023705
 30
0.0
 11
368.982362
 21
164.955557
 31
0.0
  0
LINE
  5
76D
330
1D
100
AcDbEntity
  8
CSLAYER10
  6
Continuous
 62
     3
100
AcDbLine
 10
369.5
 20
163.023705
 30
0.0
 11
370.017638
 21
164.955557
 31
0.0
  0
LINE
  5
76E
330
1D
100
AcDbEntity
  8
CSLAYER10
  6
Continuous
 62
     3
100
AcDbLine
 10
369.5
 20
175.5
 30
0.0
 11
368.982362
 21
173.568148
 31
0.0
  0
LINE
  5
76F
330
1D
100
AcDbEntity
  8
CSLAYER10
  6
Continuous
 62
     3
100
AcDbLine
 10
369.5
 20
175.5
 30
0.0
 11
370.017638
 21
173.568148
 31
0.0
  0
TEXT
  5
770
330
1D
100
AcDbEntity
  8
CSLAYER10
 62
     3
100
AcDbText
 10
368.5
 20
348.75
 30
0.0
 40
4.0
  1
12.5
 50
90.0
 41
0.652173913043
  7
FX_FONT
 72
     5
 11
368.5
 21
358.75
 31
0.0
100
AcDbText
  0
LINE
  5
774
330
1D
100
AcDbEntity
  8
CSLAYER10
  6
Continuous
 62
     3
100
AcDbLine
 10
369.5
 20
360.0
 30
0.0
 11
368.982362
 21
358.068148
 31
0.0
  0
LINE
  5
775
330
1D
100
AcDbEntity
  8
CSLAYER10
  6
Continuous
 62
     3
100
AcDbLine
 10
369.5
 20
360.0
 30
0.0
 11
370.017638
 21
358.068148
 31
0.0
  0
TEXT
  5
776
330
1D
100
AcDbEntity
  8
CSLAYER10
 62
     3
100
AcDbText
 10
368.5
 20
257.75
 30
0.0
 40
4.0
  1
172
 50
90.0
 41
0.661764705882
  7
FX_FONT
 72
     5
 11
368.5
 21
265.25
 31
0.0
100
AcDbText
  0
LINE
  5
77A
330
1D
100
AcDbEntity
  8
CSLAYER10
  6
Continuous
 62
     3
100
AcDbLine
 10
369.5
 20
347.5
 30
0.0
 11
368.982362
 21
345.568148
 31
0.0
  0
LINE
  5
77B
330
1D
100
AcDbEntity
  8
CSLAYER10
  6
Continuous
 62
     3
100
AcDbLine
 10
369.5
 20
347.5
 30
0.0
 11
370.017638
 21
345.568148
 31
0.0
  0
TEXT
  5
77C
330
1D
100
AcDbEntity
  8
CSLAYER10
 62
     3
100
AcDbText
 10
358.5
 20
257.75
 30
0.0
 40
4.0
  1
197
 50
90.0
 41
0.66165659206
  7
FX_FONT
 72
     5
 11
358.5
 21
265.25
 31
0.0
100
AcDbText
  0
LINE
  5
77D
330
1D
100
AcDbEntity
  8
CSLAYER10
  6
Continuous
 62
     3
100
AcDbLine
 10
419.0
 20
163.0
 30
0.0
 11
358.5
 21
163.0
 31
0.0
  0
LINE
  5
77E
330
1D
100
AcDbEntity
  8
CSLAYER10
  6
Continuous
 62
     3
100
AcDbLine
 10
358.5
 20
360.0
 30
0.0
 11
419.0
 21
360.0
 31
0.0
  0
LINE
  5
77F
330
1D
100
AcDbEntity
  8
CSLAYER10
  6
Continuous
 62
     3
100
AcDbLine
 10
359.5
 20
163.0
 30
0.0
 11
359.5
 21
360.0
 31
0.0
  0
LINE
  5
780
330
1D
100
AcDbEntity
  8
CSLAYER10
  6
Continuous
 62
     3
100
AcDbLine
 10
359.5
 20
163.0
 30
0.0
 11
358.982362
 21
164.931852
 31
0.0
  0
LINE
  5
781
330
1D
100
AcDbEntity
  8
CSLAYER10
  6
Continuous
 62
     3
100
AcDbLine
 10
359.5
 20
163.0
 30
0.0
 11
360.017638
 21
164.931852
 31
0.0
  0
LINE
  5
782
330
1D
100
AcDbEntity
  8
CSLAYER10
  6
Continuous
 62
     3
100
AcDbLine
 10
359.5
 20
360.0
 30
0.0
 11
358.982362
 21
358.068148
 31
0.0
  0
LINE
  5
783
330
1D
100
AcDbEntity
  8
CSLAYER10
  6
Continuous
 62
     3
100
AcDbLine
 10
359.5
 20
360.0
 30
0.0
 11
360.017638
 21
358.068148
 31
0.0
  0
TEXT
  5
784
330
1D
100
AcDbEntity
  8
CSLAYER10
 62
     3
100
AcDbText
 10
388.5
 20
278.0
 30
0.0
 40
4.0
  1
30
 50
90.0
 41
0.705329153605
  7
FX_FONT
 72
     5
 11
388.5
 21
283.0
 31
0.0
100
AcDbText
  0
LINE
  5
785
330
1D
100
AcDbEntity
  8
CSLAYER10
  6
Continuous
 62
     3
100
AcDbLine
 10
398.5
 20
265.5
 30
0.0
 11
388.5
 21
265.5
 31
0.0
  0
LINE
  5
786
330
1D
100
AcDbEntity
  8
CSLAYER10
  6
Continuous
 62
     3
100
AcDbLine
 10
398.5
 20
295.5
 30
0.0
 11
388.5
 21
295.5
 31
0.0
  0
LINE
  5
787
330
1D
100
AcDbEntity
  8
CSLAYER10
  6
Continuous
 62
     3
100
AcDbLine
 10
389.5
 20
265.5
 30
0.0
 11
389.5
 21
295.5
 31
0.0
  0
LINE
  5
788
330
1D
100
AcDbEntity
  8
CSLAYER10
  6
Continuous
 62
     3
100
AcDbLine
 10
389.5
 20
265.5
 30
0.0
 11
388.982362
 21
267.431852
 31
0.0
  0
LINE
  5
789
330
1D
100
AcDbEntity
  8
CSLAYER10
  6
Continuous
 62
     3
100
AcDbLine
 10
389.5
 20
265.5
 30
0.0
 11
390.017638
 21
267.431852
 31
0.0
  0
LINE
  5
78A
330
1D
100
AcDbEntity
  8
CSLAYER10
  6
Continuous
 62
     3
100
AcDbLine
 10
389.5
 20
295.5
 30
0.0
 11
388.982362
 21
293.568148
 31
0.0
  0
LINE
  5
78B
330
1D
100
AcDbEntity
  8
CSLAYER10
  6
Continuous
 62
     3
100
AcDbLine
 10
389.5
 20
295.5
 30
0.0
 11
390.017638
 21
293.568148
 31
0.0
  0
TEXT
  5
78C
330
1D
100
AcDbEntity
  8
CSLAYER10
 62
     3
100
AcDbText
 10
404.75
 20
311.5
 30
0.0
 40
4.0
  1
20.5
 41
0.651937703731
  7
FX_FONT
 72
     5
 11
414.75
 21
311.5
 31
0.0
100
AcDbText
  0
LINE
  5
78D
330
1D
100
AcDbEntity
  8
CSLAYER10
  6
Continuous
 62
     3
100
AcDbLine
 10
399.5
 20
296.5
 30
0.0
 11
399.5
 21
311.5
 31
0.0
  0
LINE
  5
78E
330
1D
100
AcDbEntity
  8
CSLAYER10
  6
Continuous
 62
     3
100
AcDbLine
 10
399.5
 20
310.5
 30
0.0
 11
420.0
 21
310.5
 31
0.0
  0
LINE
  5
78F
330
1D
100
AcDbEntity
  8
CSLAYER10
  6
Continuous
 62
     3
100
AcDbLine
 10
399.5
 20
310.5
 30
0.0
 11
401.431852
 21
311.017638
 31
0.0
  0
LINE
  5
790
330
1D
100
AcDbEntity
  8
CSLAYER10
  6
Continuous
 62
     3
100
AcDbLine
 10
399.5
 20
310.5
 30
0.0
 11
401.431852
 21
309.982362
 31
0.0
  0
LINE
  5
791
330
1D
100
AcDbEntity
  8
CSLAYER10
  6
Continuous
 62
     3
100
AcDbLine
 10
420.0
 20
310.5
 30
0.0
 11
418.068148
 21
311.017638
 31
0.0
  0
LINE
  5
792
330
1D
100
AcDbEntity
  8
CSLAYER10
  6
Continuous
 62
     3
100
AcDbLine
 10
420.0
 20
310.5
 30
0.0
 11
418.068148
 21
309.982362
 31
0.0
  0
LINE
  5
793
330
1D
100
AcDbEntity
  8
CSLAYER1
  6
Continuous
100
AcDbLine
 10
420.0
 20
341.0
 30
0.0
 11
420.078828
 21
341.056998
 31
0.0
  0
LINE
  5
794
330
1D
100
AcDbEntity
  8
CSLAYER1
  6
Continuous
100
AcDbLine
 10
420.078828
 20
341.056998
 30
0.0
 11
420.157648
 21
341.113722
 31
0.0
  0
LINE
  5
795
330
1D
100
AcDbEntity
  8
CSLAYER1
  6
Continuous
100
AcDbLine
 10
420.157648
 20
341.113722
 30
0.0
 11
420.236451
 21
341.169896
 31
0.0
  0
LINE
  5
796
330
1D
100
AcDbEntity
  8
CSLAYER1
  6
Continuous
100
AcDbLine
 10
420.236451
 20
341.169896
 30
0.0
 11
420.31523
 21
341.225245
 31
0.0
  0
LINE
  5
797
330
1D
100
AcDbEntity
  8
CSLAYER1
  6
Continuous
100
AcDbLine
 10
420.31523
 20
341.225245
 30
0.0
 11
420.393977
 21
341.279496
 31
0.0
  0
LINE
  5
798
330
1D
100
AcDbEntity
  8
CSLAYER1
  6
Continuous
100
AcDbLine
 10
420.393977
 20
341.279496
 30
0.0
 11
420.472683
 21
341.332373
 31
0.0
  0
LINE
  5
799
330
1D
100
AcDbEntity
  8
CSLAYER1
  6
Continuous
100
AcDbLine
 10
420.472683
 20
341.332373
 30
0.0
 11
420.55134
 21
341.383601
 31
0.0
  0
LINE
  5
79A
330
1D
100
AcDbEntity
  8
CSLAYER1
  6
Continuous
100
AcDbLine
 10
420.55134
 20
341.383601
 30
0.0
 11
420.62994
 21
341.432906
 31
0.0
  0
LINE
  5
79B
330
1D
100
AcDbEntity
  8
CSLAYER1
  6
Continuous
100
AcDbLine
 10
420.62994
 20
341.432906
 30
0.0
 11
420.708476
 21
341.480014
 31
0.0
  0
LINE
  5
79C
330
1D
100
AcDbEntity
  8
CSLAYER1
  6
Continuous
100
AcDbLine
 10
420.708476
 20
341.480014
 30
0.0
 11
420.786938
 21
341.524648
 31
0.0
  0
LINE
  5
79D
330
1D
100
AcDbEntity
  8
CSLAYER1
  6
Continuous
100
AcDbLine
 10
420.786938
 20
341.524648
 30
0.0
 11
420.865319
 21
341.566535
 31
0.0
  0
LINE
  5
79E
330
1D
100
AcDbEntity
  8
CSLAYER1
  6
Continuous
100
AcDbLine
 10
420.865319
 20
341.566535
 30
0.0
 11
420.94361
 21
341.605399
 31
0.0
  0
LINE
  5
79F
330
1D
100
AcDbEntity
  8
CSLAYER1
  6
Continuous
100
AcDbLine
 10
420.94361
 20
341.605399
 30
0.0
 11
421.021804
 21
341.640967
 31
0.0
  0
LINE
  5
7A0
330
1D
100
AcDbEntity
  8
CSLAYER1
  6
Continuous
100
AcDbLine
 10
421.021804
 20
341.640967
 30
0.0
 11
421.099893
 21
341.672963
 31
0.0
  0
LINE
  5
7A1
330
1D
100
AcDbEntity
  8
CSLAYER1
  6
Continuous
100
AcDbLine
 10
421.099893
 20
341.672963
 30
0.0
 11
421.177867
 21
341.701112
 31
0.0
  0
LINE
  5
7A2
330
1D
100
AcDbEntity
  8
CSLAYER1
  6
Continuous
100
AcDbLine
 10
421.177867
 20
341.701112
 30
0.0
 11
421.25572
 21
341.72514
 31
0.0
  0
LINE
  5
7A3
330
1D
100
AcDbEntity
  8
CSLAYER1
  6
Continuous
100
AcDbLine
 10
421.25572
 20
341.72514
 30
0.0
 11
421.333443
 21
341.744772
 31
0.0
  0
LINE
  5
7A4
330
1D
100
AcDbEntity
  8
CSLAYER1
  6
Continuous
100
AcDbLine
 10
421.333443
 20
341.744772
 30
0.0
 11
421.411027
 21
341.759734
 31
0.0
  0
LINE
  5
7A5
330
1D
100
AcDbEntity
  8
CSLAYER1
  6
Continuous
100
AcDbLine
 10
421.411027
 20
341.759734
 30
0.0
 11
421.488465
 21
341.769749
 31
0.0
  0
LINE
  5
7A6
330
1D
100
AcDbEntity
  8
CSLAYER1
  6
Continuous
100
AcDbLine
 10
421.488465
 20
341.769749
 30
0.0
 11
421.565749
 21
341.774545
 31
0.0
  0
LINE
  5
7A7
330
1D
100
AcDbEntity
  8
CSLAYER1
  6
Continuous
100
AcDbLine
 10
421.565749
 20
341.774545
 30
0.0
 11
421.64287
 21
341.773845
 31
0.0
  0
LINE
  5
7A8
330
1D
100
AcDbEntity
  8
CSLAYER1
  6
Continuous
100
AcDbLine
 10
421.64287
 20
341.773845
 30
0.0
 11
421.76182
 21
341.761678
 31
0.0
  0
LINE
  5
7A9
330
1D
100
AcDbEntity
  8
CSLAYER1
  6
Continuous
100
AcDbLine
 10
421.76182
 20
341.761678
 30
0.0
 11
421.880426
 21
341.736942
 31
0.0
  0
LINE
  5
7AA
330
1D
100
AcDbEntity
  8
CSLAYER1
  6
Continuous
100
AcDbLine
 10
421.880426
 20
341.736942
 30
0.0
 11
421.998754
 21
341.70087
 31
0.0
  0
LINE
  5
7AB
102
{ACAD_REACTORS
330
873
102
}
330
1D
100
AcDbEntity
  8
CSLAYER1
  6
Continuous
100
AcDbLine
 10
421.998754
 20
341.70087
 30
0.0
 11
422.116868
 21
341.654694
 31
0.0
  0
LINE
  5
7AC
102
{ACAD_REACTORS
330
873
102
}
330
1D
100
AcDbEntity
  8
CSLAYER1
  6
Continuous
100
AcDbLine
 10
422.116868
 20
341.654694
 30
0.0
 11
422.234833
 21
341.599646
 31
0.0
  0
LINE
  5
7AD
102
{ACAD_REACTORS
330
873
102
}
330
1D
100
AcDbEntity
  8
CSLAYER1
  6
Continuous
100
AcDbLine
 10
422.234833
 20
341.599646
 30
0.0
 11
422.352714
 21
341.536959
 31
0.0
  0
LINE
  5
7AE
102
{ACAD_REACTORS
330
873
102
}
330
1D
100
AcDbEntity
  8
CSLAYER1
  6
Continuous
100
AcDbLine
 10
422.352714
 20
341.536959
 30
0.0
 11
422.470576
 21
341.467865
 31
0.0
  0
LINE
  5
7AF
102
{ACAD_REACTORS
330
873
102
}
330
1D
100
AcDbEntity
  8
CSLAYER1
  6
Continuous
100
AcDbLine
 10
422.470576
 20
341.467865
 30
0.0
 11
422.588483
 21
341.393596
 31
0.0
  0
LINE
  5
7B0
102
{ACAD_REACTORS
330
873
102
}
330
1D
100
AcDbEntity
  8
CSLAYER1
  6
Continuous
100
AcDbLine
 10
422.588483
 20
341.393596
 30
0.0
 11
422.706501
 21
341.315384
 31
0.0
  0
LINE
  5
7B1
102
{ACAD_REACTORS
330
873
102
}
330
1D
100
AcDbEntity
  8
CSLAYER1
  6
Continuous
100
AcDbLine
 10
422.706501
 20
341.315384
 30
0.0
 11
422.824694
 21
341.234461
 31
0.0
  0
LINE
  5
7B2
102
{ACAD_REACTORS
330
873
102
}
330
1D
100
AcDbEntity
  8
CSLAYER1
  6
Continuous
100
AcDbLine
 10
422.824694
 20
341.234461
 30
0.0
 11
422.943127
 21
341.15206
 31
0.0
  0
LINE
  5
7B3
102
{ACAD_REACTORS
330
873
102
}
330
1D
100
AcDbEntity
  8
CSLAYER1
  6
Continuous
100
AcDbLine
 10
422.943127
 20
341.15206
 30
0.0
 11
423.061865
 21
341.069412
 31
0.0
  0
LINE
  5
7B4
102
{ACAD_REACTORS
330
873
102
}
330
1D
100
AcDbEntity
  8
CSLAYER1
  6
Continuous
100
AcDbLine
 10
423.061865
 20
341.069412
 30
0.0
 11
423.180973
 21
340.987751
 31
0.0
  0
LINE
  5
7B5
102
{ACAD_REACTORS
330
873
102
}
330
1D
100
AcDbEntity
  8
CSLAYER1
  6
Continuous
100
AcDbLine
 10
423.180973
 20
340.987751
 30
0.0
 11
423.300515
 21
340.908308
 31
0.0
  0
LINE
  5
7B6
102
{ACAD_REACTORS
330
873
102
}
330
1D
100
AcDbEntity
  8
CSLAYER1
  6
Continuous
100
AcDbLine
 10
423.300515
 20
340.908308
 30
0.0
 11
423.420557
 21
340.832315
 31
0.0
  0
LINE
  5
7B7
102
{ACAD_REACTORS
330
873
102
}
330
1D
100
AcDbEntity
  8
CSLAYER1
  6
Continuous
100
AcDbLine
 10
423.420557
 20
340.832315
 30
0.0
 11
423.541162
 21
340.761004
 31
0.0
  0
LINE
  5
7B8
102
{ACAD_REACTORS
330
873
102
}
330
1D
100
AcDbEntity
  8
CSLAYER1
  6
Continuous
100
AcDbLine
 10
423.541162
 20
340.761004
 30
0.0
 11
423.662397
 21
340.695609
 31
0.0
  0
LINE
  5
7B9
102
{ACAD_REACTORS
330
873
102
}
330
1D
100
AcDbEntity
  8
CSLAYER1
  6
Continuous
100
AcDbLine
 10
423.662397
 20
340.695609
 30
0.0
 11
423.784326
 21
340.63736
 31
0.0
  0
LINE
  5
7BA
102
{ACAD_REACTORS
330
873
102
}
330
1D
100
AcDbEntity
  8
CSLAYER1
  6
Continuous
100
AcDbLine
 10
423.784326
 20
340.63736
 30
0.0
 11
423.907013
 21
340.587491
 31
0.0
  0
LINE
  5
7BB
102
{ACAD_REACTORS
330
873
102
}
330
1D
100
AcDbEntity
  8
CSLAYER1
  6
Continuous
100
AcDbLine
 10
423.907013
 20
340.587491
 30
0.0
 11
424.030524
 21
340.547233
 31
0.0
  0
LINE
  5
7BC
330
1D
100
AcDbEntity
  8
CSLAYER1
  6
Continuous
100
AcDbLine
 10
424.030524
 20
340.547233
 30
0.0
 11
424.154923
 21
340.517819
 31
0.0
  0
LINE
  5
7BD
330
1D
100
AcDbEntity
  8
CSLAYER1
  6
Continuous
100
AcDbLine
 10
424.154923
 20
340.517819
 30
0.0
 11
424.239924
 21
340.504546
 31
0.0
  0
LINE
  5
7BE
330
1D
100
AcDbEntity
  8
CSLAYER1
  6
Continuous
100
AcDbLine
 10
424.239924
 20
340.504546
 30
0.0
 11
424.325344
 21
340.496576
 31
0.0
  0
LINE
  5
7BF
330
1D
100
AcDbEntity
  8
CSLAYER1
  6
Continuous
100
AcDbLine
 10
424.325344
 20
340.496576
 30
0.0
 11
424.41116
 21
340.493643
 31
0.0
  0
LINE
  5
7C0
330
1D
100
AcDbEntity
  8
CSLAYER1
  6
Continuous
100
AcDbLine
 10
424.41116
 20
340.493643
 30
0.0
 11
424.497354
 21
340.495482
 31
0.0
  0
LINE
  5
7C1
330
1D
100
AcDbEntity
  8
CSLAYER1
  6
Continuous
100
AcDbLine
 10
424.497354
 20
340.495482
 30
0.0
 11
424.583904
 21
340.501829
 31
0.0
  0
LINE
  5
7C2
330
1D
100
AcDbEntity
  8
CSLAYER1
  6
Continuous
100
AcDbLine
 10
424.583904
 20
340.501829
 30
0.0
 11
424.670788
 21
340.512418
 31
0.0
  0
LINE
  5
7C3
330
1D
100
AcDbEntity
  8
CSLAYER1
  6
Continuous
100
AcDbLine
 10
424.670788
 20
340.512418
 30
0.0
 11
424.757986
 21
340.526983
 31
0.0
  0
LINE
  5
7C4
330
1D
100
AcDbEntity
  8
CSLAYER1
  6
Continuous
100
AcDbLine
 10
424.757986
 20
340.526983
 30
0.0
 11
424.845477
 21
340.54526
 31
0.0
  0
LINE
  5
7C5
330
1D
100
AcDbEntity
  8
CSLAYER1
  6
Continuous
100
AcDbLine
 10
424.845477
 20
340.54526
 30
0.0
 11
424.93324
 21
340.566984
 31
0.0
  0
LINE
  5
7C6
330
1D
100
AcDbEntity
  8
CSLAYER1
  6
Continuous
100
AcDbLine
 10
424.93324
 20
340.566984
 30
0.0
 11
425.021254
 21
340.591889
 31
0.0
  0
LINE
  5
7C7
330
1D
100
AcDbEntity
  8
CSLAYER1
  6
Continuous
100
AcDbLine
 10
425.021254
 20
340.591889
 30
0.0
 11
425.109499
 21
340.619711
 31
0.0
  0
LINE
  5
7C8
330
1D
100
AcDbEntity
  8
CSLAYER1
  6
Continuous
100
AcDbLine
 10
425.109499
 20
340.619711
 30
0.0
 11
425.197952
 21
340.650184
 31
0.0
  0
LINE
  5
7C9
330
1D
100
AcDbEntity
  8
CSLAYER1
  6
Continuous
100
AcDbLine
 10
425.197952
 20
340.650184
 30
0.0
 11
425.286595
 21
340.683043
 31
0.0
  0
LINE
  5
7CA
330
1D
100
AcDbEntity
  8
CSLAYER1
  6
Continuous
100
AcDbLine
 10
425.286595
 20
340.683043
 30
0.0
 11
425.375404
 21
340.718023
 31
0.0
  0
LINE
  5
7CB
330
1D
100
AcDbEntity
  8
CSLAYER1
  6
Continuous
100
AcDbLine
 10
425.375404
 20
340.718023
 30
0.0
 11
425.46436
 21
340.754859
 31
0.0
  0
LINE
  5
7CC
330
1D
100
AcDbEntity
  8
CSLAYER1
  6
Continuous
100
AcDbLine
 10
425.46436
 20
340.754859
 30
0.0
 11
425.553441
 21
340.793285
 31
0.0
  0
LINE
  5
7CD
330
1D
100
AcDbEntity
  8
CSLAYER1
  6
Continuous
100
AcDbLine
 10
425.553441
 20
340.793285
 30
0.0
 11
425.642628
 21
340.833037
 31
0.0
  0
LINE
  5
7CE
330
1D
100
AcDbEntity
  8
CSLAYER1
  6
Continuous
100
AcDbLine
 10
425.642628
 20
340.833037
 30
0.0
 11
425.731897
 21
340.87385
 31
0.0
  0
LINE
  5
7CF
330
1D
100
AcDbEntity
  8
CSLAYER1
  6
Continuous
100
AcDbLine
 10
425.731897
 20
340.87385
 30
0.0
 11
425.82123
 21
340.915458
 31
0.0
  0
LINE
  5
7D0
330
1D
100
AcDbEntity
  8
CSLAYER1
  6
Continuous
100
AcDbLine
 10
425.82123
 20
340.915458
 30
0.0
 11
425.910605
 21
340.957597
 31
0.0
  0
LINE
  5
7D1
330
1D
100
AcDbEntity
  8
CSLAYER1
  6
Continuous
100
AcDbLine
 10
425.910605
 20
340.957597
 30
0.0
 11
426.0
 21
341.0
 31
0.0
  0
TEXT
  5
7D2
330
1D
100
AcDbEntity
  8
CSLAYER10
 62
     3
100
AcDbText
 10
301.5
 20
371.0
 30
0.0
 40
4.0
  1
20
 41
0.705329153605
  7
FX_FONT
 72
     5
 11
306.5
 21
371.0
 31
0.0
100
AcDbText
  0
LINE
  5
7D3
330
1D
100
AcDbEntity
  8
CSLAYER10
  6
Continuous
 62
     3
100
AcDbLine
 10
314.0
 20
310.723413
 30
0.0
 11
314.0
 21
371.0
 31
0.0
  0
LINE
  5
7D7
330
1D
100
AcDbEntity
  8
CSLAYER10
  6
Continuous
 62
     3
100
AcDbLine
 10
314.0
 20
370.0
 30
0.0
 11
312.068148
 21
370.517638
 31
0.0
  0
LINE
  5
7D8
330
1D
100
AcDbEntity
  8
CSLAYER10
  6
Continuous
 62
     3
100
AcDbLine
 10
314.0
 20
370.0
 30
0.0
 11
312.068148
 21
369.482362
 31
0.0
  0
TEXT
  5
7D9
330
1D
100
AcDbEntity
  8
CSLAYER10
 62
     3
100
AcDbText
 10
272.5
 20
371.0
 30
0.0
 40
4.0
  1
38
 41
0.681818181818
  7
FX_FONT
 72
     5
 11
277.5
 21
371.0
 31
0.0
100
AcDbText
  0
LINE
  5
7DA
330
1D
100
AcDbEntity
  8
CSLAYER10
  6
Continuous
 62
     3
100
AcDbLine
 10
294.0
 20
322.184909
 30
0.0
 11
294.0
 21
371.0
 31
0.0
  0
LINE
  5
7DC
330
1D
100
AcDbEntity
  8
CSLAYER10
  6
Continuous
 62
     3
100
AcDbLine
 10
294.0
 20
370.0
 30
0.0
 11
292.068148
 21
370.517638
 31
0.0
  0
LINE
  5
7DD
330
1D
100
AcDbEntity
  8
CSLAYER10
  6
Continuous
 62
     3
100
AcDbLine
 10
294.0
 20
370.0
 30
0.0
 11
292.068148
 21
369.482362
 31
0.0
  0
TEXT
  5
7E0
330
1D
100
AcDbEntity
  8
CSLAYER10
 62
     3
100
AcDbText
 10
283.5
 20
346.922882
 30
0.0
 40
4.0
  1
H
 41
0.9
  7
FX_FONT
 72
     5
 11
286.5
 21
346.922882
 31
0.0
100
AcDbText
  0
LINE
  5
7E1
330
1D
100
AcDbEntity
  8
CSLAYER10
  6
Continuous
 62
     3
100
AcDbLine
 10
276.0
 20
326.5
 30
0.0
 11
276.0
 21
346.922881
 31
0.0
  0
LINE
  5
7E2
330
1D
100
AcDbEntity
  8
CSLAYER10
  6
Continuous
 62
     3
100
AcDbLine
 10
294.0
 20
345.922881
 30
0.0
 11
276.0
 21
345.922881
 31
0.0
  0
LINE
  5
7E3
330
1D
100
AcDbEntity
  8
CSLAYER10
  6
Continuous
 62
     3
100
AcDbLine
 10
294.0
 20
345.922881
 30
0.0
 11
292.068148
 21
346.440519
 31
0.0
  0
LINE
  5
7E4
330
1D
100
AcDbEntity
  8
CSLAYER10
  6
Continuous
 62
     3
100
AcDbLine
 10
294.0
 20
345.922881
 30
0.0
 11
292.068148
 21
345.405243
 31
0.0
  0
LINE
  5
7E5
330
1D
100
AcDbEntity
  8
CSLAYER10
  6
Continuous
 62
     3
100
AcDbLine
 10
276.0
 20
345.922881
 30
0.0
 11
277.931852
 21
346.440519
 31
0.0
  0
LINE
  5
7E6
330
1D
100
AcDbEntity
  8
CSLAYER10
  6
Continuous
 62
     3
100
AcDbLine
 10
276.0
 20
345.922881
 30
0.0
 11
277.931852
 21
345.405243
 31
0.0
  0
TEXT
  5
7E7
330
1D
100
AcDbEntity
  8
CSLAYER10
 62
     3
100
AcDbText
 10
253.5
 20
306.5
 30
0.0
 40
4.0
  1
12
 41
0.681818181818
  7
FX_FONT
 72
     5
 11
258.5
 21
306.5
 31
0.0
100
AcDbText
  0
LINE
  5
7E8
330
1D
100
AcDbEntity
  8
CSLAYER10
  6
Continuous
 62
     3
100
AcDbLine
 10
250.0
 20
296.5
 30
0.0
 11
250.0
 21
306.5
 31
0.0
  0
LINE
  5
7E9
330
1D
100
AcDbEntity
  8
CSLAYER10
  6
Continuous
 62
     3
100
AcDbLine
 10
262.0
 20
296.5
 30
0.0
 11
262.0
 21
306.5
 31
0.0
  0
LINE
  5
7EA
330
1D
100
AcDbEntity
  8
CSLAYER10
  6
Continuous
 62
     3
100
AcDbLine
 10
250.0
 20
305.5
 30
0.0
 11
262.0
 21
305.5
 31
0.0
  0
LINE
  5
7EB
330
1D
100
AcDbEntity
  8
CSLAYER10
  6
Continuous
 62
     3
100
AcDbLine
 10
250.0
 20
305.5
 30
0.0
 11
251.931852
 21
306.017638
 31
0.0
  0
LINE
  5
7EC
330
1D
100
AcDbEntity
  8
CSLAYER10
  6
Continuous
 62
     3
100
AcDbLine
 10
250.0
 20
305.5
 30
0.0
 11
251.931852
 21
304.982362
 31
0.0
  0
LINE
  5
7ED
330
1D
100
AcDbEntity
  8
CSLAYER10
  6
Continuous
 62
     3
100
AcDbLine
 10
262.0
 20
305.5
 30
0.0
 11
260.068148
 21
306.017638
 31
0.0
  0
LINE
  5
7EE
330
1D
100
AcDbEntity
  8
CSLAYER10
  6
Continuous
 62
     3
100
AcDbLine
 10
262.0
 20
305.5
 30
0.0
 11
260.068148
 21
304.982362
 31
0.0
  0
TEXT
  5
7EF
330
1D
100
AcDbEntity
  8
CSLAYER10
 62
     3
100
AcDbText
 10
235.75
 20
371.0
 30
0.0
 40
4.0
  1
A
 41
0.75
  7
FX_FONT
 72
     5
 11
238.25
 21
371.0
 31
0.0
100
AcDbText
  0
LINE
  5
7F0
330
1D
100
AcDbEntity
  8
CSLAYER10
  6
Continuous
 62
     3
100
AcDbLine
 10
218.0
 20
322.184909
 30
0.0
 11
218.0
 21
371.0
 31
0.0
  0
LINE
  5
7F1
330
1D
100
AcDbEntity
  8
CSLAYER10
  6
Continuous
 62
     3
100
AcDbLine
 10
218.0
 20
370.0
 30
0.0
 11
256.0
 21
370.0
 31
0.0
  0
LINE
  5
7F2
330
1D
100
AcDbEntity
  8
CSLAYER10
  6
Continuous
 62
     3
100
AcDbLine
 10
218.0
 20
370.0
 30
0.0
 11
219.931852
 21
370.517638
 31
0.0
  0
LINE
  5
7F3
330
1D
100
AcDbEntity
  8
CSLAYER10
  6
Continuous
 62
     3
100
AcDbLine
 10
218.0
 20
370.0
 30
0.0
 11
219.931852
 21
369.482362
 31
0.0
  0
LINE
  5
7F4
330
1D
100
AcDbEntity
  8
CSLAYER10
  6
Continuous
 62
     3
100
AcDbLine
 10
256.0
 20
370.0
 30
0.0
 11
254.068148
 21
370.517638
 31
0.0
  0
LINE
  5
7F5
330
1D
100
AcDbEntity
  8
CSLAYER10
  6
Continuous
 62
     3
100
AcDbLine
 10
256.0
 20
370.0
 30
0.0
 11
254.068148
 21
369.482362
 31
0.0
  0
TEXT
  5
7F6
330
1D
100
AcDbEntity
  8
CSLAYER10
 62
     3
100
AcDbText
 10
253.5
 20
152.0
 30
0.0
 40
4.0
  1
26
 41
0.681818181818
  7
FX_FONT
 72
     5
 11
258.5
 21
152.0
 31
0.0
100
AcDbText
  0
LINE
  5
7F7
330
1D
100
AcDbEntity
  8
CSLAYER10
  6
Continuous
 62
     3
100
AcDbLine
 10
243.0
 20
162.0
 30
0.0
 11
243.0
 21
150.0
 31
0.0
  0
LINE
  5
7F8
330
1D
100
AcDbEntity
  8
CSLAYER10
  6
Continuous
 62
     3
100
AcDbLine
 10
269.0
 20
162.0
 30
0.0
 11
269.0
 21
150.0
 31
0.0
  0
LINE
  5
7F9
330
1D
100
AcDbEntity
  8
CSLAYER10
  6
Continuous
 62
     3
100
AcDbLine
 10
243.0
 20
151.0
 30
0.0
 11
269.0
 21
151.0
 31
0.0
  0
LINE
  5
7FA
330
1D
100
AcDbEntity
  8
CSLAYER10
  6
Continuous
 62
     3
100
AcDbLine
 10
243.0
 20
151.0
 30
0.0
 11
244.931852
 21
151.517638
 31
0.0
  0
LINE
  5
7FB
330
1D
100
AcDbEntity
  8
CSLAYER10
  6
Continuous
 62
     3
100
AcDbLine
 10
243.0
 20
151.0
 30
0.0
 11
244.931852
 21
150.482362
 31
0.0
  0
LINE
  5
7FC
330
1D
100
AcDbEntity
  8
CSLAYER10
  6
Continuous
 62
     3
100
AcDbLine
 10
269.0
 20
151.0
 30
0.0
 11
267.068148
 21
151.517638
 31
0.0
  0
LINE
  5
7FD
330
1D
100
AcDbEntity
  8
CSLAYER10
  6
Continuous
 62
     3
100
AcDbLine
 10
269.0
 20
151.0
 30
0.0
 11
267.068148
 21
150.482362
 31
0.0
  0
TEXT
  5
7FE
330
1D
100
AcDbEntity
  8
CSLAYER10
 62
     3
100
AcDbText
 10
225.5
 20
346.922882
 30
0.0
 40
4.0
  1
H
 41
0.9
  7
FX_FONT
 72
     5
 11
228.5
 21
346.922882
 31
0.0
100
AcDbText
  0
LINE
  5
7FF
330
1D
100
AcDbEntity
  8
CSLAYER10
  6
Continuous
 62
     3
100
AcDbLine
 10
236.0
 20
326.5
 30
0.0
 11
236.0
 21
346.922881
 31
0.0
  0
LINE
  5
800
330
1D
100
AcDbEntity
  8
CSLAYER10
  6
Continuous
 62
     3
100
AcDbLine
 10
218.0
 20
345.922881
 30
0.0
 11
236.0
 21
345.922881
 31
0.0
  0
LINE
  5
801
330
1D
100
AcDbEntity
  8
CSLAYER10
  6
Continuous
 62
     3
100
AcDbLine
 10
218.0
 20
345.922881
 30
0.0
 11
219.931852
 21
346.440519
 31
0.0
  0
LINE
  5
802
330
1D
100
AcDbEntity
  8
CSLAYER10
  6
Continuous
 62
     3
100
AcDbLine
 10
218.0
 20
345.922881
 30
0.0
 11
219.931852
 21
345.405243
 31
0.0
  0
LINE
  5
803
330
1D
100
AcDbEntity
  8
CSLAYER10
  6
Continuous
 62
     3
100
AcDbLine
 10
236.0
 20
345.922881
 30
0.0
 11
234.068148
 21
346.440519
 31
0.0
  0
LINE
  5
804
330
1D
100
AcDbEntity
  8
CSLAYER10
  6
Continuous
 62
     3
100
AcDbLine
 10
236.0
 20
345.922881
 30
0.0
 11
234.068148
 21
345.405243
 31
0.0
  0
LINE
  5
806
330
1D
100
AcDbEntity
  8
CSLAYER10
  6
Continuous
 62
     3
100
AcDbLine
 10
233.648365
 20
325.5
 30
0.0
 11
195.0
 21
325.5
 31
0.0
  0
LINE
  5
807
330
1D
100
AcDbEntity
  8
CSLAYER10
  6
Continuous
 62
     3
100
AcDbLine
 10
232.771986
 20
277.5
 30
0.0
 11
195.0
 21
277.5
 31
0.0
  0
LINE
  5
808
330
1D
100
AcDbEntity
  8
CSLAYER10
  6
Continuous
 62
     3
100
AcDbLine
 10
196.0
 20
325.5
 30
0.0
 11
196.0
 21
277.5
 31
0.0
  0
LINE
  5
809
330
1D
100
AcDbEntity
  8
CSLAYER10
  6
Continuous
 62
     3
100
AcDbLine
 10
196.0
 20
325.5
 30
0.0
 11
195.482362
 21
323.568148
 31
0.0
  0
LINE
  5
80A
330
1D
100
AcDbEntity
  8
CSLAYER10
  6
Continuous
 62
     3
100
AcDbLine
 10
196.0
 20
325.5
 30
0.0
 11
196.517638
 21
323.568148
 31
0.0
  0
LINE
  5
80B
330
1D
100
AcDbEntity
  8
CSLAYER10
  6
Continuous
 62
     3
100
AcDbLine
 10
196.0
 20
277.5
 30
0.0
 11
195.482362
 21
279.431852
 31
0.0
  0
LINE
  5
80C
330
1D
100
AcDbEntity
  8
CSLAYER10
  6
Continuous
 62
     3
100
AcDbLine
 10
196.0
 20
277.5
 30
0.0
 11
196.517638
 21
279.431852
 31
0.0
  0
TEXT
  5
840
330
1D
100
AcDbEntity
  8
CSLAYER10
 62
     3
100
AcDbText
 10
324.617256003815
 20
299.425664190943
 30
0.0
 40
4.0
  1
D
 50
90.0
 41
0.9
  7
FX_FONT
 72
     5
 11
324.617256003815
 21
302.425664190943
 31
0.0
100
AcDbText
  0
TEXT
  5
86D
330
1D
100
AcDbEntity
  8
CSLAYER10
 62
     3
100
AcDbText
 10
194.327065027317
 20
299.951082243808
 30
0.0
 40
4.0
  1
D
 50
90.0
 41
0.9
  7
FX_FONT
 72
     5
 11
194.327065027317
 21
302.951082243808
 31
0.0
100
AcDbText
  0
HATCH
  5
86E
102
{ACAD_XDICTIONARY
360
870
102
}
330
1D
100
AcDbEntity
  8
CSLAYER10
 62
     3
100
AcDbHatch
 10
0.0
 20
0.0
 30
0.0
210
0.0
220
0.0
230
1.0
  2
_USER
 70
     0
 71
     1
 91
        5
 92
        7
 72
     1
 73
     1
 93
        4
 10
507.0
 20
301.5
 42
0.414213562373095
 10
490.0
 20
318.5
 42
0.0
 10
490.0
 20
301.5933400697224
 42
0.0
 10
490.058875
 20
301.5
 42
0.0
 97
        4
330
2BC
330
402
330
404
330
405
 92
        7
 72
     1
 73
     1
 93
        3
 10
490.0
 20
318.5
 42
0.1408709037236796
 10
480.9727154090199
 20
315.905142585669
 42
0.0
 10
490.0
 20
301.5933400697224
 42
0.0
 97
        3
330
2BC
330
404
330
402
 92
        7
 72
     1
 73
     1
 93
        4
 10
480.9693095221629
 20
315.9030076544277
 42
0.258209249257137
 10
473.0
 20
301.5
 42
0.0
 10
490.0
 20
301.5
 42
0.0
 10
490.0
 20
301.5819885000001
 42
0.0
 97
        4
330
2BC
330
405
330
402
330
722
 92
        7
 72
     1
 73
     1
 93
        3
 10
473.0
 20
301.5
 42
0.414213562373095
 10
490.0
 20
284.5
 42
0.0
 10
490.0
 20
301.5
 42
0.0
 97
        3
330
2BC
330
402
330
405
 92
        7
 72
     1
 73
     1
 93
        5
 10
490.0
 20
284.5
 42
0.414213562373095
 10
507.0
 20
301.5
 42
0.0
 10
490.058875
 20
301.5
 42
0.0
 10
490.0517011225429
 20
301.5
 42
0.0
 10
490.0
 20
301.5
 42
0.0
 97
        3
330
2BC
330
405
330
402
 75
     0
 76
     0
 52
45.0
 41
1.0
 77
     0
 78
     1
 53
45.0
 43
0.0
 44
0.0
 45
-0.7071067811865475
 46
0.7071067811865476
 79
     0
 47
0.0
 98
        5
 10
499.1744430932933
 20
306.7255426307043
 10
486.4462973176164
 20
311.8335485012062
 10
482.7618340667626
 20
305.385737812212
 10
482.7618340667626
 20
295.9233662816101
 10
490.2982361707818
 20
292.5738542353793
1001
ACAD
1010
0.0
1020
0.0
1030
0.0
1001
AcadAnnotative
1000
AnnotativeData
1002
{
1070
     1
1070
     0
1002
}
  0
HATCH
  5
873
102
{ACAD_XDICTIONARY
360
874
102
}
330
1D
100
AcDbEntity
  8
CSLAYER10
 62
     3
100
AcDbHatch
 10
0.0
 20
0.0
 30
0.0
210
0.0
220
0.0
230
1.0
  2
_USER
 70
     0
 71
     1
 91
        2
 92
        7
 72
     1
 73
     1
 93
        8
 10
422.5857865
 20
351.4142135
 42
0.0
 10
424.0
 20
350.0
 42
0.0
 10
425.414214
 20
351.414214
 42
0.0
 10
424.0
 20
352.828427
 42
0.0
 10
424.0
 20
360.0
 42
0.0
 10
422.0
 20
360.0
 42
0.0
 10
422.0
 20
352.828427
 42
0.198912367379658
 10
422.5857864376269
 20
351.4142134376269
 42
0.0
 97
        7
330
2A9
330
2A8
330
2A4
330
2A3
330
2A0
330
2A2
330
2AA
 92
        7
 72
     1
 73
     1
 93
       26
 10
422.234833
 20
341.599646
 42
0.0
 10
422.352714
 20
341.536959
 42
0.0
 10
422.470576
 20
341.467865
 42
0.0
 10
422.588483
 20
341.393596
 42
0.0
 10
422.706501
 20
341.315384
 42
0.0
 10
422.824694
 20
341.234461
 42
0.0
 10
422.943127
 20
341.15206
 42
0.0
 10
423.061865
 20
341.069412
 42
0.0
 10
423.180973
 20
340.987751
 42
0.0
 10
423.300515
 20
340.908308
 42
0.0
 10
423.420557
 20
340.832315
 42
0.0
 10
423.541162
 20
340.761004
 42
0.0
 10
423.662397
 20
340.695609
 42
0.0
 10
423.784326
 20
340.63736
 42
0.0
 10
423.907013
 20
340.587491
 42
0.0
 10
424.0
 20
340.5571821963631
 42
0.0
 10
424.0
 20
340.557182
 42
0.0
 10
424.0
 20
342.171573
 42
0.0
 10
425.414214
 20
343.585786
 42
0.0
 10
424.0
 20
345.0
 42
0.0
 10
422.585786
 20
343.585786
 42
0.0
 10
422.5857864376269
 20
343.5857865623731
 42
0.198912367379658
 10
422.0
 20
342.171573
 42
0.0
 10
422.0
 20
341.70087
 42
0.0
 10
421.998754
 20
341.70087
 42
0.0
 10
422.116868
 20
341.654694
 42
0.0
 97
       23
330
7AD
330
7AE
330
7AF
330
7B0
330
7B1
330
7B2
330
7B3
330
7B4
330
7B5
330
7B6
330
7B7
330
7B8
330
7B9
330
7BA
330
7BB
330
2AE
330
2AD
330
2A6
330
2AB
330
2AC
330
2A2
330
7AB
330
7AC
 75
     0
 76
     0
 52
45.0
 41
1.0
 77
     0
 78
     1
 53
45.0
 43
0.0
 44
0.0
 45
-0.7071067811865475
 46
0.7071067811865476
 79
     0
 47
0.0
 98
        2
 10
423.2684080132103
 20
355.5790012708291
 10
423.5012318915619
 20
342.6406457452915
1001
ACAD
1010
0.0
1020
0.0
1030
0.0
1001
AcadAnnotative
1000
AnnotativeData
1002
{
1070
     1
1070
     0
1002
}
  0
TEXT
  5
8D6
330
1D
100
AcDbEntity
  8
CSLAYER10
  6
Continuous
 62
     3
100
AcDbText
 10
53.614454831988
 20
379.297486519582
 30
0.0
 40
8.0
  1
CHD-05
100
AcDbText
  0
LINE
  5
8D9
330
1D
100
AcDbEntity
  8
CSLAYER10
  6
Continuous
 62
     3
100
AcDbLine
 10
49.370555342807
 20
375.0535870304
 30
0.0
 11
104.116858753242
 21
375.0535870304
 31
0.0
  0
TEXT
  5
8DD
330
1D
100
AcDbEntity
  8
CSLAYER10
  6
Continuous
 62
     3
100
AcDbText
 10
230.669806759346
 20
67.098591292738
 30
0.0
 40
5.0
  1
●カラー寸法
 41
1.074422999617
  7
FX_FONT
 72
     5
 11
267.916470746062
 21
67.098591292738
 31
0.0
100
AcDbText
  0
LINE
  5
93A
330
1D
100
AcDbEntity
  8
CSLAYER10
  6
Continuous
 62
     3
100
AcDbLine
 10
153.5
 20
320.0
 30
0.0
 11
154.017638
 21
318.068148
 31
0.0
  0
LINE
  5
93B
330
1D
100
AcDbEntity
  8
CSLAYER10
  6
Continuous
 62
     3
100
AcDbLine
 10
153.5
 20
320.0
 30
0.0
 11
154.017638
 21
321.931852
 31
0.0
  0
LINE
  5
93C
330
1D
100
AcDbEntity
  8
CSLAYER10
  6
Continuous
 62
     3
100
AcDbLine
 10
153.5
 20
320.0
 30
0.0
 11
152.982362
 21
321.931852
 31
0.0
  0
LINE
  5
93D
330
1D
100
AcDbEntity
  8
CSLAYER10
  6
Continuous
 62
     3
100
AcDbLine
 10
153.5
 20
360.0
 30
0.0
 11
153.5
 21
320.0
 31
0.0
  0
LINE
  5
93E
330
1D
100
AcDbEntity
  8
CSLAYER10
  6
Continuous
 62
     3
100
AcDbLine
 10
256.0
 20
370.0
 30
0.0
 11
294.0
 21
370.0
 31
0.0
  0
LINE
  5
93F
330
1D
100
AcDbEntity
  8
CSLAYER10
  6
Continuous
 62
     3
100
AcDbLine
 10
294.0
 20
370.0
 30
0.0
 11
314.0
 21
370.0
 31
0.0
  0
LINE
  5
940
330
1D
100
AcDbEntity
  8
CSLAYER10
  6
Continuous
 62
     3
100
AcDbLine
 10
294.0
 20
370.0
 30
0.0
 11
295.931852
 21
369.482362
 31
0.0
  0
LINE
  5
941
330
1D
100
AcDbEntity
  8
CSLAYER10
  6
Continuous
 62
     3
100
AcDbLine
 10
294.0
 20
370.0
 30
0.0
 11
295.931852
 21
370.517638
 31
0.0
  0
LINE
  5
942
330
1D
100
AcDbEntity
  8
CSLAYER10
  6
Continuous
 62
     3
100
AcDbLine
 10
256.0
 20
370.0
 30
0.0
 11
257.931852
 21
369.482362
 31
0.0
  0
LINE
  5
943
330
1D
100
AcDbEntity
  8
CSLAYER10
  6
Continuous
 62
     3
100
AcDbLine
 10
256.0
 20
370.0
 30
0.0
 11
257.931852
 21
370.517638
 31
0.0
  0
LINE
  5
944
330
1D
100
AcDbEntity
  8
CSLAYER10
  6
Continuous
 62
     3
100
AcDbLine
 10
369.5
 20
175.5
 30
0.0
 11
369.5
 21
163.023705
 31
0.0
  0
LINE
  5
945
330
1D
100
AcDbEntity
  8
CSLAYER10
  6
Continuous
 62
     3
100
AcDbLine
 10
369.5
 20
175.5
 30
0.0
 11
370.017638
 21
177.431852
 31
0.0
  0
LINE
  5
946
330
1D
100
AcDbEntity
  8
CSLAYER10
  6
Continuous
 62
     3
100
AcDbLine
 10
369.5
 20
175.5
 30
0.0
 11
368.982362
 21
177.431852
 31
0.0
  0
LINE
  5
947
330
1D
100
AcDbEntity
  8
CSLAYER10
  6
Continuous
 62
     3
100
AcDbLine
 10
369.5
 20
360.0
 30
0.0
 11
369.5
 21
347.5
 31
0.0
  0
LINE
  5
948
330
1D
100
AcDbEntity
  8
CSLAYER10
  6
Continuous
 62
     3
100
AcDbLine
 10
369.5
 20
347.5
 30
0.0
 11
370.017638
 21
349.431852
 31
0.0
  0
LINE
  5
949
330
1D
100
AcDbEntity
  8
CSLAYER10
  6
Continuous
 62
     3
100
AcDbLine
 10
369.5
 20
347.5
 30
0.0
 11
368.982362
 21
349.431852
 31
0.0
  0
LINE
  5
94A
330
1D
100
AcDbEntity
  8
CSLAYER10
  6
Continuous
 62
     3
100
AcDbLine
 10
379.5
 20
280.5
 30
0.0
 11
379.5
 21
347.5
 31
0.0
  0
LINE
  5
94B
330
1D
100
AcDbEntity
  8
CSLAYER10
  6
Continuous
 62
     3
100
AcDbLine
 10
539.0
 20
163.0
 30
0.0
 11
539.0
 21
193.5
 31
0.0
  0
LINE
  5
94C
330
1D
100
AcDbEntity
  8
CSLAYER10
  6
Continuous
 62
     3
100
AcDbLine
 10
539.0
 20
329.5
 30
0.0
 11
539.0
 21
360.0
 31
0.0
  0
LINE
  5
94D
330
1D
100
AcDbEntity
  8
CSLAYER10
  6
Continuous
 62
     3
100
AcDbLine
 10
539.0
 20
329.5
 30
0.0
 11
539.517638
 21
331.431852
 31
0.0
  0
LINE
  5
94E
330
1D
100
AcDbEntity
  8
CSLAYER10
  6
Continuous
 62
     3
100
AcDbLine
 10
539.0
 20
329.5
 30
0.0
 11
538.482362
 21
331.431852
 31
0.0
  0
LINE
  5
94F
330
1D
100
AcDbEntity
  8
CSLAYER10
  6
Continuous
 62
     3
100
AcDbLine
 10
539.517638
 20
191.568148
 30
0.0
 11
539.0
 21
193.5
 31
0.0
  0
LINE
  5
950
330
1D
100
AcDbEntity
  8
CSLAYER10
  6
Continuous
 62
     3
100
AcDbLine
 10
538.482362
 20
191.568148
 30
0.0
 11
539.0
 21
193.5
 31
0.0
  0
LINE
  5
A0C
330
1D
100
AcDbEntity
  8
CSLAYER10
  6
Continuous
 62
     3
100
AcDbLine
 10
378.982362
 20
278.568148
 30
0.0
 11
379.5
 21
280.5
 31
0.0
  0
LINE
  5
A0D
330
1D
100
AcDbEntity
  8
CSLAYER10
  6
Continuous
 62
     3
100
AcDbLine
 10
380.017638
 20
278.568148
 30
0.0
 11
379.5
 21
280.5
 31
0.0
  0
LINE
  5
A0E
330
1D
100
AcDbEntity
  8
CSLAYER10
  6
Continuous
 62
     3
100
AcDbLine
 10
529.0
 20
301.515782
 30
0.0
 11
529.004228772657
 21
301.5
 31
0.0
  0
LINE
  5
A0F
330
1D
100
AcDbEntity
  8
CSLAYER10
  6
Continuous
 62
     3
100
AcDbLine
 10
529.0
 20
301.515782
 30
0.0
 11
528.995771227343
 21
301.5
 31
0.0
  0
LINE
  5
A10
330
1D
100
AcDbEntity
  8
CSLAYER10
  6
Continuous
 62
     3
100
AcDbLine
 10
529.0
 20
301.5
 30
0.0
 11
529.517638
 21
303.431852
 31
0.0
  0
LINE
  5
A11
330
1D
100
AcDbEntity
  8
CSLAYER10
  6
Continuous
 62
     3
100
AcDbLine
 10
529.0
 20
301.5
 30
0.0
 11
528.482362
 21
303.431852
 31
0.0
  0
LINE
  5
A12
330
1D
100
AcDbEntity
  8
CSLAYER10
  6
Continuous
 62
     3
100
AcDbLine
 10
529.0
 20
301.515782
 30
0.0
 11
529.0
 21
329.5
 31
0.0
  0
ENDSEC
  0
SECTION
  2
OBJECTS
  0
DICTIONARY
  5
C
330
0
100
AcDbDictionary
281
     1
  3
ACAD_GROUP
350
D
  3
ACAD_LAYOUT
350
1A
  3
ACAD_MATERIAL
350
44C
  3
ACAD_MLEADERSTYLE
350
452
  3
ACAD_MLINESTYLE
350
17
  3
ACAD_PLOTSETTINGS
350
19
  3
ACAD_PLOTSTYLENAME
350
E
  3
ACAD_SCALELIST
350
40D
  3
ACAD_TABLESTYLE
350
450
  3
ACAD_VISUALSTYLE
350
433
  3
AcDbVariableDictionary
350
80D
  3
DWGPROPS
350
AD4
  0
DICTIONARY
  5
AD5
330
8
100
AcDbDictionary
280
     1
281
     1
  3
ACAD_XREC_ROUNDTRIP
360
AD6
  0
DICTIONARY
  5
4F3
330
1D
100
AcDbDictionary
280
     1
281
     1
  3
ACAD_SORTENTS
360
4F4
  0
DICTIONARY
  5
47C
330
456
100
AcDbDictionary
280
     1
281
     1
  3
ACAD_SORTENTS
360
47D
  0
DICTIONARY
  5
51B
330
4F5
100
AcDbDictionary
280
     1
281
     1
  3
ACAD_SORTENTS
360
51C
  0
DICTIONARY
  5
83A
330
814
100
AcDbDictionary
280
     1
281
     1
  3
ACAD_SORTENTS
360
83B
  0
DICTIONARY
  5
867
330
841
100
AcDbDictionary
280
     1
281
     1
  3
ACAD_SORTENTS
360
868
  0
DICTIONARY
  5
870
330
86E
100
AcDbDictionary
280
     1
281
     1
  3
AcDbContextDataManager
360
871
  0
DICTIONARY
  5
874
330
873
100
AcDbDictionary
280
     1
281
     1
  3
AcDbContextDataManager
360
875
  0
DICTIONARY
  5
D
102
{ACAD_REACTORS
330
C
102
}
330
C
100
AcDbDictionary
281
     1
  0
DICTIONARY
  5
1A
102
{ACAD_REACTORS
330
C
102
}
330
C
100
AcDbDictionary
281
     1
  3
Layout1
350
1C
  3
Model
350
1E
  0
DICTIONARY
  5
44C
102
{ACAD_REACTORS
330
C
102
}
330
C
100
AcDbDictionary
281
     1
  3
ByBlock
350
44E
  3
ByLayer
350
44D
  3
Global
350
44F
  0
DICTIONARY
  5
452
102
{ACAD_REACTORS
330
C
102
}
330
C
100
AcDbDictionary
281
     1
  3
Standard
350
453
  0
DICTIONARY
  5
17
102
{ACAD_REACTORS
330
C
102
}
330
C
100
AcDbDictionary
281
     1
  3
Standard
350
18
  0
DICTIONARY
  5
19
102
{ACAD_REACTORS
330
C
102
}
330
C
100
AcDbDictionary
281
     1
  0
ACDBDICTIONARYWDFLT
  5
E
102
{ACAD_REACTORS
330
C
102
}
330
C
100
AcDbDictionary
281
     1
  3
Normal
350
F
100
AcDbDictionaryWithDefault
340
F
  0
DICTIONARY
  5
40D
102
{ACAD_REACTORS
330
C
102
}
330
C
100
AcDbDictionary
281
     1
  3
A0
350
40E
  3
A1
350
40F
  3
A2
350
410
  3
A3
350
411
  3
A4
350
412
  3
A5
350
413
  3
A6
350
414
  3
A7
350
415
  3
A8
350
416
  3
A9
350
417
  3
B0
350
418
  3
B1
350
419
  3
B2
350
41A
  3
B3
350
41B
  3
B4
350
41C
  3
B5
350
41D
  3
B6
350
41E
  3
B7
350
41F
  3
B8
350
420
  3
B9
350
421
  3
C0
350
422
  3
C1
350
423
  3
C2
350
424
  3
C3
350
425
  3
C4
350
426
  3
C5
350
427
  3
C6
350
428
  3
C7
350
429
  3
C8
350
42A
  3
C9
350
42B
  3
D0
350
42C
  3
D1
350
42D
  3
D2
350
42E
  0
DICTIONARY
  5
450
102
{ACAD_REACTORS
330
C
102
}
330
C
100
AcDbDictionary
281
     1
  3
Standard
350
451
  0
DICTIONARY
  5
433
102
{ACAD_REACTORS
330
C
102
}
330
C
100
AcDbDictionary
281
     1
  3
2dWireframe
350
438
  3
Basic
350
43B
  3
Brighten
350
43F
  3
ColorChange
350
443
  3
Conceptual
350
43D
  3
Dim
350
43E
  3
EdgeColorOff
350
446
  3
Facepattern
350
442
  3
Flat
350
434
  3
FlatWithEdges
350
435
  3
Gouraud
350
436
  3
GouraudWithEdges
350
437
  3
Hidden
350
43A
  3
JitterOff
350
444
  3
Linepattern
350
441
  3
Modeling
350
454
  3
OverhangOff
350
445
  3
Realistic
350
43C
  3
Shaded
350
44B
  3
Shaded with edges
350
44A
  3
Shades of Gray
350
447
  3
Sketchy
350
448
  3
Thicken
350
440
  3
Wireframe
350
439
  3
X-Ray
350
449
  0
DICTIONARY
  5
80D
102
{ACAD_REACTORS
330
C
102
}
330
C
100
AcDbDictionary
281
     1
  3
CANNOSCALE
350
AD1
  3
CMLEADERSTYLE
350
810
  3
CTABLESTYLE
350
80F
  3
DIMASSOC
350
899
  3
HIDETEXT
350
89A
  3
MSLTSCALE
350
811
  0
XRECORD
  5
AD4
102
{ACAD_REACTORS
330
C
102
}
330
C
100
AcDbXrecord
280
     1
  1
DWGPROPS COOKIE
  2

  3

  4

  6

  7

  8
fujika.waniguchi
  9

300
=
301
=
302
=
303
=
304
=
305
=
306
=
307
=
308
=
309
=
 40
0.0
 41
2452131.625
 42
2458192.448557408
  1

 90
        0
  0
XRECORD
  5
AD6
102
{ACAD_REACTORS
330
AD5
102
}
330
AD5
100
AcDbXrecord
280
     1
102
VTR_0.000_0.000_1.000_1.000_VISUALSTYLE
340
438
102
VTR_0.000_0.000_1.000_1.000_GRIDDISPLAY
 70
     3
102
VTR_0.000_0.000_1.000_1.000_GRIDMAJOR
 70
     5
102
VTR_0.000_0.000_1.000_1.000_DEFAULTLIGHTING
280
     1
102
VTR_0.000_0.000_1.000_1.000_DEFAULTLIGHTINGTYPE
 70
     1
102
VTR_0.000_0.000_1.000_1.000_BRIGHTNESS
141
0.0
102
VTR_0.000_0.000_1.000_1.000_CONTRAST
142
0.0
  0
SORTENTSTABLE
  5
4F4
102
{ACAD_REACTORS
330
4F3
102
}
330
4F3
100
AcDbSortentsTable
330
1D
331
0
  5
527
331
2A0
  5
2A1
331
2A1
  5
2A2
331
2A2
  5
2A3
331
2A3
  5
2A4
331
2A4
  5
2A5
331
2A5
  5
2A6
331
2A6
  5
2A7
331
2A7
  5
2A8
331
2A8
  5
2A9
331
2A9
  5
2AA
331
2AA
  5
2AB
331
2AB
  5
2AC
331
2AC
  5
2AD
331
2AD
  5
2AE
331
2AE
  5
2AF
331
2AF
  5
2B0
331
2B0
  5
2B1
331
2B1
  5
2B2
331
2B2
  5
2B3
331
2B3
  5
2B4
331
2B4
  5
2B5
331
2B5
  5
2B6
331
2B6
  5
2B7
331
2B7
  5
2B8
331
2B8
  5
2B9
331
2B9
  5
2BA
331
2BA
  5
2BB
331
2BB
  5
2BC
331
2BC
  5
2BE
331
2BD
  5
2BF
331
2BE
  5
2C0
331
2BF
  5
2C1
331
2C0
  5
2C2
331
2C1
  5
2C3
331
2C2
  5
2C4
331
2C3
  5
2C5
331
2C4
  5
2C6
331
2C5
  5
2C7
331
2C6
  5
2C8
331
2C7
  5
2C9
331
2C8
  5
2CA
331
2C9
  5
2CB
331
2CA
  5
2CC
331
2CB
  5
2CD
331
2CC
  5
2CE
331
2CD
  5
2CF
331
2CE
  5
2D0
331
2CF
  5
2D1
331
2D0
  5
2D2
331
2D1
  5
2D3
331
2D2
  5
2D4
331
2D3
  5
2D5
331
2D4
  5
2D6
331
2D5
  5
2D7
331
2D6
  5
2D8
331
2D7
  5
2D9
331
2D8
  5
2DA
331
2D9
  5
2DB
331
2DA
  5
2DC
331
2DB
  5
2DD
331
2DC
  5
2DE
331
2DD
  5
2DF
331
2DE
  5
2E0
331
2DF
  5
2E1
331
2E0
  5
2E2
331
2E1
  5
2E3
331
2E2
  5
2E4
331
2E3
  5
2E5
331
2E4
  5
2E6
331
2E5
  5
2E7
331
2E6
  5
2E8
331
2E7
  5
2E9
331
2E8
  5
2EA
331
2E9
  5
2EB
331
2EA
  5
2EC
331
2EB
  5
2ED
331
2EC
  5
2EE
331
2ED
  5
2EF
331
2EE
  5
2F0
331
2EF
  5
2F1
331
2F0
  5
2F2
331
2F1
  5
2F3
331
2F2
  5
2F4
331
2F3
  5
2F5
331
2F4
  5
2F6
331
2F5
  5
2F7
331
2F6
  5
2F8
331
2F7
  5
2F9
331
2F8
  5
2FA
331
2F9
  5
2FB
331
2FA
  5
2FC
331
2FB
  5
2FD
331
2FC
  5
2FE
331
2FD
  5
2FF
331
2FE
  5
300
331
2FF
  5
301
331
300
  5
302
331
301
  5
303
331
302
  5
304
331
303
  5
305
331
304
  5
306
331
305
  5
307
331
306
  5
308
331
307
  5
309
331
308
  5
30A
331
309
  5
30B
331
30A
  5
30C
331
30B
  5
30D
331
30C
  5
30E
331
30D
  5
30F
331
30E
  5
310
331
30F
  5
311
331
310
  5
312
331
311
  5
313
331
312
  5
314
331
313
  5
315
331
314
  5
316
331
315
  5
317
331
316
  5
318
331
317
  5
319
331
318
  5
31A
331
319
  5
31B
331
31A
  5
31C
331
31B
  5
31D
331
31C
  5
31E
331
31D
  5
31F
331
31E
  5
320
331
31F
  5
321
331
320
  5
322
331
321
  5
323
331
322
  5
324
331
323
  5
325
331
324
  5
326
331
325
  5
327
331
326
  5
328
331
327
  5
329
331
328
  5
32A
331
329
  5
32B
331
32A
  5
32C
331
32B
  5
32D
331
32C
  5
32E
331
32D
  5
32F
331
32E
  5
330
331
32F
  5
331
331
330
  5
332
331
331
  5
333
331
332
  5
334
331
333
  5
335
331
334
  5
336
331
336
  5
338
331
361
  5
363
331
36F
  5
371
331
39C
  5
39E
331
39D
  5
39F
331
39E
  5
3A0
331
39F
  5
3A1
331
3A0
  5
3A2
331
3A1
  5
3A3
331
3A2
  5
3A4
331
3A3
  5
3A5
331
3A9
  5
3AB
331
3AA
  5
3AC
331
3AB
  5
3AD
331
3B4
  5
3B6
331
3B5
  5
3B7
331
3B6
  5
3B8
331
3B7
  5
3B9
331
3B8
  5
3BA
331
3BA
  5
3BC
331
3BB
  5
3BD
331
3C0
  5
3C2
331
3C1
  5
3C3
331
3C2
  5
3C4
331
3C3
  5
3C5
331
3C4
  5
3C6
331
3C5
  5
3C7
331
3C6
  5
3C8
331
3C7
  5
3C9
331
3C8
  5
3CA
331
3C9
  5
3CB
331
3CA
  5
3CC
331
3CB
  5
3CD
331
3CC
  5
3CE
331
3CD
  5
3CF
331
3CE
  5
3D0
331
3CF
  5
3D1
331
3D0
  5
3D2
331
3D1
  5
3D3
331
3D2
  5
3D4
331
3D3
  5
3D5
331
3D4
  5
3D6
331
3D5
  5
3D7
331
3D6
  5
3D8
331
3D7
  5
3D9
331
3D8
  5
3DA
331
3D9
  5
3DB
331
3DA
  5
3DC
331
3DB
  5
3DD
331
3DC
  5
3DE
331
3DD
  5
3DF
331
3DE
  5
3E0
331
3DF
  5
3E1
331
3E0
  5
3E2
331
3E1
  5
3E3
331
3E2
  5
3E4
331
3E3
  5
3E5
331
3E4
  5
3E6
331
402
  5
404
331
403
  5
405
331
404
  5
406
331
405
  5
407
331
406
  5
408
331
407
  5
409
331
408
  5
40A
331
409
  5
40B
331
40A
  5
40C
331
40B
  5
4B9
331
4BA
  5
4BC
331
4BB
  5
4BD
331
4BC
  5
4BE
331
4BD
  5
4BF
331
4BE
  5
4C0
331
4BF
  5
4C1
331
4C0
  5
4C2
331
4C1
  5
4C3
331
4C2
  5
4C4
331
4C3
  5
4C5
331
4C4
  5
4C6
331
4C5
  5
4C7
331
4C6
  5
4C8
331
4C7
  5
4C9
331
4C8
  5
4CA
331
4C9
  5
4CB
331
4CA
  5
4CC
331
4CB
  5
4CD
331
4CC
  5
4CE
331
4CD
  5
4CF
331
4CE
  5
4D0
331
4D0
  5
4D2
331
4D1
  5
4D3
331
4D2
  5
4D4
331
4D3
  5
4D5
331
4D4
  5
4D6
331
4D5
  5
4D7
331
4D6
  5
4D8
331
4D7
  5
4D9
331
4D8
  5
4DA
331
4D9
  5
4DB
331
4DA
  5
4DC
331
4DB
  5
4DD
331
4DC
  5
4DE
331
4DD
  5
4DF
331
4DE
  5
4E0
331
4DF
  5
4E1
331
4E0
  5
4E2
331
4E1
  5
4E3
331
4E2
  5
4E4
331
4E3
  5
4E5
331
4E4
  5
4E6
331
4E5
  5
4E7
331
4E6
  5
4E8
331
4E7
  5
4E9
331
4E8
  5
4EA
331
4E9
  5
4EB
331
4EA
  5
4EC
331
4EC
  5
4EE
331
4ED
  5
4EF
331
4EE
  5
4F0
331
4EF
  5
4F1
331
4F0
  5
4F2
331
4F1
  5
520
331
4F2
  5
526
331
6A6
  5
6A8
331
6A7
  5
6A9
331
6A8
  5
6AA
331
6AA
  5
6AC
331
6AB
  5
6AD
331
6AC
  5
6AE
331
6AE
  5
6B0
331
6AF
  5
6B1
331
6B0
  5
6B2
331
6B1
  5
6B3
331
6B2
  5
6B4
331
6B3
  5
6B5
331
6B4
  5
6B6
331
6B5
  5
6B7
331
6B6
  5
6B8
331
6B7
  5
6B9
331
6B8
  5
6BA
331
6B9
  5
6BB
331
6BD
  5
6BF
331
6BE
  5
6C0
331
6BF
  5
6C1
331
6C0
  5
6C2
331
6C1
  5
6C3
331
6C2
  5
6C4
331
6C3
  5
6C5
331
6C4
  5
6C6
331
6C5
  5
6C7
331
6C6
  5
6C8
331
6C7
  5
6C9
331
6C8
  5
6CA
331
6C9
  5
6CB
331
6CA
  5
6CC
331
6CB
  5
6CD
331
6CC
  5
6CE
331
6CD
  5
6CF
331
6CE
  5
6D0
331
6CF
  5
6D1
331
6D0
  5
6D2
331
6D1
  5
6D3
331
6D2
  5
6D4
331
6D3
  5
6D5
331
6D4
  5
6D6
331
6D5
  5
6D7
331
6D6
  5
6D8
331
6D7
  5
6D9
331
6D8
  5
6DA
331
6D9
  5
6DB
331
6DA
  5
6DC
331
6DB
  5
6DD
331
6DC
  5
6DE
331
6DD
  5
6DF
331
6DE
  5
6E0
331
6DF
  5
6E1
331
6E0
  5
6E2
331
6E1
  5
6E3
331
6E2
  5
6E4
331
6E3
  5
6E5
331
6E4
  5
6E6
331
6E5
  5
6E7
331
6E6
  5
6E8
331
6E7
  5
6E9
331
6E8
  5
6EA
331
6E9
  5
6EB
331
6EA
  5
6EC
331
6EE
  5
6F0
331
6EF
  5
6F1
331
6F0
  5
6F2
331
6F1
  5
6F3
331
6F2
  5
6F4
331
6F3
  5
6F5
331
6F4
  5
6F6
331
6F5
  5
6F7
331
6F6
  5
6F8
331
6F8
  5
6FA
331
6F9
  5
6FB
331
6FA
  5
6FC
331
6FB
  5
6FD
331
6FC
  5
6FE
331
6FD
  5
6FF
331
6FE
  5
700
331
6FF
  5
701
331
700
  5
702
331
701
  5
703
331
702
  5
704
331
703
  5
705
331
704
  5
706
331
705
  5
707
331
706
  5
708
331
707
  5
709
331
708
  5
70A
331
709
  5
70B
331
70A
  5
70C
331
70B
  5
70D
331
70C
  5
70E
331
70D
  5
70F
331
70E
  5
710
331
70F
  5
711
331
710
  5
712
331
712
  5
714
331
713
  5
715
331
715
  5
717
331
716
  5
718
331
717
  5
719
331
718
  5
71A
331
719
  5
71B
331
71A
  5
71C
331
71B
  5
71D
331
71C
  5
71E
331
71D
  5
71F
331
71E
  5
720
331
71F
  5
721
331
720
  5
722
331
721
  5
723
331
722
  5
724
331
723
  5
725
331
724
  5
726
331
725
  5
727
331
726
  5
728
331
727
  5
729
331
728
  5
72A
331
729
  5
72B
331
72A
  5
72C
331
72B
  5
72D
331
72C
  5
72E
331
72D
  5
72F
331
72E
  5
730
331
72F
  5
731
331
731
  5
733
331
732
  5
734
331
733
  5
735
331
734
  5
736
331
736
  5
738
331
73A
  5
73C
331
73B
  5
73D
331
73C
  5
73E
331
73D
  5
73F
331
73E
  5
740
331
742
  5
744
331
743
  5
745
331
744
  5
746
331
745
  5
747
331
746
  5
748
331
747
  5
749
331
748
  5
74A
331
749
  5
74B
331
74A
  5
74C
331
74B
  5
74D
331
74C
  5
74E
331
74D
  5
74F
331
74E
  5
750
331
74F
  5
751
331
750
  5
752
331
751
  5
753
331
752
  5
754
331
753
  5
755
331
754
  5
756
331
755
  5
757
331
756
  5
758
331
757
  5
759
331
758
  5
75A
331
759
  5
75B
331
75A
  5
75C
331
75B
  5
75D
331
75C
  5
75E
331
75D
  5
75F
331
75E
  5
760
331
75F
  5
761
331
760
  5
762
331
761
  5
763
331
762
  5
764
331
766
  5
768
331
767
  5
769
331
768
  5
76A
331
769
  5
76B
331
76A
  5
76C
331
76B
  5
76D
331
76C
  5
76E
331
76D
  5
76F
331
76E
  5
770
331
76F
  5
771
331
770
  5
772
331
774
  5
776
331
775
  5
777
331
776
  5
778
331
77A
  5
77C
331
77B
  5
77D
331
77C
  5
77E
331
77D
  5
77F
331
77E
  5
780
331
77F
  5
781
331
780
  5
782
331
781
  5
783
331
782
  5
784
331
783
  5
785
331
784
  5
786
331
785
  5
787
331
786
  5
788
331
787
  5
789
331
788
  5
78A
331
789
  5
78B
331
78A
  5
78C
331
78B
  5
78D
331
78C
  5
78E
331
78D
  5
78F
331
78E
  5
790
331
78F
  5
791
331
790
  5
792
331
791
  5
793
331
792
  5
794
331
793
  5
795
331
794
  5
796
331
795
  5
797
331
796
  5
798
331
797
  5
799
331
798
  5
79A
331
799
  5
79B
331
79A
  5
79C
331
79B
  5
79D
331
79C
  5
79E
331
79D
  5
79F
331
79E
  5
7A0
331
79F
  5
7A1
331
7A0
  5
7A2
331
7A1
  5
7A3
331
7A2
  5
7A4
331
7A3
  5
7A5
331
7A4
  5
7A6
331
7A5
  5
7A7
331
7A6
  5
7A8
331
7A7
  5
7A9
331
7A8
  5
7AA
331
7A9
  5
7AB
331
7AA
  5
7AC
331
7AB
  5
7AD
331
7AC
  5
7AE
331
7AD
  5
7AF
331
7AE
  5
7B0
331
7AF
  5
7B1
331
7B0
  5
7B2
331
7B1
  5
7B3
331
7B2
  5
7B4
331
7B3
  5
7B5
331
7B4
  5
7B6
331
7B5
  5
7B7
331
7B6
  5
7B8
331
7B7
  5
7B9
331
7B8
  5
7BA
331
7B9
  5
7BB
331
7BA
  5
7BC
331
7BB
  5
7BD
331
7BC
  5
7BE
331
7BD
  5
7BF
331
7BE
  5
7C0
331
7BF
  5
7C1
331
7C0
  5
7C2
331
7C1
  5
7C3
331
7C2
  5
7C4
331
7C3
  5
7C5
331
7C4
  5
7C6
331
7C5
  5
7C7
331
7C6
  5
7C8
331
7C7
  5
7C9
331
7C8
  5
7CA
331
7C9
  5
7CB
331
7CA
  5
7CC
331
7CB
  5
7CD
331
7CC
  5
7CE
331
7CD
  5
7CF
331
7CE
  5
7D0
331
7CF
  5
7D1
331
7D0
  5
7D2
331
7D1
  5
7D3
331
7D2
  5
7D4
331
7D3
  5
7D5
331
7D7
  5
7D9
331
7D8
  5
7DA
331
7D9
  5
7DB
331
7DA
  5
7DC
331
7DC
  5
7DE
331
7DD
  5
7DF
331
7E0
  5
7E2
331
7E1
  5
7E3
331
7E2
  5
7E4
331
7E3
  5
7E5
331
7E4
  5
7E6
331
7E5
  5
7E7
331
7E6
  5
7E8
331
7E7
  5
7E9
331
7E8
  5
7EA
331
7E9
  5
7EB
331
7EA
  5
7EC
331
7EB
  5
7ED
331
7EC
  5
7EE
331
7ED
  5
7EF
331
7EE
  5
7F0
331
7EF
  5
7F1
331
7F0
  5
7F2
331
7F1
  5
7F3
331
7F2
  5
7F4
331
7F3
  5
7F5
331
7F4
  5
7F6
331
7F5
  5
7F7
331
7F6
  5
7F8
331
7F7
  5
7F9
331
7F8
  5
7FA
331
7F9
  5
7FB
331
7FA
  5
7FC
331
7FB
  5
7FD
331
7FC
  5
7FE
331
7FD
  5
7FF
331
7FE
  5
800
331
7FF
  5
801
331
800
  5
802
331
801
  5
803
331
802
  5
804
331
803
  5
805
331
804
  5
806
331
806
  5
808
331
807
  5
809
331
808
  5
80A
331
809
  5
80B
331
80A
  5
80C
331
80B
  5
83F
331
80C
  5
840
331
840
  5
86D
331
86D
  5
873
331
86E
  5
2BD
331
873
  5
2A0
  0
SORTENTSTABLE
  5
47D
102
{ACAD_REACTORS
330
47C
330
47C
102
}
330
47C
100
AcDbSortentsTable
330
456
  0
SORTENTSTABLE
  5
51C
102
{ACAD_REACTORS
330
51B
330
51B
102
}
330
51B
100
AcDbSortentsTable
330
4F5
  0
SORTENTSTABLE
  5
83B
102
{ACAD_REACTORS
330
83A
330
83A
102
}
330
83A
100
AcDbSortentsTable
330
814
  0
SORTENTSTABLE
  5
868
102
{ACAD_REACTORS
330
867
330
867
102
}
330
867
100
AcDbSortentsTable
330
841
  0
DICTIONARY
  5
871
102
{ACAD_REACTORS
330
870
102
}
330
870
100
AcDbDictionary
281
     1
  3
ACDB_ANNOTATIONSCALES
350
872
  0
DICTIONARY
  5
875
102
{ACAD_REACTORS
330
874
102
}
330
874
100
AcDbDictionary
281
     1
  3
ACDB_ANNOTATIONSCALES
350
876
  0
LAYOUT
  5
1C
102
{ACAD_REACTORS
330
1A
102
}
330
1A
100
AcDbPlotSettings
  1

  2
none_device
  4

  6

 40
0.0
 41
0.0
 42
0.0
 43
0.0
 44
0.0
 45
0.0
 46
0.0
 47
0.0
 48
0.0
 49
0.0
140
0.0
141
0.0
142
1.0
143
1.0
 70
   688
 72
     0
 73
     0
 74
     5
  7
monochrome.ctb
 75
    16
147
1.0
148
0.0
149
0.0
100
AcDbLayout
  1
Layout1
 70
     1
 71
     1
 10
0.0
 20
0.0
 11
12.0
 21
9.0
 12
0.0
 22
0.0
 32
0.0
 14
1.000000000000E+20
 24
1.000000000000E+20
 34
1.000000000000E+20
 15
-1.000000000000E+20
 25
-1.000000000000E+20
 35
-1.000000000000E+20
146
0.0
 13
0.0
 23
0.0
 33
0.0
 16
1.0
 26
0.0
 36
0.0
 17
0.0
 27
1.0
 37
0.0
 76
     0
330
1B
  0
LAYOUT
  5
1E
102
{ACAD_REACTORS
330
1A
102
}
330
1A
100
AcDbPlotSettings
  1

  2
PrimoPDF.pc3
  4
A3
  6

 40
0.211666666667
 41
0.042333333333
 42
-0.042333333333
 43
0.296333333333
 44
420.0
 45
297.0
 46
0.0
 47
0.0
 48
-8.6755
 49
-13.0606
140
567.2968
141
415.449
142
1.0
143
1.444440349489
 70
  1712
 72
     1
 73
     0
 74
     4
  7
monochrome.ctb
 75
     0
147
0.692309654984
148
-398.580817514401
149
-83.174798125824
100
AcDbLayout
  1
Model
 70
     1
 71
     0
 10
0.0
 20
0.0
 11
12.0
 21
9.0
 12
0.0
 22
0.0
 32
0.0
 14
25.994444444444
 24
2.068408961789
 34
0.0
 15
540.0
 25
387.308597630693
 35
0.0
146
0.0
 13
0.0
 23
0.0
 33
0.0
 16
1.0
 26
0.0
 36
0.0
 17
0.0
 27
1.0
 37
0.0
 76
     0
330
1D
331
3B
  0
MATERIAL
  5
44E
102
{ACAD_REACTORS
330
44C
102
}
102
{ACAD_XDICTIONARY
360
B0B
102
}
330
44C
100
AcDbMaterial
  1
ByBlock
  0
MATERIAL
  5
44D
102
{ACAD_REACTORS
330
44C
102
}
102
{ACAD_XDICTIONARY
360
B09
102
}
330
44C
100
AcDbMaterial
  1
ByLayer
  0
MATERIAL
  5
44F
102
{ACAD_REACTORS
330
44C
102
}
102
{ACAD_XDICTIONARY
360
B0D
102
}
330
44C
100
AcDbMaterial
  1
Global
  0
MLEADERSTYLE
  5
453
102
{ACAD_REACTORS
330
452
102
}
102
{ACAD_XDICTIONARY
360
B0F
102
}
330
452
100
AcDbMLeaderStyle
170
     2
171
     1
172
     0
 90
        2
 40
0.0
 41
0.0
173
     1
 91
-1056964608
340
14
 92
       -2
290
     1
 42
0.09
291
     1
 43
0.36
  3
Standard
341
0
 44
0.18
300

342
11
174
     1
178
     6
175
     1
176
     0
 93
-1056964608
 45
0.18
292
     0
297
     0
 46
0.18
343
0
 94
-1056964608
 47
1.0
 49
1.0
140
1.0
293
     1
141
0.0
294
     1
177
     0
142
1.0
295
     0
296
     0
143
0.125
1001
ACAD_MLEADERVER
1070
     2
  0
MLINESTYLE
  5
18
102
{ACAD_REACTORS
330
17
102
}
330
17
100
AcDbMlineStyle
  2
Standard
 70
     0
  3

 62
   256
 51
90.0
 52
90.0
 71
     2
 49
0.5
 62
   256
  6
BYLAYER
 49
-0.5
 62
   256
  6
BYLAYER
  0
ACDBPLACEHOLDER
  5
F
102
{ACAD_REACTORS
330
E
102
}
330
E
  0
SCALE
  5
40E
102
{ACAD_REACTORS
330
40D
102
}
330
40D
100
AcDbScale
 70
     0
300
1:1
140
1.0
141
1.0
290
     1
  0
SCALE
  5
40F
102
{ACAD_REACTORS
330
40D
102
}
330
40D
100
AcDbScale
 70
     0
300
1:2
140
1.0
141
2.0
290
     0
  0
SCALE
  5
410
102
{ACAD_REACTORS
330
40D
102
}
330
40D
100
AcDbScale
 70
     0
300
1:4
140
1.0
141
4.0
290
     0
  0
SCALE
  5
411
102
{ACAD_REACTORS
330
40D
102
}
330
40D
100
AcDbScale
 70
     0
300
1:5
140
1.0
141
5.0
290
     0
  0
SCALE
  5
412
102
{ACAD_REACTORS
330
40D
102
}
330
40D
100
AcDbScale
 70
     0
300
1:8
140
1.0
141
8.0
290
     0
  0
SCALE
  5
413
102
{ACAD_REACTORS
330
40D
102
}
330
40D
100
AcDbScale
 70
     0
300
1:10
140
1.0
141
10.0
290
     0
  0
SCALE
  5
414
102
{ACAD_REACTORS
330
40D
102
}
330
40D
100
AcDbScale
 70
     0
300
1:16
140
1.0
141
16.0
290
     0
  0
SCALE
  5
415
102
{ACAD_REACTORS
330
40D
102
}
330
40D
100
AcDbScale
 70
     0
300
1:20
140
1.0
141
20.0
290
     0
  0
SCALE
  5
416
102
{ACAD_REACTORS
330
40D
102
}
330
40D
100
AcDbScale
 70
     0
300
1:30
140
1.0
141
30.0
290
     0
  0
SCALE
  5
417
102
{ACAD_REACTORS
330
40D
102
}
330
40D
100
AcDbScale
 70
     0
300
1:40
140
1.0
141
40.0
290
     0
  0
SCALE
  5
418
102
{ACAD_REACTORS
330
40D
102
}
330
40D
100
AcDbScale
 70
     0
300
1:50
140
1.0
141
50.0
290
     0
  0
SCALE
  5
419
102
{ACAD_REACTORS
330
40D
102
}
330
40D
100
AcDbScale
 70
     0
300
1:100
140
1.0
141
100.0
290
     0
  0
SCALE
  5
41A
102
{ACAD_REACTORS
330
40D
102
}
330
40D
100
AcDbScale
 70
     0
300
2:1
140
2.0
141
1.0
290
     0
  0
SCALE
  5
41B
102
{ACAD_REACTORS
330
40D
102
}
330
40D
100
AcDbScale
 70
     0
300
4:1
140
4.0
141
1.0
290
     0
  0
SCALE
  5
41C
102
{ACAD_REACTORS
330
40D
102
}
330
40D
100
AcDbScale
 70
     0
300
8:1
140
8.0
141
1.0
290
     0
  0
SCALE
  5
41D
102
{ACAD_REACTORS
330
40D
102
}
330
40D
100
AcDbScale
 70
     0
300
10:1
140
10.0
141
1.0
290
     0
  0
SCALE
  5
41E
102
{ACAD_REACTORS
330
40D
102
}
330
40D
100
AcDbScale
 70
     0
300
100:1
140
100.0
141
1.0
290
     0
  0
SCALE
  5
41F
102
{ACAD_REACTORS
330
40D
102
}
330
40D
100
AcDbScale
 70
     0
300
1/128" = 1'-0"
140
0.0078125
141
12.0
290
     0
  0
SCALE
  5
420
102
{ACAD_REACTORS
330
40D
102
}
330
40D
100
AcDbScale
 70
     0
300
1/64" = 1'-0"
140
0.015625
141
12.0
290
     0
  0
SCALE
  5
421
102
{ACAD_REACTORS
330
40D
102
}
330
40D
100
AcDbScale
 70
     0
300
1/32" = 1'-0"
140
0.03125
141
12.0
290
     0
  0
SCALE
  5
422
102
{ACAD_REACTORS
330
40D
102
}
330
40D
100
AcDbScale
 70
     0
300
1/16" = 1'-0"
140
0.0625
141
12.0
290
     0
  0
SCALE
  5
423
102
{ACAD_REACTORS
330
40D
102
}
330
40D
100
AcDbScale
 70
     0
300
3/32" = 1'-0"
140
0.09375
141
12.0
290
     0
  0
SCALE
  5
424
102
{ACAD_REACTORS
330
40D
102
}
330
40D
100
AcDbScale
 70
     0
300
1/8" = 1'-0"
140
0.125
141
12.0
290
     0
  0
SCALE
  5
425
102
{ACAD_REACTORS
330
40D
102
}
330
40D
100
AcDbScale
 70
     0
300
3/16" = 1'-0"
140
0.1875
141
12.0
290
     0
  0
SCALE
  5
426
102
{ACAD_REACTORS
330
40D
102
}
330
40D
100
AcDbScale
 70
     0
300
1/4" = 1'-0"
140
0.25
141
12.0
290
     0
  0
SCALE
  5
427
102
{ACAD_REACTORS
330
40D
102
}
330
40D
100
AcDbScale
 70
     0
300
3/8" = 1'-0"
140
0.375
141
12.0
290
     0
  0
SCALE
  5
428
102
{ACAD_REACTORS
330
40D
102
}
330
40D
100
AcDbScale
 70
     0
300
1/2" = 1'-0"
140
0.5
141
12.0
290
     0
  0
SCALE
  5
429
102
{ACAD_REACTORS
330
40D
102
}
330
40D
100
AcDbScale
 70
     0
300
3/4" = 1'-0"
140
0.75
141
12.0
290
     0
  0
SCALE
  5
42A
102
{ACAD_REACTORS
330
40D
102
}
330
40D
100
AcDbScale
 70
     0
300
1" = 1'-0"
140
1.0
141
12.0
290
     0
  0
SCALE
  5
42B
102
{ACAD_REACTORS
330
40D
102
}
330
40D
100
AcDbScale
 70
     0
300
1-1/2" = 1'-0"
140
1.5
141
12.0
290
     0
  0
SCALE
  5
42C
102
{ACAD_REACTORS
330
40D
102
}
330
40D
100
AcDbScale
 70
     0
300
3" = 1'-0"
140
3.0
141
12.0
290
     0
  0
SCALE
  5
42D
102
{ACAD_REACTORS
330
40D
102
}
330
40D
100
AcDbScale
 70
     0
300
6" = 1'-0"
140
6.0
141
12.0
290
     0
  0
SCALE
  5
42E
102
{ACAD_REACTORS
330
40D
102
}
330
40D
100
AcDbScale
 70
     0
300
1'-0" = 1'-0"
140
12.0
141
12.0
290
     0
  0
TABLESTYLE
  5
451
102
{ACAD_REACTORS
330
450
102
}
330
450
100
AcDbTableStyle
  3
Standard
 70
     0
 71
     0
 40
0.06
 41
0.06
280
     0
281
     0
  7
Standard
140
0.18
170
     2
 62
     0
 63
   257
283
     0
274
    -2
284
     1
 64
     0
275
    -2
285
     1
 65
     0
276
    -2
286
     1
 66
     0
277
    -2
287
     1
 67
     0
278
    -2
288
     1
 68
     0
279
    -2
289
     1
 69
     0
  7
Standard
140
0.25
170
     5
 62
     0
 63
   257
283
     0
274
    -2
284
     1
 64
     0
275
    -2
285
     1
 65
     0
276
    -2
286
     1
 66
     0
277
    -2
287
     1
 67
     0
278
    -2
288
     1
 68
     0
279
    -2
289
     1
 69
     0
  7
Standard
140
0.18
170
     5
 62
     0
 63
   257
283
     0
274
    -2
284
     1
 64
     0
275
    -2
285
     1
 65
     0
276
    -2
286
     1
 66
     0
277
    -2
287
     1
 67
     0
278
    -2
288
     1
 68
     0
279
    -2
289
     1
 69
     0
  0
VISUALSTYLE
  5
438
102
{ACAD_REACTORS
330
433
102
}
102
{ACAD_XDICTIONARY
360
ADF
102
}
330
433
100
AcDbVisualStyle
  2
2dWireframe
 70
     4
 71
     0
 72
     2
 73
     0
 90
        0
 40
0.6
 41
30.0
 62
     5
 63
     7
 74
     1
 91
        4
 64
     7
 65
   257
 75
     1
175
     1
 42
1.0
 92
        0
 66
   257
 43
1.0
 76
     1
 77
     6
 78
     2
 67
     7
 79
     5
170
     0
171
     0
290
     0
174
     0
 93
        1
 44
0.0
173
     0
291
     0
 45
0.0
1001
ACAD
1000
AcDbSavedByObjectVersion
1070
     0
  0
VISUALSTYLE
  5
43B
102
{ACAD_REACTORS
330
433
102
}
102
{ACAD_XDICTIONARY
360
AE5
102
}
330
433
100
AcDbVisualStyle
  2
Basic
 70
     7
 71
     1
 72
     0
 73
     1
 90
        0
 40
0.6
 41
30.0
 62
     5
 63
     7
 74
     0
 91
        4
 64
     7
 65
   257
 75
     1
175
     1
 42
1.0
 92
        8
 66
     7
 43
1.0
 76
     1
 77
     6
 78
     2
 67
     7
 79
     5
170
     0
171
     0
290
     0
174
     0
 93
        1
 44
0.0
173
     0
291
     1
 45
0.0
1001
ACAD
1000
AcDbSavedByObjectVersion
1070
     0
  0
VISUALSTYLE
  5
43F
102
{ACAD_REACTORS
330
433
102
}
102
{ACAD_XDICTIONARY
360
AED
102
}
330
433
100
AcDbVisualStyle
  2
Brighten
 70
    12
 71
     2
 72
     2
 73
     0
 90
        0
 40
0.6
 41
30.0
 62
     5
 63
     7
 74
     1
 91
        4
 64
     7
 65
   257
 75
     1
175
     1
 42
1.0
 92
        8
 66
     7
 43
1.0
 76
     1
 77
     6
 78
     2
 67
     7
 79
     5
170
     0
171
     0
290
     0
174
     0
 93
        1
 44
50.0
173
     0
291
     1
 45
0.0
1001
ACAD
1000
AcDbSavedByObjectVersion
1070
     0
  0
VISUALSTYLE
  5
443
102
{ACAD_REACTORS
330
433
102
}
102
{ACAD_XDICTIONARY
360
AF5
102
}
330
433
100
AcDbVisualStyle
  2
ColorChange
 70
    16
 71
     2
 72
     2
 73
     3
 90
        0
 40
0.6
 41
30.0
 62
     5
 63
     8
 74
     1
 91
        4
 64
     7
 65
   257
 75
     1
175
     1
 42
1.0
 92
        8
 66
     8
 43
1.0
 76
     1
 77
     6
 78
     2
 67
     7
 79
     5
170
     0
171
     0
290
     0
174
     0
 93
        1
 44
0.0
173
     0
291
     1
 45
0.0
1001
ACAD
1000
AcDbSavedByObjectVersion
1070
     0
  0
VISUALSTYLE
  5
43D
102
{ACAD_REACTORS
330
433
102
}
102
{ACAD_XDICTIONARY
360
AE9
102
}
330
433
100
AcDbVisualStyle
  2
Conceptual
 70
     9
 71
     3
 72
     2
 73
     0
 90
        0
 40
0.6
 41
30.0
 62
     5
 63
     7
 74
     2
 91
        2
 64
     7
 65
   257
 75
     1
175
     1
 42
179.0
 92
        8
 66
     7
 43
1.0
 76
     1
 77
     6
 78
     2
 67
     7
 79
     3
170
     0
171
     0
290
     0
174
     0
 93
        1
 44
0.0
173
     0
291
     0
 45
0.0
1001
ACAD
1000
AcDbSavedByObjectVersion
1070
     0
  0
VISUALSTYLE
  5
43E
102
{ACAD_REACTORS
330
433
102
}
102
{ACAD_XDICTIONARY
360
AEB
102
}
330
433
100
AcDbVisualStyle
  2
Dim
 70
    11
 71
     2
 72
     2
 73
     0
 90
        0
 40
0.6
 41
30.0
 62
     5
 63
     7
 74
     1
 91
        4
 64
     7
 65
   257
 75
     1
175
     1
 42
1.0
 92
        8
 66
     7
 43
1.0
 76
     1
 77
     6
 78
     2
 67
     7
 79
     5
170
     0
171
     0
290
     0
174
     0
 93
        1
 44
-50.0
173
     0
291
     1
 45
0.0
1001
ACAD
1000
AcDbSavedByObjectVersion
1070
     0
  0
VISUALSTYLE
  5
446
102
{ACAD_REACTORS
330
433
102
}
102
{ACAD_XDICTIONARY
360
AFB
102
}
330
433
100
AcDbVisualStyle
  2
EdgeColorOff
 70
    22
 71
     2
 72
     2
 73
     0
 90
        0
 40
0.6
 41
30.0
 62
     5
 63
     7
 74
     1
 91
        4
 64
     7
 65
   257
 75
     1
175
     1
 42
1.0
 92
        8
 66
     7
 43
1.0
 76
     1
 77
     6
 78
     2
 67
     7
 79
     5
170
     0
171
     0
290
     0
174
     0
 93
        1
 44
0.0
173
     0
291
     1
 45
0.0
1001
ACAD
1000
AcDbSavedByObjectVersion
1070
     0
  0
VISUALSTYLE
  5
442
102
{ACAD_REACTORS
330
433
102
}
102
{ACAD_XDICTIONARY
360
AF3
102
}
330
433
100
AcDbVisualStyle
  2
Facepattern
 70
    15
 71
     2
 72
     2
 73
     0
 90
        0
 40
0.6
 41
30.0
 62
     5
 63
     7
 74
     1
 91
        4
 64
     7
 65
   257
 75
     1
175
     1
 42
1.0
 92
        8
 66
     7
 43
1.0
 76
     1
 77
     6
 78
     2
 67
     7
 79
     5
170
     0
171
     0
290
     0
174
     0
 93
        1
 44
0.0
173
     0
291
     1
 45
0.0
1001
ACAD
1000
AcDbSavedByObjectVersion
1070
     0
  0
VISUALSTYLE
  5
434
102
{ACAD_REACTORS
330
433
102
}
102
{ACAD_XDICTIONARY
360
AD7
102
}
330
433
100
AcDbVisualStyle
  2
Flat
 70
     0
 71
     2
 72
     1
 73
     1
 90
        2
 40
0.6
 41
30.0
 62
     5
 63
     7
 74
     0
 91
        0
 64
     7
 65
   257
 75
     1
175
     1
 42
1.0
 92
        8
 66
     7
 43
1.0
 76
     1
 77
     6
 78
     2
 67
     7
 79
     5
170
     0
171
     0
290
     0
174
     0
 93
       13
 44
0.0
173
     0
291
     1
 45
0.0
1001
ACAD
1000
AcDbSavedByObjectVersion
1070
     0
  0
VISUALSTYLE
  5
435
102
{ACAD_REACTORS
330
433
102
}
102
{ACAD_XDICTIONARY
360
AD9
102
}
330
433
100
AcDbVisualStyle
  2
FlatWithEdges
 70
     1
 71
     2
 72
     1
 73
     1
 90
        2
 40
0.6
 41
30.0
 62
     5
 63
     7
 74
     1
 91
        0
 64
     7
 65
   257
 75
     1
175
     1
 42
1.0
 92
        0
 66
   257
 43
1.0
 76
     1
 77
     6
 78
     2
 67
     7
 79
     5
170
     0
171
     0
290
     0
174
     0
 93
       13
 44
0.0
173
     0
291
     1
 45
0.0
1001
ACAD
1000
AcDbSavedByObjectVersion
1070
     0
  0
VISUALSTYLE
  5
436
102
{ACAD_REACTORS
330
433
102
}
102
{ACAD_XDICTIONARY
360
ADB
102
}
330
433
100
AcDbVisualStyle
  2
Gouraud
 70
     2
 71
     2
 72
     2
 73
     1
 90
        2
 40
0.6
 41
30.0
 62
     5
 63
     7
 74
     0
 91
        0
 64
     7
 65
   257
 75
     1
175
     1
 42
1.0
 92
        0
 66
     7
 43
1.0
 76
     1
 77
     6
 78
     2
 67
     7
 79
     5
170
     0
171
     0
290
     0
174
     0
 93
       13
 44
0.0
173
     0
291
     1
 45
0.0
1001
ACAD
1000
AcDbSavedByObjectVersion
1070
     0
  0
VISUALSTYLE
  5
437
102
{ACAD_REACTORS
330
433
102
}
102
{ACAD_XDICTIONARY
360
ADD
102
}
330
433
100
AcDbVisualStyle
  2
GouraudWithEdges
 70
     3
 71
     2
 72
     2
 73
     1
 90
        2
 40
0.6
 41
30.0
 62
     5
 63
     7
 74
     1
 91
        0
 64
     7
 65
   257
 75
     1
175
     1
 42
1.0
 92
        0
 66
   257
 43
1.0
 76
     1
 77
     6
 78
     2
 67
     7
 79
     5
170
     0
171
     0
290
     0
174
     0
 93
       13
 44
0.0
173
     0
291
     1
 45
0.0
1001
ACAD
1000
AcDbSavedByObjectVersion
1070
     0
  0
VISUALSTYLE
  5
43A
102
{ACAD_REACTORS
330
433
102
}
102
{ACAD_XDICTIONARY
360
AE3
102
}
330
433
100
AcDbVisualStyle
  2
Hidden
 70
     6
 71
     1
 72
     2
 73
     2
 90
        0
 40
0.6
 41
30.0
 62
     5
 63
     7
 74
     2
 91
        2
 64
     7
 65
   257
 75
     2
175
     1
 42
40.0
 92
        0
 66
   257
 43
1.0
 76
     1
 77
     6
 78
     2
 67
     7
 79
     3
170
     0
171
     0
290
     0
174
     0
 93
        1
 44
0.0
173
     0
291
     0
 45
0.0
1001
ACAD
1000
AcDbSavedByObjectVersion
1070
     0
  0
VISUALSTYLE
  5
444
102
{ACAD_REACTORS
330
433
102
}
102
{ACAD_XDICTIONARY
360
AF7
102
}
330
433
100
AcDbVisualStyle
  2
JitterOff
 70
    20
 71
     2
 72
     2
 73
     0
 90
        0
 40
0.6
 41
30.0
 62
     5
 63
     7
 74
     1
 91
        4
 64
     7
 65
   257
 75
     1
175
     1
 42
1.0
 92
       10
 66
     7
 43
1.0
 76
     1
 77
     6
 78
     2
 67
     7
 79
     5
170
     0
171
     0
290
     0
174
     0
 93
        1
 44
0.0
173
     0
291
     1
 45
0.0
1001
ACAD
1000
AcDbSavedByObjectVersion
1070
     0
  0
VISUALSTYLE
  5
441
102
{ACAD_REACTORS
330
433
102
}
102
{ACAD_XDICTIONARY
360
AF1
102
}
330
433
100
AcDbVisualStyle
  2
Linepattern
 70
    14
 71
     2
 72
     2
 73
     0
 90
        0
 40
0.6
 41
30.0
 62
     5
 63
     7
 74
     1
 91
        4
 64
     7
 65
   257
 75
     7
175
     7
 42
1.0
 92
        8
 66
     7
 43
1.0
 76
     1
 77
     6
 78
     2
 67
     7
 79
     5
170
     0
171
     0
290
     0
174
     0
 93
        1
 44
0.0
173
     0
291
     1
 45
0.0
1001
ACAD
1000
AcDbSavedByObjectVersion
1070
     0
  0
VISUALSTYLE
  5
454
102
{ACAD_REACTORS
330
433
102
}
102
{ACAD_XDICTIONARY
360
B07
102
}
330
433
100
AcDbVisualStyle
  2

 70
    10
 71
     2
 72
     3
 73
     0
 90
        2
 40
0.6
 41
30.0
 62
     5
 63
     7
 74
     2
 91
        0
 64
     7
 65
   257
 75
     1
175
     1
 42
180.0
 92
        8
 66
     8
 43
1.0
 76
     1
 77
     6
 78
     2
 67
     7
 79
     5
170
     0
171
     0
290
     0
174
     0
 93
       13
 44
0.0
173
     0
291
     0
 45
0.0
1001
ACAD
1000
AcDbSavedByObjectVersion
1070
     0
  0
VISUALSTYLE
  5
445
102
{ACAD_REACTORS
330
433
102
}
102
{ACAD_XDICTIONARY
360
AF9
102
}
330
433
100
AcDbVisualStyle
  2
OverhangOff
 70
    21
 71
     2
 72
     2
 73
     0
 90
        0
 40
0.6
 41
30.0
 62
     5
 63
     7
 74
     1
 91
        4
 64
     7
 65
   257
 75
     1
175
     1
 42
1.0
 92
        9
 66
     7
 43
1.0
 76
     1
 77
     6
 78
     2
 67
     7
 79
     5
170
     0
171
     0
290
     0
174
     0
 93
        1
 44
0.0
173
     0
291
     1
 45
0.0
1001
ACAD
1000
AcDbSavedByObjectVersion
1070
     0
  0
VISUALSTYLE
  5
43C
102
{ACAD_REACTORS
330
433
102
}
102
{ACAD_XDICTIONARY
360
AE7
102
}
330
433
100
AcDbVisualStyle
  2
Realistic
 70
     8
 71
     2
 72
     3
 73
     0
 90
        2
 40
0.6
 41
30.0
 62
     5
 63
     7
 74
     0
 91
        0
 64
     7
 65
   257
 75
     1
175
     1
 42
1.0
 92
        8
 66
   257
 43
1.0
 76
     1
 77
     6
 78
     2
 67
     7
 79
     3
170
     0
171
     0
290
     0
174
     0
 93
       13
 44
0.0
173
     0
291
     0
 45
0.0
1001
ACAD
1000
AcDbSavedByObjectVersion
1070
     0
  0
VISUALSTYLE
  5
44B
102
{ACAD_REACTORS
330
433
102
}
102
{ACAD_XDICTIONARY
360
B05
102
}
330
433
100
AcDbVisualStyle
  2
Shaded
 70
    27
 71
     2
 72
     2
 73
     1
 90
        2
 40
0.6
 41
30.0
 62
     5
 63
     7
 74
     0
 91
        4
 64
     7
 65
   257
 75
     1
175
     1
 42
1.0
 92
        8
 66
   257
 43
1.0
 76
     1
 77
     6
 78
     2
 67
     8
 79
     3
170
     0
171
     0
290
     0
174
     0
 93
        5
 44
0.0
173
     0
291
     0
 45
0.0
1001
ACAD
1000
AcDbSavedByObjectVersion
1070
     0
  0
VISUALSTYLE
  5
44A
102
{ACAD_REACTORS
330
433
102
}
102
{ACAD_XDICTIONARY
360
B03
102
}
330
433
100
AcDbVisualStyle
  2
Shaded with edges
 70
    26
 71
     2
 72
     2
 73
     1
 90
        2
 40
0.6
 41
30.0
 62
     5
 63
     7
 74
     1
 91
       10
 64
     7
 65
   257
 75
     2
175
     1
 42
1.0
 92
        8
 66
   257
 43
1.0
 76
     1
 77
     6
 78
     2
 67
     7
 79
     3
170
     0
171
     0
290
     0
174
     0
 93
        5
 44
0.0
173
     0
291
     0
 45
0.0
1001
ACAD
1000
AcDbSavedByObjectVersion
1070
     0
  0
VISUALSTYLE
  5
447
102
{ACAD_REACTORS
330
433
102
}
102
{ACAD_XDICTIONARY
360
AFD
102
}
330
433
100
AcDbVisualStyle
  2
Shades of Gray
 70
    23
 71
     2
 72
     2
 73
     3
 90
        0
 40
0.6
 41
30.0
 62
     5
 63
     7
 74
     2
 91
        2
 64
     7
 65
     7
 75
     1
175
     1
 42
40.0
 92
        8
 66
     7
 43
1.0
 76
     1
 77
     6
 78
     2
 67
     7
 79
     3
170
     0
171
     0
290
     0
174
     0
 93
        1
 44
0.0
173
     0
291
     0
 45
0.0
1001
ACAD
1000
AcDbSavedByObjectVersion
1070
     0
  0
VISUALSTYLE
  5
448
102
{ACAD_REACTORS
330
433
102
}
102
{ACAD_XDICTIONARY
360
AFF
102
}
330
433
100
AcDbVisualStyle
  2
Sketchy
 70
    24
 71
     1
 72
     2
 73
     2
 90
        0
 40
0.6
 41
30.0
 62
     5
 63
     7
 74
     2
 91
        2
 64
     7
 65
     7
 75
     1
175
     1
 42
40.0
 92
       11
 66
     7
 43
1.0
 76
     1
 77
     6
 78
     2
 67
     7
 79
     6
170
     0
171
     0
290
     0
174
     0
 93
        1
 44
0.0
173
     0
291
     0
 45
0.0
1001
ACAD
1000
AcDbSavedByObjectVersion
1070
     0
  0
VISUALSTYLE
  5
440
102
{ACAD_REACTORS
330
433
102
}
102
{ACAD_XDICTIONARY
360
AEF
102
}
330
433
100
AcDbVisualStyle
  2
Thicken
 70
    13
 71
     2
 72
     2
 73
     0
 90
        0
 40
0.6
 41
30.0
 62
     5
 63
     7
 74
     1
 91
        4
 64
     7
 65
   257
 75
     1
175
     1
 42
1.0
 92
       12
 66
     7
 43
1.0
 76
     1
 77
     6
 78
     2
 67
     7
 79
     5
170
     0
171
     0
290
     0
174
     0
 93
        1
 44
0.0
173
     0
291
     1
 45
0.0
1001
ACAD
1000
AcDbSavedByObjectVersion
1070
     0
  0
VISUALSTYLE
  5
439
102
{ACAD_REACTORS
330
433
102
}
102
{ACAD_XDICTIONARY
360
AE1
102
}
330
433
100
AcDbVisualStyle
  2
Wireframe
 70
     5
 71
     0
 72
     2
 73
     0
 90
        0
 40
0.6
 41
30.0
 62
     5
 63
     7
 74
     1
 91
        4
 64
     7
 65
   257
 75
     1
175
     1
 42
1.0
 92
        0
 66
   257
 43
1.0
 76
     1
 77
     6
 78
     2
 67
     7
 79
     3
170
     0
171
     0
290
     0
174
     0
 93
        1
 44
0.0
173
     0
291
     0
 45
0.0
1001
ACAD
1000
AcDbSavedByObjectVersion
1070
     0
  0
VISUALSTYLE
  5
449
102
{ACAD_REACTORS
330
433
102
}
102
{ACAD_XDICTIONARY
360
B01
102
}
330
433
100
AcDbVisualStyle
  2
X-Ray
 70
    25
 71
     2
 72
     2
 73
     1
 90
        1
 40
0.5
 41
30.0
 62
     5
 63
     7
 74
     1
 91
        0
 64
     7
 65
   257
 75
     1
175
     1
 42
1.0
 92
        8
 66
     7
 43
1.0
 76
     1
 77
     6
 78
     2
 67
     7
 79
     3
170
     0
171
     0
290
     0
174
     0
 93
       13
 44
0.0
173
     0
291
     0
 45
0.0
1001
ACAD
1000
AcDbSavedByObjectVersion
1070
     0
  0
DICTIONARYVAR
  5
AD1
102
{ACAD_REACTORS
330
80D
102
}
330
80D
100
DictionaryVariables
280
     0
  1
1:1
  0
DICTIONARYVAR
  5
810
102
{ACAD_REACTORS
330
80D
102
}
330
80D
100
DictionaryVariables
280
     0
  1
Standard
  0
DICTIONARYVAR
  5
80F
102
{ACAD_REACTORS
330
80D
102
}
330
80D
100
DictionaryVariables
280
     0
  1
Standard
  0
DICTIONARYVAR
  5
899
102
{ACAD_REACTORS
330
80D
102
}
330
80D
100
DictionaryVariables
280
     0
  1
2
  0
DICTIONARYVAR
  5
89A
102
{ACAD_REACTORS
330
80D
102
}
330
80D
100
DictionaryVariables
280
     0
  1
1
  0
DICTIONARYVAR
  5
811
102
{ACAD_REACTORS
330
80D
102
}
330
80D
100
DictionaryVariables
280
     0
  1
0
  0
DICTIONARY
  5
872
102
{ACAD_REACTORS
330
871
102
}
330
871
100
AcDbDictionary
281
     1
  0
DICTIONARY
  5
876
102
{ACAD_REACTORS
330
875
102
}
330
875
100
AcDbDictionary
281
     1
  0
DICTIONARY
  5
B0B
330
44E
100
AcDbDictionary
280
     1
281
     1
  3
ACAD_XREC_ROUNDTRIP
360
B0C
  0
DICTIONARY
  5
B09
330
44D
100
AcDbDictionary
280
     1
281
     1
  3
ACAD_XREC_ROUNDTRIP
360
B0A
  0
DICTIONARY
  5
B0D
330
44F
100
AcDbDictionary
280
     1
281
     1
  3
ACAD_XREC_ROUNDTRIP
360
B0E
  0
DICTIONARY
  5
B0F
330
453
100
AcDbDictionary
280
     1
281
     1
  3
ACAD_XREC_ROUNDTRIP
360
B10
  0
DICTIONARY
  5
ADF
330
438
100
AcDbDictionary
280
     1
281
     1
  3
ACAD_XREC_ROUNDTRIP
360
AE0
  0
DICTIONARY
  5
AE5
330
43B
100
AcDbDictionary
280
     1
281
     1
  3
ACAD_XREC_ROUNDTRIP
360
AE6
  0
DICTIONARY
  5
AED
330
43F
100
AcDbDictionary
280
     1
281
     1
  3
ACAD_XREC_ROUNDTRIP
360
AEE
  0
DICTIONARY
  5
AF5
330
443
100
AcDbDictionary
280
     1
281
     1
  3
ACAD_XREC_ROUNDTRIP
360
AF6
  0
DICTIONARY
  5
AE9
330
43D
100
AcDbDictionary
280
     1
281
     1
  3
ACAD_XREC_ROUNDTRIP
360
AEA
  0
DICTIONARY
  5
AEB
330
43E
100
AcDbDictionary
280
     1
281
     1
  3
ACAD_XREC_ROUNDTRIP
360
AEC
  0
DICTIONARY
  5
AFB
330
446
100
AcDbDictionary
280
     1
281
     1
  3
ACAD_XREC_ROUNDTRIP
360
AFC
  0
DICTIONARY
  5
AF3
330
442
100
AcDbDictionary
280
     1
281
     1
  3
ACAD_XREC_ROUNDTRIP
360
AF4
  0
DICTIONARY
  5
AD7
330
434
100
AcDbDictionary
280
     1
281
     1
  3
ACAD_XREC_ROUNDTRIP
360
AD8
  0
DICTIONARY
  5
AD9
330
435
100
AcDbDictionary
280
     1
281
     1
  3
ACAD_XREC_ROUNDTRIP
360
ADA
  0
DICTIONARY
  5
ADB
330
436
100
AcDbDictionary
280
     1
281
     1
  3
ACAD_XREC_ROUNDTRIP
360
ADC
  0
DICTIONARY
  5
ADD
330
437
100
AcDbDictionary
280
     1
281
     1
  3
ACAD_XREC_ROUNDTRIP
360
ADE
  0
DICTIONARY
  5
AE3
330
43A
100
AcDbDictionary
280
     1
281
     1
  3
ACAD_XREC_ROUNDTRIP
360
AE4
  0
DICTIONARY
  5
AF7
330
444
100
AcDbDictionary
280
     1
281
     1
  3
ACAD_XREC_ROUNDTRIP
360
AF8
  0
DICTIONARY
  5
AF1
330
441
100
AcDbDictionary
280
     1
281
     1
  3
ACAD_XREC_ROUNDTRIP
360
AF2
  0
DICTIONARY
  5
B07
330
454
100
AcDbDictionary
280
     1
281
     1
  3
ACAD_XREC_ROUNDTRIP
360
B08
  0
DICTIONARY
  5
AF9
330
445
100
AcDbDictionary
280
     1
281
     1
  3
ACAD_XREC_ROUNDTRIP
360
AFA
  0
DICTIONARY
  5
AE7
330
43C
100
AcDbDictionary
280
     1
281
     1
  3
ACAD_XREC_ROUNDTRIP
360
AE8
  0
DICTIONARY
  5
B05
330
44B
100
AcDbDictionary
280
     1
281
     1
  3
ACAD_XREC_ROUNDTRIP
360
B06
  0
DICTIONARY
  5
B03
330
44A
100
AcDbDictionary
280
     1
281
     1
  3
ACAD_XREC_ROUNDTRIP
360
B04
  0
DICTIONARY
  5
AFD
330
447
100
AcDbDictionary
280
     1
281
     1
  3
ACAD_XREC_ROUNDTRIP
360
AFE
  0
DICTIONARY
  5
AFF
330
448
100
AcDbDictionary
280
     1
281
     1
  3
ACAD_XREC_ROUNDTRIP
360
B00
  0
DICTIONARY
  5
AEF
330
440
100
AcDbDictionary
280
     1
281
     1
  3
ACAD_XREC_ROUNDTRIP
360
AF0
  0
DICTIONARY
  5
AE1
330
439
100
AcDbDictionary
280
     1
281
     1
  3
ACAD_XREC_ROUNDTRIP
360
AE2
  0
DICTIONARY
  5
B01
330
449
100
AcDbDictionary
280
     1
281
     1
  3
ACAD_XREC_ROUNDTRIP
360
B02
  0
XRECORD
  5
B0C
102
{ACAD_REACTORS
330
B0B
102
}
330
B0B
100
AcDbXrecord
280
     1
102
MATERIAL
148
0.0
149
0.0
149
0.0
 93
        0
 94
      127
282
     0
 72
     1
 77
     1
171
     1
175
     1
179
     1
273
     0
  0
XRECORD
  5
B0A
102
{ACAD_REACTORS
330
B09
102
}
330
B09
100
AcDbXrecord
280
     1
102
MATERIAL
148
0.0
149
0.0
149
0.0
 93
        0
 94
      127
282
     0
 72
     1
 77
     1
171
     1
175
     1
179
     1
273
     0
  0
XRECORD
  5
B0E
102
{ACAD_REACTORS
330
B0D
102
}
330
B0D
100
AcDbXrecord
280
     1
102
MATERIAL
148
0.0
149
0.0
149
0.0
 93
        0
 94
      127
282
     0
 72
     1
 77
     1
171
     1
175
     1
179
     1
273
     0
  0
XRECORD
  5
B10
102
{ACAD_REACTORS
330
B0F
102
}
330
B0F
100
AcDbXrecord
280
     1
102
ACAD_ROUNDTRIP_2010_MLEADER_STYLE
  0
XRECORD
  5
AE0
102
{ACAD_REACTORS
330
ADF
102
}
330
ADF
100
AcDbXrecord
280
     1
102
RTVSPropertyOp0
 70
     1
102
RTVSPropertyOp1
 70
     1
102
RTVSPropertyOp2
 70
     1
102
RTVSPropertyOp3
 70
     1
102
RTVSPropertyOp4
 70
     1
102
RTVSPropertyOp5
 70
     1
102
RTVSPropertyOp6
 70
     1
102
RTVSPropertyOp7
 70
     1
102
RTVSPropertyOp8
 70
     1
102
RTVSPropertyOp9
 70
     1
102
RTVSPropertyOp10
 70
     1
102
RTVSPropertyOp11
 70
     1
102
RTVSPropertyOp12
 70
     1
102
RTVSPropertyOp13
 70
     1
102
RTVSPropertyOp14
 70
     1
102
RTVSPropertyOp15
 70
     1
102
RTVSPropertyOp16
 70
     1
102
RTVSPropertyOp17
 70
     1
102
RTVSPropertyOp18
 70
     1
102
RTVSPropertyOp19
 70
     1
102
RTVSPropertyOp20
 70
     1
102
RTVSPropertyOp21
 70
     1
102
RTVSPropertyOp22
 70
     1
102
RTVSPropertyOp23
 70
     1
102
RTVSPropertyOp24
 70
     1
102
RTVSPropertyOp25
 70
     1
102
RTVSPropertyOp26
 70
     1
102
RTVSPropertyOp27
 70
     1
102
RTVSPropertyOp28
 70
     1
102
RTVSPropertyOp29
 70
     1
102
RTVSPropertyOp30
 70
     1
102
RTVSPropertyOp31
 70
     1
102
RTVSPropertyOp32
 70
     1
102
RTVSPropertyOp33
 70
     1
102
RTVSPropertyOp34
 70
     1
102
RTVSPropertyOp35
 70
     1
102
RTVSPropertyOp36
 70
     1
102
RTVSPropertyOp37
 70
     1
102
RTVSPropertyOp38
 70
     1
102
RTVSPropertyOp39
 70
     1
102
RTVSPropertyOp40
 70
     1
102
RTVSPropertyOp41
 70
     1
102
RTVSPropertyOp42
 70
     1
102
RTVSPropertyOp43
 70
     1
102
RTVSPropertyOp44
 70
     1
102
RTVSPropertyOp45
 70
     1
102
RTVSPropertyOp46
 70
     1
102
RTVSPropertyOp47
 70
     1
102
RTVSPropertyOp48
 70
     1
102
RTVSPropertyOp49
 70
     1
102
RTVSPropertyOp50
 70
     1
102
RTVSPropertyOp51
 70
     0
102
RTVSPropertyOp52
 70
     0
102
RTVSPropertyOp53
 70
     1
102
RTVSPropertyOp54
 70
     1
102
RTVSPropertyOp55
 70
     1
102
RTVSPropertyOp56
 70
     1
102
RTVSPropertyOp57
 70
     1
102
RTVSPost2010Prop28
280
     1
102
RTVSPost2010PropOp28
 70
     1
102
RTVSPost2010Prop29
280
     1
102
RTVSPost2010PropOp29
 70
     1
102
RTVSPost2010Prop30
280
     0
102
RTVSPost2010PropOp30
 70
     1
102
RTVSPost2010Prop31
280
     0
102
RTVSPost2010PropOp31
 70
     1
102
RTVSPost2010Prop32
280
     0
102
RTVSPost2010PropOp32
 70
     1
102
RTVSPost2010Prop33
280
     0
102
RTVSPost2010PropOp33
 70
     1
102
RTVSPost2010Prop34
280
     0
102
RTVSPost2010PropOp34
 70
     1
102
RTVSPost2010Prop35
280
     0
102
RTVSPost2010PropOp35
 70
     1
102
RTVSPost2010Prop36
280
     0
102
RTVSPost2010PropOp36
 70
     1
102
RTVSPost2010Prop37
 90
       50
102
RTVSPost2010PropOp37
 70
     1
102
RTVSPost2010Prop38
140
0.0
102
RTVSPost2010PropOp38
 70
     1
102
RTVSPost2010Prop39
140
1.0
102
RTVSPost2010PropOp39
 70
     1
102
RTVSPost2010Prop40
 90
        0
102
RTVSPost2010PropOp40
 70
     1
102
RTVSPost2010Prop41ColorIndex
 90
       18
102
RTVSPost2010Prop41ColorRGB
 90
        0
102
RTVSPost2010PropOp41
 70
     1
102
RTVSPost2010Prop42
 90
       50
102
RTVSPost2010PropOp42
 70
     1
102
RTVSPost2010Prop43
 90
        3
102
RTVSPost2010PropOp43
 70
     1
102
RTVSPost2010Prop44ColorIndex
 90
        5
102
RTVSPost2010Prop44ColorRGB
 90
      255
102
RTVSPost2010PropOp44
 70
     1
102
RTVSPost2010Prop45
280
     0
102
RTVSPost2010PropOp45
 70
     1
102
RTVSPost2010Prop46
 90
       50
102
RTVSPost2010PropOp46
 70
     1
102
RTVSPost2010Prop47
 90
       50
102
RTVSPost2010PropOp47
 70
     1
102
RTVSPost2010Prop48
 90
       50
102
RTVSPost2010PropOp48
 70
     1
102
RTVSPost2010Prop49
280
     0
102
RTVSPost2010PropOp49
 70
     1
102
RTVSPost2010Prop50
 90
       50
102
RTVSPost2010PropOp50
 70
     1
102
RTVSPost2010Prop51ColorIndex
 90
      256
102
RTVSPost2010Prop51ColorRGB
 90
-16777216
102
RTVSPost2010PropOp51
 70
     0
102
RTVSPost2010Prop52
140
1.0
102
RTVSPost2010PropOp52
 70
     0
102
RTVSPost2010Prop53
 90
        2
102
RTVSPost2010PropOp53
 70
     1
102
RTVSPost2010Prop54
  1
strokes_ogs.tif
102
RTVSPost2010PropOp54
 70
     1
102
RTVSPost2010Prop55
280
     0
102
RTVSPost2010PropOp55
 70
     1
102
RTVSPost2010Prop56
140
1.0
102
RTVSPost2010PropOp56
 70
     1
102
RTVSPost2010Prop57
140
1.0
102
RTVSPost2010PropOp57
 70
     1
  0
XRECORD
  5
AE6
102
{ACAD_REACTORS
330
AE5
102
}
330
AE5
100
AcDbXrecord
280
     1
102
RTVSPropertyOp0
 70
     1
102
RTVSPropertyOp1
 70
     1
102
RTVSPropertyOp2
 70
     1
102
RTVSPropertyOp3
 70
     1
102
RTVSPropertyOp4
 70
     1
102
RTVSPropertyOp5
 70
     1
102
RTVSPropertyOp6
 70
     1
102
RTVSPropertyOp7
 70
     1
102
RTVSPropertyOp8
 70
     1
102
RTVSPropertyOp9
 70
     1
102
RTVSPropertyOp10
 70
     1
102
RTVSPropertyOp11
 70
     1
102
RTVSPropertyOp12
 70
     1
102
RTVSPropertyOp13
 70
     1
102
RTVSPropertyOp14
 70
     1
102
RTVSPropertyOp15
 70
     1
102
RTVSPropertyOp16
 70
     1
102
RTVSPropertyOp17
 70
     1
102
RTVSPropertyOp18
 70
     1
102
RTVSPropertyOp19
 70
     1
102
RTVSPropertyOp20
 70
     1
102
RTVSPropertyOp21
 70
     1
102
RTVSPropertyOp22
 70
     1
102
RTVSPropertyOp23
 70
     1
102
RTVSPropertyOp24
 70
     1
102
RTVSPropertyOp25
 70
     1
102
RTVSPropertyOp26
 70
     1
102
RTVSPropertyOp27
 70
     1
102
RTVSPropertyOp28
 70
     1
102
RTVSPropertyOp29
 70
     1
102
RTVSPropertyOp30
 70
     1
102
RTVSPropertyOp31
 70
     1
102
RTVSPropertyOp32
 70
     1
102
RTVSPropertyOp33
 70
     1
102
RTVSPropertyOp34
 70
     1
102
RTVSPropertyOp35
 70
     1
102
RTVSPropertyOp36
 70
     1
102
RTVSPropertyOp37
 70
     1
102
RTVSPropertyOp38
 70
     1
102
RTVSPropertyOp39
 70
     1
102
RTVSPropertyOp40
 70
     1
102
RTVSPropertyOp41
 70
     1
102
RTVSPropertyOp42
 70
     1
102
RTVSPropertyOp43
 70
     1
102
RTVSPropertyOp44
 70
     1
102
RTVSPropertyOp45
 70
     1
102
RTVSPropertyOp46
 70
     1
102
RTVSPropertyOp47
 70
     1
102
RTVSPropertyOp48
 70
     1
102
RTVSPropertyOp49
 70
     1
102
RTVSPropertyOp50
 70
     1
102
RTVSPropertyOp51
 70
     0
102
RTVSPropertyOp52
 70
     0
102
RTVSPropertyOp53
 70
     1
102
RTVSPropertyOp54
 70
     1
102
RTVSPropertyOp55
 70
     1
102
RTVSPropertyOp56
 70
     1
102
RTVSPropertyOp57
 70
     1
102
RTVSPost2010Prop28
280
     0
102
RTVSPost2010PropOp28
 70
     1
102
RTVSPost2010Prop29
280
     1
102
RTVSPost2010PropOp29
 70
     1
102
RTVSPost2010Prop30
280
     1
102
RTVSPost2010PropOp30
 70
     1
102
RTVSPost2010Prop31
280
     0
102
RTVSPost2010PropOp31
 70
     1
102
RTVSPost2010Prop32
280
     0
102
RTVSPost2010PropOp32
 70
     1
102
RTVSPost2010Prop33
280
     0
102
RTVSPost2010PropOp33
 70
     1
102
RTVSPost2010Prop34
280
     0
102
RTVSPost2010PropOp34
 70
     1
102
RTVSPost2010Prop35
280
     0
102
RTVSPost2010PropOp35
 70
     1
102
RTVSPost2010Prop36
280
     0
102
RTVSPost2010PropOp36
 70
     1
102
RTVSPost2010Prop37
 90
       50
102
RTVSPost2010PropOp37
 70
     1
102
RTVSPost2010Prop38
140
0.0
102
RTVSPost2010PropOp38
 70
     1
102
RTVSPost2010Prop39
140
1.0
102
RTVSPost2010PropOp39
 70
     1
102
RTVSPost2010Prop40
 90
        0
102
RTVSPost2010PropOp40
 70
     1
102
RTVSPost2010Prop41ColorIndex
 90
       18
102
RTVSPost2010Prop41ColorRGB
 90
        0
102
RTVSPost2010PropOp41
 70
     1
102
RTVSPost2010Prop42
 90
       50
102
RTVSPost2010PropOp42
 70
     1
102
RTVSPost2010Prop43
 90
        3
102
RTVSPost2010PropOp43
 70
     1
102
RTVSPost2010Prop44ColorIndex
 90
        5
102
RTVSPost2010Prop44ColorRGB
 90
      255
102
RTVSPost2010PropOp44
 70
     1
102
RTVSPost2010Prop45
280
     0
102
RTVSPost2010PropOp45
 70
     1
102
RTVSPost2010Prop46
 90
       50
102
RTVSPost2010PropOp46
 70
     1
102
RTVSPost2010Prop47
 90
       50
102
RTVSPost2010PropOp47
 70
     1
102
RTVSPost2010Prop48
 90
       50
102
RTVSPost2010PropOp48
 70
     1
102
RTVSPost2010Prop49
280
     0
102
RTVSPost2010PropOp49
 70
     1
102
RTVSPost2010Prop50
 90
       50
102
RTVSPost2010PropOp50
 70
     1
102
RTVSPost2010Prop51ColorIndex
 90
      256
102
RTVSPost2010Prop51ColorRGB
 90
-16777216
102
RTVSPost2010PropOp51
 70
     0
102
RTVSPost2010Prop52
140
1.0
102
RTVSPost2010PropOp52
 70
     0
102
RTVSPost2010Prop53
 90
        2
102
RTVSPost2010PropOp53
 70
     1
102
RTVSPost2010Prop54
  1
strokes_ogs.tif
102
RTVSPost2010PropOp54
 70
     1
102
RTVSPost2010Prop55
280
     0
102
RTVSPost2010PropOp55
 70
     1
102
RTVSPost2010Prop56
140
1.0
102
RTVSPost2010PropOp56
 70
     1
102
RTVSPost2010Prop57
140
1.0
102
RTVSPost2010PropOp57
 70
     1
  0
XRECORD
  5
AEE
102
{ACAD_REACTORS
330
AED
102
}
330
AED
100
AcDbXrecord
280
     1
102
RTVSPropertyOp0
 70
     1
102
RTVSPropertyOp1
 70
     1
102
RTVSPropertyOp2
 70
     1
102
RTVSPropertyOp3
 70
     1
102
RTVSPropertyOp4
 70
     1
102
RTVSPropertyOp5
 70
     1
102
RTVSPropertyOp6
 70
     1
102
RTVSPropertyOp7
 70
     1
102
RTVSPropertyOp8
 70
     1
102
RTVSPropertyOp9
 70
     1
102
RTVSPropertyOp10
 70
     1
102
RTVSPropertyOp11
 70
     1
102
RTVSPropertyOp12
 70
     1
102
RTVSPropertyOp13
 70
     1
102
RTVSPropertyOp14
 70
     1
102
RTVSPropertyOp15
 70
     1
102
RTVSPropertyOp16
 70
     1
102
RTVSPropertyOp17
 70
     1
102
RTVSPropertyOp18
 70
     1
102
RTVSPropertyOp19
 70
     1
102
RTVSPropertyOp20
 70
     1
102
RTVSPropertyOp21
 70
     1
102
RTVSPropertyOp22
 70
     1
102
RTVSPropertyOp23
 70
     1
102
RTVSPropertyOp24
 70
     1
102
RTVSPropertyOp25
 70
     1
102
RTVSPropertyOp26
 70
     1
102
RTVSPropertyOp27
 70
     1
102
RTVSPropertyOp28
 70
     1
102
RTVSPropertyOp29
 70
     1
102
RTVSPropertyOp30
 70
     1
102
RTVSPropertyOp31
 70
     1
102
RTVSPropertyOp32
 70
     1
102
RTVSPropertyOp33
 70
     1
102
RTVSPropertyOp34
 70
     1
102
RTVSPropertyOp35
 70
     1
102
RTVSPropertyOp36
 70
     1
102
RTVSPropertyOp37
 70
     1
102
RTVSPropertyOp38
 70
     1
102
RTVSPropertyOp39
 70
     1
102
RTVSPropertyOp40
 70
     1
102
RTVSPropertyOp41
 70
     1
102
RTVSPropertyOp42
 70
     1
102
RTVSPropertyOp43
 70
     1
102
RTVSPropertyOp44
 70
     1
102
RTVSPropertyOp45
 70
     1
102
RTVSPropertyOp46
 70
     1
102
RTVSPropertyOp47
 70
     1
102
RTVSPropertyOp48
 70
     1
102
RTVSPropertyOp49
 70
     1
102
RTVSPropertyOp50
 70
     1
102
RTVSPropertyOp51
 70
     0
102
RTVSPropertyOp52
 70
     0
102
RTVSPropertyOp53
 70
     1
102
RTVSPropertyOp54
 70
     1
102
RTVSPropertyOp55
 70
     1
102
RTVSPropertyOp56
 70
     1
102
RTVSPropertyOp57
 70
     1
102
RTVSPost2010Prop28
280
     0
102
RTVSPost2010PropOp28
 70
     1
102
RTVSPost2010Prop29
280
     1
102
RTVSPost2010PropOp29
 70
     1
102
RTVSPost2010Prop30
280
     1
102
RTVSPost2010PropOp30
 70
     1
102
RTVSPost2010Prop31
280
     0
102
RTVSPost2010PropOp31
 70
     1
102
RTVSPost2010Prop32
280
     0
102
RTVSPost2010PropOp32
 70
     1
102
RTVSPost2010Prop33
280
     0
102
RTVSPost2010PropOp33
 70
     1
102
RTVSPost2010Prop34
280
     0
102
RTVSPost2010PropOp34
 70
     1
102
RTVSPost2010Prop35
280
     0
102
RTVSPost2010PropOp35
 70
     1
102
RTVSPost2010Prop36
280
     0
102
RTVSPost2010PropOp36
 70
     1
102
RTVSPost2010Prop37
 90
       50
102
RTVSPost2010PropOp37
 70
     1
102
RTVSPost2010Prop38
140
0.0
102
RTVSPost2010PropOp38
 70
     1
102
RTVSPost2010Prop39
140
1.0
102
RTVSPost2010PropOp39
 70
     1
102
RTVSPost2010Prop40
 90
        0
102
RTVSPost2010PropOp40
 70
     1
102
RTVSPost2010Prop41ColorIndex
 90
       18
102
RTVSPost2010Prop41ColorRGB
 90
        0
102
RTVSPost2010PropOp41
 70
     1
102
RTVSPost2010Prop42
 90
       50
102
RTVSPost2010PropOp42
 70
     1
102
RTVSPost2010Prop43
 90
        3
102
RTVSPost2010PropOp43
 70
     1
102
RTVSPost2010Prop44ColorIndex
 90
        5
102
RTVSPost2010Prop44ColorRGB
 90
      255
102
RTVSPost2010PropOp44
 70
     1
102
RTVSPost2010Prop45
280
     0
102
RTVSPost2010PropOp45
 70
     1
102
RTVSPost2010Prop46
 90
       50
102
RTVSPost2010PropOp46
 70
     1
102
RTVSPost2010Prop47
 90
       50
102
RTVSPost2010PropOp47
 70
     1
102
RTVSPost2010Prop48
 90
       50
102
RTVSPost2010PropOp48
 70
     1
102
RTVSPost2010Prop49
280
     0
102
RTVSPost2010PropOp49
 70
     1
102
RTVSPost2010Prop50
 90
       50
102
RTVSPost2010PropOp50
 70
     1
102
RTVSPost2010Prop51ColorIndex
 90
      256
102
RTVSPost2010Prop51ColorRGB
 90
-16777216
102
RTVSPost2010PropOp51
 70
     0
102
RTVSPost2010Prop52
140
1.0
102
RTVSPost2010PropOp52
 70
     0
102
RTVSPost2010Prop53
 90
        2
102
RTVSPost2010PropOp53
 70
     1
102
RTVSPost2010Prop54
  1
strokes_ogs.tif
102
RTVSPost2010PropOp54
 70
     1
102
RTVSPost2010Prop55
280
     0
102
RTVSPost2010PropOp55
 70
     1
102
RTVSPost2010Prop56
140
1.0
102
RTVSPost2010PropOp56
 70
     1
102
RTVSPost2010Prop57
140
1.0
102
RTVSPost2010PropOp57
 70
     1
  0
XRECORD
  5
AF6
102
{ACAD_REACTORS
330
AF5
102
}
330
AF5
100
AcDbXrecord
280
     1
102
RTVSPropertyOp0
 70
     1
102
RTVSPropertyOp1
 70
     1
102
RTVSPropertyOp2
 70
     1
102
RTVSPropertyOp3
 70
     1
102
RTVSPropertyOp4
 70
     1
102
RTVSPropertyOp5
 70
     1
102
RTVSPropertyOp6
 70
     1
102
RTVSPropertyOp7
 70
     1
102
RTVSPropertyOp8
 70
     1
102
RTVSPropertyOp9
 70
     1
102
RTVSPropertyOp10
 70
     1
102
RTVSPropertyOp11
 70
     1
102
RTVSPropertyOp12
 70
     1
102
RTVSPropertyOp13
 70
     1
102
RTVSPropertyOp14
 70
     1
102
RTVSPropertyOp15
 70
     1
102
RTVSPropertyOp16
 70
     1
102
RTVSPropertyOp17
 70
     1
102
RTVSPropertyOp18
 70
     1
102
RTVSPropertyOp19
 70
     1
102
RTVSPropertyOp20
 70
     1
102
RTVSPropertyOp21
 70
     1
102
RTVSPropertyOp22
 70
     1
102
RTVSPropertyOp23
 70
     1
102
RTVSPropertyOp24
 70
     1
102
RTVSPropertyOp25
 70
     1
102
RTVSPropertyOp26
 70
     1
102
RTVSPropertyOp27
 70
     1
102
RTVSPropertyOp28
 70
     1
102
RTVSPropertyOp29
 70
     1
102
RTVSPropertyOp30
 70
     1
102
RTVSPropertyOp31
 70
     1
102
RTVSPropertyOp32
 70
     1
102
RTVSPropertyOp33
 70
     1
102
RTVSPropertyOp34
 70
     1
102
RTVSPropertyOp35
 70
     1
102
RTVSPropertyOp36
 70
     1
102
RTVSPropertyOp37
 70
     1
102
RTVSPropertyOp38
 70
     1
102
RTVSPropertyOp39
 70
     1
102
RTVSPropertyOp40
 70
     1
102
RTVSPropertyOp41
 70
     1
102
RTVSPropertyOp42
 70
     1
102
RTVSPropertyOp43
 70
     1
102
RTVSPropertyOp44
 70
     1
102
RTVSPropertyOp45
 70
     1
102
RTVSPropertyOp46
 70
     1
102
RTVSPropertyOp47
 70
     1
102
RTVSPropertyOp48
 70
     1
102
RTVSPropertyOp49
 70
     1
102
RTVSPropertyOp50
 70
     1
102
RTVSPropertyOp51
 70
     0
102
RTVSPropertyOp52
 70
     0
102
RTVSPropertyOp53
 70
     1
102
RTVSPropertyOp54
 70
     1
102
RTVSPropertyOp55
 70
     1
102
RTVSPropertyOp56
 70
     1
102
RTVSPropertyOp57
 70
     1
102
RTVSPost2010Prop28
280
     0
102
RTVSPost2010PropOp28
 70
     1
102
RTVSPost2010Prop29
280
     1
102
RTVSPost2010PropOp29
 70
     1
102
RTVSPost2010Prop30
280
     1
102
RTVSPost2010PropOp30
 70
     1
102
RTVSPost2010Prop31
280
     0
102
RTVSPost2010PropOp31
 70
     1
102
RTVSPost2010Prop32
280
     0
102
RTVSPost2010PropOp32
 70
     1
102
RTVSPost2010Prop33
280
     0
102
RTVSPost2010PropOp33
 70
     1
102
RTVSPost2010Prop34
280
     0
102
RTVSPost2010PropOp34
 70
     1
102
RTVSPost2010Prop35
280
     0
102
RTVSPost2010PropOp35
 70
     1
102
RTVSPost2010Prop36
280
     0
102
RTVSPost2010PropOp36
 70
     1
102
RTVSPost2010Prop37
 90
       50
102
RTVSPost2010PropOp37
 70
     1
102
RTVSPost2010Prop38
140
0.0
102
RTVSPost2010PropOp38
 70
     1
102
RTVSPost2010Prop39
140
1.0
102
RTVSPost2010PropOp39
 70
     1
102
RTVSPost2010Prop40
 90
        0
102
RTVSPost2010PropOp40
 70
     1
102
RTVSPost2010Prop41ColorIndex
 90
       18
102
RTVSPost2010Prop41ColorRGB
 90
        0
102
RTVSPost2010PropOp41
 70
     1
102
RTVSPost2010Prop42
 90
       50
102
RTVSPost2010PropOp42
 70
     1
102
RTVSPost2010Prop43
 90
        3
102
RTVSPost2010PropOp43
 70
     1
102
RTVSPost2010Prop44ColorIndex
 90
        5
102
RTVSPost2010Prop44ColorRGB
 90
      255
102
RTVSPost2010PropOp44
 70
     1
102
RTVSPost2010Prop45
280
     0
102
RTVSPost2010PropOp45
 70
     1
102
RTVSPost2010Prop46
 90
       50
102
RTVSPost2010PropOp46
 70
     1
102
RTVSPost2010Prop47
 90
       50
102
RTVSPost2010PropOp47
 70
     1
102
RTVSPost2010Prop48
 90
       50
102
RTVSPost2010PropOp48
 70
     1
102
RTVSPost2010Prop49
280
     0
102
RTVSPost2010PropOp49
 70
     1
102
RTVSPost2010Prop50
 90
       50
102
RTVSPost2010PropOp50
 70
     1
102
RTVSPost2010Prop51ColorIndex
 90
      256
102
RTVSPost2010Prop51ColorRGB
 90
-16777216
102
RTVSPost2010PropOp51
 70
     0
102
RTVSPost2010Prop52
140
1.0
102
RTVSPost2010PropOp52
 70
     0
102
RTVSPost2010Prop53
 90
        2
102
RTVSPost2010PropOp53
 70
     1
102
RTVSPost2010Prop54
  1
strokes_ogs.tif
102
RTVSPost2010PropOp54
 70
     1
102
RTVSPost2010Prop55
280
     0
102
RTVSPost2010PropOp55
 70
     1
102
RTVSPost2010Prop56
140
1.0
102
RTVSPost2010PropOp56
 70
     1
102
RTVSPost2010Prop57
140
1.0
102
RTVSPost2010PropOp57
 70
     1
  0
XRECORD
  5
AEA
102
{ACAD_REACTORS
330
AE9
102
}
330
AE9
100
AcDbXrecord
280
     1
102
RTVSPropertyOp0
 70
     1
102
RTVSPropertyOp1
 70
     1
102
RTVSPropertyOp2
 70
     1
102
RTVSPropertyOp3
 70
     1
102
RTVSPropertyOp4
 70
     1
102
RTVSPropertyOp5
 70
     1
102
RTVSPropertyOp6
 70
     1
102
RTVSPropertyOp7
 70
     1
102
RTVSPropertyOp8
 70
     1
102
RTVSPropertyOp9
 70
     1
102
RTVSPropertyOp10
 70
     1
102
RTVSPropertyOp11
 70
     1
102
RTVSPropertyOp12
 70
     1
102
RTVSPropertyOp13
 70
     1
102
RTVSPropertyOp14
 70
     1
102
RTVSPropertyOp15
 70
     1
102
RTVSPropertyOp16
 70
     1
102
RTVSPropertyOp17
 70
     1
102
RTVSPropertyOp18
 70
     1
102
RTVSPropertyOp19
 70
     1
102
RTVSPropertyOp20
 70
     1
102
RTVSPropertyOp21
 70
     1
102
RTVSPropertyOp22
 70
     1
102
RTVSPropertyOp23
 70
     1
102
RTVSPropertyOp24
 70
     1
102
RTVSPropertyOp25
 70
     1
102
RTVSPropertyOp26
 70
     1
102
RTVSPropertyOp27
 70
     1
102
RTVSPropertyOp28
 70
     1
102
RTVSPropertyOp29
 70
     1
102
RTVSPropertyOp30
 70
     1
102
RTVSPropertyOp31
 70
     1
102
RTVSPropertyOp32
 70
     1
102
RTVSPropertyOp33
 70
     1
102
RTVSPropertyOp34
 70
     1
102
RTVSPropertyOp35
 70
     1
102
RTVSPropertyOp36
 70
     1
102
RTVSPropertyOp37
 70
     1
102
RTVSPropertyOp38
 70
     1
102
RTVSPropertyOp39
 70
     1
102
RTVSPropertyOp40
 70
     1
102
RTVSPropertyOp41
 70
     1
102
RTVSPropertyOp42
 70
     1
102
RTVSPropertyOp43
 70
     1
102
RTVSPropertyOp44
 70
     1
102
RTVSPropertyOp45
 70
     1
102
RTVSPropertyOp46
 70
     1
102
RTVSPropertyOp47
 70
     1
102
RTVSPropertyOp48
 70
     1
102
RTVSPropertyOp49
 70
     1
102
RTVSPropertyOp50
 70
     1
102
RTVSPropertyOp51
 70
     0
102
RTVSPropertyOp52
 70
     0
102
RTVSPropertyOp53
 70
     1
102
RTVSPropertyOp54
 70
     1
102
RTVSPropertyOp55
 70
     1
102
RTVSPropertyOp56
 70
     1
102
RTVSPropertyOp57
 70
     1
102
RTVSPost2010Prop28
280
     0
102
RTVSPost2010PropOp28
 70
     1
102
RTVSPost2010Prop29
280
     1
102
RTVSPost2010PropOp29
 70
     1
102
RTVSPost2010Prop30
280
     1
102
RTVSPost2010PropOp30
 70
     1
102
RTVSPost2010Prop31
280
     0
102
RTVSPost2010PropOp31
 70
     1
102
RTVSPost2010Prop32
280
     0
102
RTVSPost2010PropOp32
 70
     1
102
RTVSPost2010Prop33
280
     0
102
RTVSPost2010PropOp33
 70
     1
102
RTVSPost2010Prop34
280
     0
102
RTVSPost2010PropOp34
 70
     1
102
RTVSPost2010Prop35
280
     0
102
RTVSPost2010PropOp35
 70
     1
102
RTVSPost2010Prop36
280
     0
102
RTVSPost2010PropOp36
 70
     1
102
RTVSPost2010Prop37
 90
       50
102
RTVSPost2010PropOp37
 70
     1
102
RTVSPost2010Prop38
140
0.0
102
RTVSPost2010PropOp38
 70
     1
102
RTVSPost2010Prop39
140
1.0
102
RTVSPost2010PropOp39
 70
     1
102
RTVSPost2010Prop40
 90
        0
102
RTVSPost2010PropOp40
 70
     1
102
RTVSPost2010Prop41ColorIndex
 90
       18
102
RTVSPost2010Prop41ColorRGB
 90
        0
102
RTVSPost2010PropOp41
 70
     1
102
RTVSPost2010Prop42
 90
       50
102
RTVSPost2010PropOp42
 70
     1
102
RTVSPost2010Prop43
 90
        3
102
RTVSPost2010PropOp43
 70
     1
102
RTVSPost2010Prop44ColorIndex
 90
        5
102
RTVSPost2010Prop44ColorRGB
 90
      255
102
RTVSPost2010PropOp44
 70
     1
102
RTVSPost2010Prop45
280
     0
102
RTVSPost2010PropOp45
 70
     1
102
RTVSPost2010Prop46
 90
       50
102
RTVSPost2010PropOp46
 70
     1
102
RTVSPost2010Prop47
 90
       50
102
RTVSPost2010PropOp47
 70
     1
102
RTVSPost2010Prop48
 90
       50
102
RTVSPost2010PropOp48
 70
     1
102
RTVSPost2010Prop49
280
     0
102
RTVSPost2010PropOp49
 70
     1
102
RTVSPost2010Prop50
 90
       50
102
RTVSPost2010PropOp50
 70
     1
102
RTVSPost2010Prop51ColorIndex
 90
      256
102
RTVSPost2010Prop51ColorRGB
 90
-16777216
102
RTVSPost2010PropOp51
 70
     0
102
RTVSPost2010Prop52
140
1.0
102
RTVSPost2010PropOp52
 70
     0
102
RTVSPost2010Prop53
 90
        2
102
RTVSPost2010PropOp53
 70
     1
102
RTVSPost2010Prop54
  1
strokes_ogs.tif
102
RTVSPost2010PropOp54
 70
     1
102
RTVSPost2010Prop55
280
     0
102
RTVSPost2010PropOp55
 70
     1
102
RTVSPost2010Prop56
140
1.0
102
RTVSPost2010PropOp56
 70
     1
102
RTVSPost2010Prop57
140
1.0
102
RTVSPost2010PropOp57
 70
     1
  0
XRECORD
  5
AEC
102
{ACAD_REACTORS
330
AEB
102
}
330
AEB
100
AcDbXrecord
280
     1
102
RTVSPropertyOp0
 70
     1
102
RTVSPropertyOp1
 70
     1
102
RTVSPropertyOp2
 70
     1
102
RTVSPropertyOp3
 70
     1
102
RTVSPropertyOp4
 70
     1
102
RTVSPropertyOp5
 70
     1
102
RTVSPropertyOp6
 70
     1
102
RTVSPropertyOp7
 70
     1
102
RTVSPropertyOp8
 70
     1
102
RTVSPropertyOp9
 70
     1
102
RTVSPropertyOp10
 70
     1
102
RTVSPropertyOp11
 70
     1
102
RTVSPropertyOp12
 70
     1
102
RTVSPropertyOp13
 70
     1
102
RTVSPropertyOp14
 70
     1
102
RTVSPropertyOp15
 70
     1
102
RTVSPropertyOp16
 70
     1
102
RTVSPropertyOp17
 70
     1
102
RTVSPropertyOp18
 70
     1
102
RTVSPropertyOp19
 70
     1
102
RTVSPropertyOp20
 70
     1
102
RTVSPropertyOp21
 70
     1
102
RTVSPropertyOp22
 70
     1
102
RTVSPropertyOp23
 70
     1
102
RTVSPropertyOp24
 70
     1
102
RTVSPropertyOp25
 70
     1
102
RTVSPropertyOp26
 70
     1
102
RTVSPropertyOp27
 70
     1
102
RTVSPropertyOp28
 70
     1
102
RTVSPropertyOp29
 70
     1
102
RTVSPropertyOp30
 70
     1
102
RTVSPropertyOp31
 70
     1
102
RTVSPropertyOp32
 70
     1
102
RTVSPropertyOp33
 70
     1
102
RTVSPropertyOp34
 70
     1
102
RTVSPropertyOp35
 70
     1
102
RTVSPropertyOp36
 70
     1
102
RTVSPropertyOp37
 70
     1
102
RTVSPropertyOp38
 70
     1
102
RTVSPropertyOp39
 70
     1
102
RTVSPropertyOp40
 70
     1
102
RTVSPropertyOp41
 70
     1
102
RTVSPropertyOp42
 70
     1
102
RTVSPropertyOp43
 70
     1
102
RTVSPropertyOp44
 70
     1
102
RTVSPropertyOp45
 70
     1
102
RTVSPropertyOp46
 70
     1
102
RTVSPropertyOp47
 70
     1
102
RTVSPropertyOp48
 70
     1
102
RTVSPropertyOp49
 70
     1
102
RTVSPropertyOp50
 70
     1
102
RTVSPropertyOp51
 70
     0
102
RTVSPropertyOp52
 70
     0
102
RTVSPropertyOp53
 70
     1
102
RTVSPropertyOp54
 70
     1
102
RTVSPropertyOp55
 70
     1
102
RTVSPropertyOp56
 70
     1
102
RTVSPropertyOp57
 70
     1
102
RTVSPost2010Prop28
280
     0
102
RTVSPost2010PropOp28
 70
     1
102
RTVSPost2010Prop29
280
     1
102
RTVSPost2010PropOp29
 70
     1
102
RTVSPost2010Prop30
280
     1
102
RTVSPost2010PropOp30
 70
     1
102
RTVSPost2010Prop31
280
     0
102
RTVSPost2010PropOp31
 70
     1
102
RTVSPost2010Prop32
280
     0
102
RTVSPost2010PropOp32
 70
     1
102
RTVSPost2010Prop33
280
     0
102
RTVSPost2010PropOp33
 70
     1
102
RTVSPost2010Prop34
280
     0
102
RTVSPost2010PropOp34
 70
     1
102
RTVSPost2010Prop35
280
     0
102
RTVSPost2010PropOp35
 70
     1
102
RTVSPost2010Prop36
280
     0
102
RTVSPost2010PropOp36
 70
     1
102
RTVSPost2010Prop37
 90
       50
102
RTVSPost2010PropOp37
 70
     1
102
RTVSPost2010Prop38
140
0.0
102
RTVSPost2010PropOp38
 70
     1
102
RTVSPost2010Prop39
140
1.0
102
RTVSPost2010PropOp39
 70
     1
102
RTVSPost2010Prop40
 90
        0
102
RTVSPost2010PropOp40
 70
     1
102
RTVSPost2010Prop41ColorIndex
 90
       18
102
RTVSPost2010Prop41ColorRGB
 90
        0
102
RTVSPost2010PropOp41
 70
     1
102
RTVSPost2010Prop42
 90
       50
102
RTVSPost2010PropOp42
 70
     1
102
RTVSPost2010Prop43
 90
        3
102
RTVSPost2010PropOp43
 70
     1
102
RTVSPost2010Prop44ColorIndex
 90
        5
102
RTVSPost2010Prop44ColorRGB
 90
      255
102
RTVSPost2010PropOp44
 70
     1
102
RTVSPost2010Prop45
280
     0
102
RTVSPost2010PropOp45
 70
     1
102
RTVSPost2010Prop46
 90
       50
102
RTVSPost2010PropOp46
 70
     1
102
RTVSPost2010Prop47
 90
       50
102
RTVSPost2010PropOp47
 70
     1
102
RTVSPost2010Prop48
 90
       50
102
RTVSPost2010PropOp48
 70
     1
102
RTVSPost2010Prop49
280
     0
102
RTVSPost2010PropOp49
 70
     1
102
RTVSPost2010Prop50
 90
       50
102
RTVSPost2010PropOp50
 70
     1
102
RTVSPost2010Prop51ColorIndex
 90
      256
102
RTVSPost2010Prop51ColorRGB
 90
-16777216
102
RTVSPost2010PropOp51
 70
     0
102
RTVSPost2010Prop52
140
1.0
102
RTVSPost2010PropOp52
 70
     0
102
RTVSPost2010Prop53
 90
        2
102
RTVSPost2010PropOp53
 70
     1
102
RTVSPost2010Prop54
  1
strokes_ogs.tif
102
RTVSPost2010PropOp54
 70
     1
102
RTVSPost2010Prop55
280
     0
102
RTVSPost2010PropOp55
 70
     1
102
RTVSPost2010Prop56
140
1.0
102
RTVSPost2010PropOp56
 70
     1
102
RTVSPost2010Prop57
140
1.0
102
RTVSPost2010PropOp57
 70
     1
  0
XRECORD
  5
AFC
102
{ACAD_REACTORS
330
AFB
102
}
330
AFB
100
AcDbXrecord
280
     1
102
RTVSPropertyOp0
 70
     1
102
RTVSPropertyOp1
 70
     1
102
RTVSPropertyOp2
 70
     1
102
RTVSPropertyOp3
 70
     1
102
RTVSPropertyOp4
 70
     1
102
RTVSPropertyOp5
 70
     1
102
RTVSPropertyOp6
 70
     1
102
RTVSPropertyOp7
 70
     1
102
RTVSPropertyOp8
 70
     1
102
RTVSPropertyOp9
 70
     1
102
RTVSPropertyOp10
 70
     1
102
RTVSPropertyOp11
 70
     1
102
RTVSPropertyOp12
 70
     1
102
RTVSPropertyOp13
 70
     1
102
RTVSPropertyOp14
 70
     1
102
RTVSPropertyOp15
 70
     1
102
RTVSPropertyOp16
 70
     1
102
RTVSPropertyOp17
 70
     1
102
RTVSPropertyOp18
 70
     1
102
RTVSPropertyOp19
 70
     1
102
RTVSPropertyOp20
 70
     1
102
RTVSPropertyOp21
 70
     1
102
RTVSPropertyOp22
 70
     1
102
RTVSPropertyOp23
 70
     1
102
RTVSPropertyOp24
 70
     1
102
RTVSPropertyOp25
 70
     1
102
RTVSPropertyOp26
 70
     1
102
RTVSPropertyOp27
 70
     1
102
RTVSPropertyOp28
 70
     1
102
RTVSPropertyOp29
 70
     1
102
RTVSPropertyOp30
 70
     1
102
RTVSPropertyOp31
 70
     1
102
RTVSPropertyOp32
 70
     1
102
RTVSPropertyOp33
 70
     1
102
RTVSPropertyOp34
 70
     1
102
RTVSPropertyOp35
 70
     1
102
RTVSPropertyOp36
 70
     1
102
RTVSPropertyOp37
 70
     1
102
RTVSPropertyOp38
 70
     1
102
RTVSPropertyOp39
 70
     1
102
RTVSPropertyOp40
 70
     1
102
RTVSPropertyOp41
 70
     1
102
RTVSPropertyOp42
 70
     1
102
RTVSPropertyOp43
 70
     1
102
RTVSPropertyOp44
 70
     1
102
RTVSPropertyOp45
 70
     1
102
RTVSPropertyOp46
 70
     1
102
RTVSPropertyOp47
 70
     1
102
RTVSPropertyOp48
 70
     1
102
RTVSPropertyOp49
 70
     1
102
RTVSPropertyOp50
 70
     1
102
RTVSPropertyOp51
 70
     0
102
RTVSPropertyOp52
 70
     0
102
RTVSPropertyOp53
 70
     1
102
RTVSPropertyOp54
 70
     1
102
RTVSPropertyOp55
 70
     1
102
RTVSPropertyOp56
 70
     1
102
RTVSPropertyOp57
 70
     1
102
RTVSPost2010Prop28
280
     0
102
RTVSPost2010PropOp28
 70
     1
102
RTVSPost2010Prop29
280
     1
102
RTVSPost2010PropOp29
 70
     1
102
RTVSPost2010Prop30
280
     1
102
RTVSPost2010PropOp30
 70
     1
102
RTVSPost2010Prop31
280
     0
102
RTVSPost2010PropOp31
 70
     1
102
RTVSPost2010Prop32
280
     0
102
RTVSPost2010PropOp32
 70
     1
102
RTVSPost2010Prop33
280
     0
102
RTVSPost2010PropOp33
 70
     1
102
RTVSPost2010Prop34
280
     0
102
RTVSPost2010PropOp34
 70
     1
102
RTVSPost2010Prop35
280
     0
102
RTVSPost2010PropOp35
 70
     1
102
RTVSPost2010Prop36
280
     0
102
RTVSPost2010PropOp36
 70
     1
102
RTVSPost2010Prop37
 90
       50
102
RTVSPost2010PropOp37
 70
     1
102
RTVSPost2010Prop38
140
0.0
102
RTVSPost2010PropOp38
 70
     1
102
RTVSPost2010Prop39
140
1.0
102
RTVSPost2010PropOp39
 70
     1
102
RTVSPost2010Prop40
 90
        0
102
RTVSPost2010PropOp40
 70
     1
102
RTVSPost2010Prop41ColorIndex
 90
       18
102
RTVSPost2010Prop41ColorRGB
 90
        0
102
RTVSPost2010PropOp41
 70
     1
102
RTVSPost2010Prop42
 90
       50
102
RTVSPost2010PropOp42
 70
     1
102
RTVSPost2010Prop43
 90
        3
102
RTVSPost2010PropOp43
 70
     1
102
RTVSPost2010Prop44ColorIndex
 90
        5
102
RTVSPost2010Prop44ColorRGB
 90
      255
102
RTVSPost2010PropOp44
 70
     1
102
RTVSPost2010Prop45
280
     0
102
RTVSPost2010PropOp45
 70
     1
102
RTVSPost2010Prop46
 90
       50
102
RTVSPost2010PropOp46
 70
     1
102
RTVSPost2010Prop47
 90
       50
102
RTVSPost2010PropOp47
 70
     1
102
RTVSPost2010Prop48
 90
       50
102
RTVSPost2010PropOp48
 70
     1
102
RTVSPost2010Prop49
280
     0
102
RTVSPost2010PropOp49
 70
     1
102
RTVSPost2010Prop50
 90
       50
102
RTVSPost2010PropOp50
 70
     1
102
RTVSPost2010Prop51ColorIndex
 90
      256
102
RTVSPost2010Prop51ColorRGB
 90
-16777216
102
RTVSPost2010PropOp51
 70
     0
102
RTVSPost2010Prop52
140
1.0
102
RTVSPost2010PropOp52
 70
     0
102
RTVSPost2010Prop53
 90
        2
102
RTVSPost2010PropOp53
 70
     1
102
RTVSPost2010Prop54
  1
strokes_ogs.tif
102
RTVSPost2010PropOp54
 70
     1
102
RTVSPost2010Prop55
280
     0
102
RTVSPost2010PropOp55
 70
     1
102
RTVSPost2010Prop56
140
1.0
102
RTVSPost2010PropOp56
 70
     1
102
RTVSPost2010Prop57
140
1.0
102
RTVSPost2010PropOp57
 70
     1
  0
XRECORD
  5
AF4
102
{ACAD_REACTORS
330
AF3
102
}
330
AF3
100
AcDbXrecord
280
     1
102
RTVSPropertyOp0
 70
     1
102
RTVSPropertyOp1
 70
     1
102
RTVSPropertyOp2
 70
     1
102
RTVSPropertyOp3
 70
     1
102
RTVSPropertyOp4
 70
     1
102
RTVSPropertyOp5
 70
     1
102
RTVSPropertyOp6
 70
     1
102
RTVSPropertyOp7
 70
     1
102
RTVSPropertyOp8
 70
     1
102
RTVSPropertyOp9
 70
     1
102
RTVSPropertyOp10
 70
     1
102
RTVSPropertyOp11
 70
     1
102
RTVSPropertyOp12
 70
     1
102
RTVSPropertyOp13
 70
     1
102
RTVSPropertyOp14
 70
     1
102
RTVSPropertyOp15
 70
     1
102
RTVSPropertyOp16
 70
     1
102
RTVSPropertyOp17
 70
     1
102
RTVSPropertyOp18
 70
     1
102
RTVSPropertyOp19
 70
     1
102
RTVSPropertyOp20
 70
     1
102
RTVSPropertyOp21
 70
     1
102
RTVSPropertyOp22
 70
     1
102
RTVSPropertyOp23
 70
     1
102
RTVSPropertyOp24
 70
     1
102
RTVSPropertyOp25
 70
     1
102
RTVSPropertyOp26
 70
     1
102
RTVSPropertyOp27
 70
     1
102
RTVSPropertyOp28
 70
     1
102
RTVSPropertyOp29
 70
     1
102
RTVSPropertyOp30
 70
     1
102
RTVSPropertyOp31
 70
     1
102
RTVSPropertyOp32
 70
     1
102
RTVSPropertyOp33
 70
     1
102
RTVSPropertyOp34
 70
     1
102
RTVSPropertyOp35
 70
     1
102
RTVSPropertyOp36
 70
     1
102
RTVSPropertyOp37
 70
     1
102
RTVSPropertyOp38
 70
     1
102
RTVSPropertyOp39
 70
     1
102
RTVSPropertyOp40
 70
     1
102
RTVSPropertyOp41
 70
     1
102
RTVSPropertyOp42
 70
     1
102
RTVSPropertyOp43
 70
     1
102
RTVSPropertyOp44
 70
     1
102
RTVSPropertyOp45
 70
     1
102
RTVSPropertyOp46
 70
     1
102
RTVSPropertyOp47
 70
     1
102
RTVSPropertyOp48
 70
     1
102
RTVSPropertyOp49
 70
     1
102
RTVSPropertyOp50
 70
     1
102
RTVSPropertyOp51
 70
     0
102
RTVSPropertyOp52
 70
     0
102
RTVSPropertyOp53
 70
     1
102
RTVSPropertyOp54
 70
     1
102
RTVSPropertyOp55
 70
     1
102
RTVSPropertyOp56
 70
     1
102
RTVSPropertyOp57
 70
     1
102
RTVSPost2010Prop28
280
     0
102
RTVSPost2010PropOp28
 70
     1
102
RTVSPost2010Prop29
280
     1
102
RTVSPost2010PropOp29
 70
     1
102
RTVSPost2010Prop30
280
     1
102
RTVSPost2010PropOp30
 70
     1
102
RTVSPost2010Prop31
280
     0
102
RTVSPost2010PropOp31
 70
     1
102
RTVSPost2010Prop32
280
     0
102
RTVSPost2010PropOp32
 70
     1
102
RTVSPost2010Prop33
280
     0
102
RTVSPost2010PropOp33
 70
     1
102
RTVSPost2010Prop34
280
     0
102
RTVSPost2010PropOp34
 70
     1
102
RTVSPost2010Prop35
280
     0
102
RTVSPost2010PropOp35
 70
     1
102
RTVSPost2010Prop36
280
     0
102
RTVSPost2010PropOp36
 70
     1
102
RTVSPost2010Prop37
 90
       50
102
RTVSPost2010PropOp37
 70
     1
102
RTVSPost2010Prop38
140
0.0
102
RTVSPost2010PropOp38
 70
     1
102
RTVSPost2010Prop39
140
1.0
102
RTVSPost2010PropOp39
 70
     1
102
RTVSPost2010Prop40
 90
        0
102
RTVSPost2010PropOp40
 70
     1
102
RTVSPost2010Prop41ColorIndex
 90
       18
102
RTVSPost2010Prop41ColorRGB
 90
        0
102
RTVSPost2010PropOp41
 70
     1
102
RTVSPost2010Prop42
 90
       50
102
RTVSPost2010PropOp42
 70
     1
102
RTVSPost2010Prop43
 90
        3
102
RTVSPost2010PropOp43
 70
     1
102
RTVSPost2010Prop44ColorIndex
 90
        5
102
RTVSPost2010Prop44ColorRGB
 90
      255
102
RTVSPost2010PropOp44
 70
     1
102
RTVSPost2010Prop45
280
     0
102
RTVSPost2010PropOp45
 70
     1
102
RTVSPost2010Prop46
 90
       50
102
RTVSPost2010PropOp46
 70
     1
102
RTVSPost2010Prop47
 90
       50
102
RTVSPost2010PropOp47
 70
     1
102
RTVSPost2010Prop48
 90
       50
102
RTVSPost2010PropOp48
 70
     1
102
RTVSPost2010Prop49
280
     0
102
RTVSPost2010PropOp49
 70
     1
102
RTVSPost2010Prop50
 90
       50
102
RTVSPost2010PropOp50
 70
     1
102
RTVSPost2010Prop51ColorIndex
 90
      256
102
RTVSPost2010Prop51ColorRGB
 90
-16777216
102
RTVSPost2010PropOp51
 70
     0
102
RTVSPost2010Prop52
140
1.0
102
RTVSPost2010PropOp52
 70
     0
102
RTVSPost2010Prop53
 90
        2
102
RTVSPost2010PropOp53
 70
     1
102
RTVSPost2010Prop54
  1
strokes_ogs.tif
102
RTVSPost2010PropOp54
 70
     1
102
RTVSPost2010Prop55
280
     0
102
RTVSPost2010PropOp55
 70
     1
102
RTVSPost2010Prop56
140
1.0
102
RTVSPost2010PropOp56
 70
     1
102
RTVSPost2010Prop57
140
1.0
102
RTVSPost2010PropOp57
 70
     1
  0
XRECORD
  5
AD8
102
{ACAD_REACTORS
330
AD7
102
}
330
AD7
100
AcDbXrecord
280
     1
102
RTVSPropertyOp0
 70
     1
102
RTVSPropertyOp1
 70
     1
102
RTVSPropertyOp2
 70
     1
102
RTVSPropertyOp3
 70
     1
102
RTVSPropertyOp4
 70
     1
102
RTVSPropertyOp5
 70
     1
102
RTVSPropertyOp6
 70
     1
102
RTVSPropertyOp7
 70
     1
102
RTVSPropertyOp8
 70
     1
102
RTVSPropertyOp9
 70
     1
102
RTVSPropertyOp10
 70
     1
102
RTVSPropertyOp11
 70
     1
102
RTVSPropertyOp12
 70
     1
102
RTVSPropertyOp13
 70
     1
102
RTVSPropertyOp14
 70
     1
102
RTVSPropertyOp15
 70
     1
102
RTVSPropertyOp16
 70
     1
102
RTVSPropertyOp17
 70
     1
102
RTVSPropertyOp18
 70
     1
102
RTVSPropertyOp19
 70
     1
102
RTVSPropertyOp20
 70
     1
102
RTVSPropertyOp21
 70
     1
102
RTVSPropertyOp22
 70
     1
102
RTVSPropertyOp23
 70
     1
102
RTVSPropertyOp24
 70
     1
102
RTVSPropertyOp25
 70
     1
102
RTVSPropertyOp26
 70
     1
102
RTVSPropertyOp27
 70
     1
102
RTVSPropertyOp28
 70
     1
102
RTVSPropertyOp29
 70
     1
102
RTVSPropertyOp30
 70
     1
102
RTVSPropertyOp31
 70
     1
102
RTVSPropertyOp32
 70
     1
102
RTVSPropertyOp33
 70
     1
102
RTVSPropertyOp34
 70
     1
102
RTVSPropertyOp35
 70
     1
102
RTVSPropertyOp36
 70
     1
102
RTVSPropertyOp37
 70
     1
102
RTVSPropertyOp38
 70
     1
102
RTVSPropertyOp39
 70
     1
102
RTVSPropertyOp40
 70
     1
102
RTVSPropertyOp41
 70
     1
102
RTVSPropertyOp42
 70
     1
102
RTVSPropertyOp43
 70
     1
102
RTVSPropertyOp44
 70
     1
102
RTVSPropertyOp45
 70
     1
102
RTVSPropertyOp46
 70
     1
102
RTVSPropertyOp47
 70
     1
102
RTVSPropertyOp48
 70
     1
102
RTVSPropertyOp49
 70
     1
102
RTVSPropertyOp50
 70
     1
102
RTVSPropertyOp51
 70
     0
102
RTVSPropertyOp52
 70
     0
102
RTVSPropertyOp53
 70
     1
102
RTVSPropertyOp54
 70
     1
102
RTVSPropertyOp55
 70
     1
102
RTVSPropertyOp56
 70
     1
102
RTVSPropertyOp57
 70
     1
102
RTVSPost2010Prop28
280
     0
102
RTVSPost2010PropOp28
 70
     1
102
RTVSPost2010Prop29
280
     1
102
RTVSPost2010PropOp29
 70
     1
102
RTVSPost2010Prop30
280
     1
102
RTVSPost2010PropOp30
 70
     1
102
RTVSPost2010Prop31
280
     0
102
RTVSPost2010PropOp31
 70
     1
102
RTVSPost2010Prop32
280
     0
102
RTVSPost2010PropOp32
 70
     1
102
RTVSPost2010Prop33
280
     0
102
RTVSPost2010PropOp33
 70
     1
102
RTVSPost2010Prop34
280
     0
102
RTVSPost2010PropOp34
 70
     1
102
RTVSPost2010Prop35
280
     0
102
RTVSPost2010PropOp35
 70
     1
102
RTVSPost2010Prop36
280
     0
102
RTVSPost2010PropOp36
 70
     1
102
RTVSPost2010Prop37
 90
       50
102
RTVSPost2010PropOp37
 70
     1
102
RTVSPost2010Prop38
140
0.0
102
RTVSPost2010PropOp38
 70
     1
102
RTVSPost2010Prop39
140
1.0
102
RTVSPost2010PropOp39
 70
     1
102
RTVSPost2010Prop40
 90
        0
102
RTVSPost2010PropOp40
 70
     1
102
RTVSPost2010Prop41ColorIndex
 90
       18
102
RTVSPost2010Prop41ColorRGB
 90
        0
102
RTVSPost2010PropOp41
 70
     1
102
RTVSPost2010Prop42
 90
       50
102
RTVSPost2010PropOp42
 70
     1
102
RTVSPost2010Prop43
 90
        3
102
RTVSPost2010PropOp43
 70
     1
102
RTVSPost2010Prop44ColorIndex
 90
        5
102
RTVSPost2010Prop44ColorRGB
 90
      255
102
RTVSPost2010PropOp44
 70
     1
102
RTVSPost2010Prop45
280
     0
102
RTVSPost2010PropOp45
 70
     1
102
RTVSPost2010Prop46
 90
       50
102
RTVSPost2010PropOp46
 70
     1
102
RTVSPost2010Prop47
 90
       50
102
RTVSPost2010PropOp47
 70
     1
102
RTVSPost2010Prop48
 90
       50
102
RTVSPost2010PropOp48
 70
     1
102
RTVSPost2010Prop49
280
     0
102
RTVSPost2010PropOp49
 70
     1
102
RTVSPost2010Prop50
 90
       50
102
RTVSPost2010PropOp50
 70
     1
102
RTVSPost2010Prop51ColorIndex
 90
      256
102
RTVSPost2010Prop51ColorRGB
 90
-16777216
102
RTVSPost2010PropOp51
 70
     0
102
RTVSPost2010Prop52
140
1.0
102
RTVSPost2010PropOp52
 70
     0
102
RTVSPost2010Prop53
 90
        2
102
RTVSPost2010PropOp53
 70
     1
102
RTVSPost2010Prop54
  1
strokes_ogs.tif
102
RTVSPost2010PropOp54
 70
     1
102
RTVSPost2010Prop55
280
     0
102
RTVSPost2010PropOp55
 70
     1
102
RTVSPost2010Prop56
140
1.0
102
RTVSPost2010PropOp56
 70
     1
102
RTVSPost2010Prop57
140
1.0
102
RTVSPost2010PropOp57
 70
     1
  0
XRECORD
  5
ADA
102
{ACAD_REACTORS
330
AD9
102
}
330
AD9
100
AcDbXrecord
280
     1
102
RTVSPropertyOp0
 70
     1
102
RTVSPropertyOp1
 70
     1
102
RTVSPropertyOp2
 70
     1
102
RTVSPropertyOp3
 70
     1
102
RTVSPropertyOp4
 70
     1
102
RTVSPropertyOp5
 70
     1
102
RTVSPropertyOp6
 70
     1
102
RTVSPropertyOp7
 70
     1
102
RTVSPropertyOp8
 70
     1
102
RTVSPropertyOp9
 70
     1
102
RTVSPropertyOp10
 70
     1
102
RTVSPropertyOp11
 70
     1
102
RTVSPropertyOp12
 70
     1
102
RTVSPropertyOp13
 70
     1
102
RTVSPropertyOp14
 70
     1
102
RTVSPropertyOp15
 70
     1
102
RTVSPropertyOp16
 70
     1
102
RTVSPropertyOp17
 70
     1
102
RTVSPropertyOp18
 70
     1
102
RTVSPropertyOp19
 70
     1
102
RTVSPropertyOp20
 70
     1
102
RTVSPropertyOp21
 70
     1
102
RTVSPropertyOp22
 70
     1
102
RTVSPropertyOp23
 70
     1
102
RTVSPropertyOp24
 70
     1
102
RTVSPropertyOp25
 70
     1
102
RTVSPropertyOp26
 70
     1
102
RTVSPropertyOp27
 70
     1
102
RTVSPropertyOp28
 70
     1
102
RTVSPropertyOp29
 70
     1
102
RTVSPropertyOp30
 70
     1
102
RTVSPropertyOp31
 70
     1
102
RTVSPropertyOp32
 70
     1
102
RTVSPropertyOp33
 70
     1
102
RTVSPropertyOp34
 70
     1
102
RTVSPropertyOp35
 70
     1
102
RTVSPropertyOp36
 70
     1
102
RTVSPropertyOp37
 70
     1
102
RTVSPropertyOp38
 70
     1
102
RTVSPropertyOp39
 70
     1
102
RTVSPropertyOp40
 70
     1
102
RTVSPropertyOp41
 70
     1
102
RTVSPropertyOp42
 70
     1
102
RTVSPropertyOp43
 70
     1
102
RTVSPropertyOp44
 70
     1
102
RTVSPropertyOp45
 70
     1
102
RTVSPropertyOp46
 70
     1
102
RTVSPropertyOp47
 70
     1
102
RTVSPropertyOp48
 70
     1
102
RTVSPropertyOp49
 70
     1
102
RTVSPropertyOp50
 70
     1
102
RTVSPropertyOp51
 70
     0
102
RTVSPropertyOp52
 70
     0
102
RTVSPropertyOp53
 70
     1
102
RTVSPropertyOp54
 70
     1
102
RTVSPropertyOp55
 70
     1
102
RTVSPropertyOp56
 70
     1
102
RTVSPropertyOp57
 70
     1
102
RTVSPost2010Prop28
280
     0
102
RTVSPost2010PropOp28
 70
     1
102
RTVSPost2010Prop29
280
     1
102
RTVSPost2010PropOp29
 70
     1
102
RTVSPost2010Prop30
280
     1
102
RTVSPost2010PropOp30
 70
     1
102
RTVSPost2010Prop31
280
     0
102
RTVSPost2010PropOp31
 70
     1
102
RTVSPost2010Prop32
280
     0
102
RTVSPost2010PropOp32
 70
     1
102
RTVSPost2010Prop33
280
     0
102
RTVSPost2010PropOp33
 70
     1
102
RTVSPost2010Prop34
280
     0
102
RTVSPost2010PropOp34
 70
     1
102
RTVSPost2010Prop35
280
     0
102
RTVSPost2010PropOp35
 70
     1
102
RTVSPost2010Prop36
280
     0
102
RTVSPost2010PropOp36
 70
     1
102
RTVSPost2010Prop37
 90
       50
102
RTVSPost2010PropOp37
 70
     1
102
RTVSPost2010Prop38
140
0.0
102
RTVSPost2010PropOp38
 70
     1
102
RTVSPost2010Prop39
140
1.0
102
RTVSPost2010PropOp39
 70
     1
102
RTVSPost2010Prop40
 90
        0
102
RTVSPost2010PropOp40
 70
     1
102
RTVSPost2010Prop41ColorIndex
 90
       18
102
RTVSPost2010Prop41ColorRGB
 90
        0
102
RTVSPost2010PropOp41
 70
     1
102
RTVSPost2010Prop42
 90
       50
102
RTVSPost2010PropOp42
 70
     1
102
RTVSPost2010Prop43
 90
        3
102
RTVSPost2010PropOp43
 70
     1
102
RTVSPost2010Prop44ColorIndex
 90
        5
102
RTVSPost2010Prop44ColorRGB
 90
      255
102
RTVSPost2010PropOp44
 70
     1
102
RTVSPost2010Prop45
280
     0
102
RTVSPost2010PropOp45
 70
     1
102
RTVSPost2010Prop46
 90
       50
102
RTVSPost2010PropOp46
 70
     1
102
RTVSPost2010Prop47
 90
       50
102
RTVSPost2010PropOp47
 70
     1
102
RTVSPost2010Prop48
 90
       50
102
RTVSPost2010PropOp48
 70
     1
102
RTVSPost2010Prop49
280
     0
102
RTVSPost2010PropOp49
 70
     1
102
RTVSPost2010Prop50
 90
       50
102
RTVSPost2010PropOp50
 70
     1
102
RTVSPost2010Prop51ColorIndex
 90
      256
102
RTVSPost2010Prop51ColorRGB
 90
-16777216
102
RTVSPost2010PropOp51
 70
     0
102
RTVSPost2010Prop52
140
1.0
102
RTVSPost2010PropOp52
 70
     0
102
RTVSPost2010Prop53
 90
        2
102
RTVSPost2010PropOp53
 70
     1
102
RTVSPost2010Prop54
  1
strokes_ogs.tif
102
RTVSPost2010PropOp54
 70
     1
102
RTVSPost2010Prop55
280
     0
102
RTVSPost2010PropOp55
 70
     1
102
RTVSPost2010Prop56
140
1.0
102
RTVSPost2010PropOp56
 70
     1
102
RTVSPost2010Prop57
140
1.0
102
RTVSPost2010PropOp57
 70
     1
  0
XRECORD
  5
ADC
102
{ACAD_REACTORS
330
ADB
102
}
330
ADB
100
AcDbXrecord
280
     1
102
RTVSPropertyOp0
 70
     1
102
RTVSPropertyOp1
 70
     1
102
RTVSPropertyOp2
 70
     1
102
RTVSPropertyOp3
 70
     1
102
RTVSPropertyOp4
 70
     1
102
RTVSPropertyOp5
 70
     1
102
RTVSPropertyOp6
 70
     1
102
RTVSPropertyOp7
 70
     1
102
RTVSPropertyOp8
 70
     1
102
RTVSPropertyOp9
 70
     1
102
RTVSPropertyOp10
 70
     1
102
RTVSPropertyOp11
 70
     1
102
RTVSPropertyOp12
 70
     1
102
RTVSPropertyOp13
 70
     1
102
RTVSPropertyOp14
 70
     1
102
RTVSPropertyOp15
 70
     1
102
RTVSPropertyOp16
 70
     1
102
RTVSPropertyOp17
 70
     1
102
RTVSPropertyOp18
 70
     1
102
RTVSPropertyOp19
 70
     1
102
RTVSPropertyOp20
 70
     1
102
RTVSPropertyOp21
 70
     1
102
RTVSPropertyOp22
 70
     1
102
RTVSPropertyOp23
 70
     1
102
RTVSPropertyOp24
 70
     1
102
RTVSPropertyOp25
 70
     1
102
RTVSPropertyOp26
 70
     1
102
RTVSPropertyOp27
 70
     1
102
RTVSPropertyOp28
 70
     1
102
RTVSPropertyOp29
 70
     1
102
RTVSPropertyOp30
 70
     1
102
RTVSPropertyOp31
 70
     1
102
RTVSPropertyOp32
 70
     1
102
RTVSPropertyOp33
 70
     1
102
RTVSPropertyOp34
 70
     1
102
RTVSPropertyOp35
 70
     1
102
RTVSPropertyOp36
 70
     1
102
RTVSPropertyOp37
 70
     1
102
RTVSPropertyOp38
 70
     1
102
RTVSPropertyOp39
 70
     1
102
RTVSPropertyOp40
 70
     1
102
RTVSPropertyOp41
 70
     1
102
RTVSPropertyOp42
 70
     1
102
RTVSPropertyOp43
 70
     1
102
RTVSPropertyOp44
 70
     1
102
RTVSPropertyOp45
 70
     1
102
RTVSPropertyOp46
 70
     1
102
RTVSPropertyOp47
 70
     1
102
RTVSPropertyOp48
 70
     1
102
RTVSPropertyOp49
 70
     1
102
RTVSPropertyOp50
 70
     1
102
RTVSPropertyOp51
 70
     0
102
RTVSPropertyOp52
 70
     0
102
RTVSPropertyOp53
 70
     1
102
RTVSPropertyOp54
 70
     1
102
RTVSPropertyOp55
 70
     1
102
RTVSPropertyOp56
 70
     1
102
RTVSPropertyOp57
 70
     1
102
RTVSPost2010Prop28
280
     0
102
RTVSPost2010PropOp28
 70
     1
102
RTVSPost2010Prop29
280
     1
102
RTVSPost2010PropOp29
 70
     1
102
RTVSPost2010Prop30
280
     1
102
RTVSPost2010PropOp30
 70
     1
102
RTVSPost2010Prop31
280
     0
102
RTVSPost2010PropOp31
 70
     1
102
RTVSPost2010Prop32
280
     0
102
RTVSPost2010PropOp32
 70
     1
102
RTVSPost2010Prop33
280
     0
102
RTVSPost2010PropOp33
 70
     1
102
RTVSPost2010Prop34
280
     0
102
RTVSPost2010PropOp34
 70
     1
102
RTVSPost2010Prop35
280
     0
102
RTVSPost2010PropOp35
 70
     1
102
RTVSPost2010Prop36
280
     0
102
RTVSPost2010PropOp36
 70
     1
102
RTVSPost2010Prop37
 90
       50
102
RTVSPost2010PropOp37
 70
     1
102
RTVSPost2010Prop38
140
0.0
102
RTVSPost2010PropOp38
 70
     1
102
RTVSPost2010Prop39
140
1.0
102
RTVSPost2010PropOp39
 70
     1
102
RTVSPost2010Prop40
 90
        0
102
RTVSPost2010PropOp40
 70
     1
102
RTVSPost2010Prop41ColorIndex
 90
       18
102
RTVSPost2010Prop41ColorRGB
 90
        0
102
RTVSPost2010PropOp41
 70
     1
102
RTVSPost2010Prop42
 90
       50
102
RTVSPost2010PropOp42
 70
     1
102
RTVSPost2010Prop43
 90
        3
102
RTVSPost2010PropOp43
 70
     1
102
RTVSPost2010Prop44ColorIndex
 90
        5
102
RTVSPost2010Prop44ColorRGB
 90
      255
102
RTVSPost2010PropOp44
 70
     1
102
RTVSPost2010Prop45
280
     0
102
RTVSPost2010PropOp45
 70
     1
102
RTVSPost2010Prop46
 90
       50
102
RTVSPost2010PropOp46
 70
     1
102
RTVSPost2010Prop47
 90
       50
102
RTVSPost2010PropOp47
 70
     1
102
RTVSPost2010Prop48
 90
       50
102
RTVSPost2010PropOp48
 70
     1
102
RTVSPost2010Prop49
280
     0
102
RTVSPost2010PropOp49
 70
     1
102
RTVSPost2010Prop50
 90
       50
102
RTVSPost2010PropOp50
 70
     1
102
RTVSPost2010Prop51ColorIndex
 90
      256
102
RTVSPost2010Prop51ColorRGB
 90
-16777216
102
RTVSPost2010PropOp51
 70
     0
102
RTVSPost2010Prop52
140
1.0
102
RTVSPost2010PropOp52
 70
     0
102
RTVSPost2010Prop53
 90
        2
102
RTVSPost2010PropOp53
 70
     1
102
RTVSPost2010Prop54
  1
strokes_ogs.tif
102
RTVSPost2010PropOp54
 70
     1
102
RTVSPost2010Prop55
280
     0
102
RTVSPost2010PropOp55
 70
     1
102
RTVSPost2010Prop56
140
1.0
102
RTVSPost2010PropOp56
 70
     1
102
RTVSPost2010Prop57
140
1.0
102
RTVSPost2010PropOp57
 70
     1
  0
XRECORD
  5
ADE
102
{ACAD_REACTORS
330
ADD
102
}
330
ADD
100
AcDbXrecord
280
     1
102
RTVSPropertyOp0
 70
     1
102
RTVSPropertyOp1
 70
     1
102
RTVSPropertyOp2
 70
     1
102
RTVSPropertyOp3
 70
     1
102
RTVSPropertyOp4
 70
     1
102
RTVSPropertyOp5
 70
     1
102
RTVSPropertyOp6
 70
     1
102
RTVSPropertyOp7
 70
     1
102
RTVSPropertyOp8
 70
     1
102
RTVSPropertyOp9
 70
     1
102
RTVSPropertyOp10
 70
     1
102
RTVSPropertyOp11
 70
     1
102
RTVSPropertyOp12
 70
     1
102
RTVSPropertyOp13
 70
     1
102
RTVSPropertyOp14
 70
     1
102
RTVSPropertyOp15
 70
     1
102
RTVSPropertyOp16
 70
     1
102
RTVSPropertyOp17
 70
     1
102
RTVSPropertyOp18
 70
     1
102
RTVSPropertyOp19
 70
     1
102
RTVSPropertyOp20
 70
     1
102
RTVSPropertyOp21
 70
     1
102
RTVSPropertyOp22
 70
     1
102
RTVSPropertyOp23
 70
     1
102
RTVSPropertyOp24
 70
     1
102
RTVSPropertyOp25
 70
     1
102
RTVSPropertyOp26
 70
     1
102
RTVSPropertyOp27
 70
     1
102
RTVSPropertyOp28
 70
     1
102
RTVSPropertyOp29
 70
     1
102
RTVSPropertyOp30
 70
     1
102
RTVSPropertyOp31
 70
     1
102
RTVSPropertyOp32
 70
     1
102
RTVSPropertyOp33
 70
     1
102
RTVSPropertyOp34
 70
     1
102
RTVSPropertyOp35
 70
     1
102
RTVSPropertyOp36
 70
     1
102
RTVSPropertyOp37
 70
     1
102
RTVSPropertyOp38
 70
     1
102
RTVSPropertyOp39
 70
     1
102
RTVSPropertyOp40
 70
     1
102
RTVSPropertyOp41
 70
     1
102
RTVSPropertyOp42
 70
     1
102
RTVSPropertyOp43
 70
     1
102
RTVSPropertyOp44
 70
     1
102
RTVSPropertyOp45
 70
     1
102
RTVSPropertyOp46
 70
     1
102
RTVSPropertyOp47
 70
     1
102
RTVSPropertyOp48
 70
     1
102
RTVSPropertyOp49
 70
     1
102
RTVSPropertyOp50
 70
     1
102
RTVSPropertyOp51
 70
     0
102
RTVSPropertyOp52
 70
     0
102
RTVSPropertyOp53
 70
     1
102
RTVSPropertyOp54
 70
     1
102
RTVSPropertyOp55
 70
     1
102
RTVSPropertyOp56
 70
     1
102
RTVSPropertyOp57
 70
     1
102
RTVSPost2010Prop28
280
     0
102
RTVSPost2010PropOp28
 70
     1
102
RTVSPost2010Prop29
280
     1
102
RTVSPost2010PropOp29
 70
     1
102
RTVSPost2010Prop30
280
     1
102
RTVSPost2010PropOp30
 70
     1
102
RTVSPost2010Prop31
280
     0
102
RTVSPost2010PropOp31
 70
     1
102
RTVSPost2010Prop32
280
     0
102
RTVSPost2010PropOp32
 70
     1
102
RTVSPost2010Prop33
280
     0
102
RTVSPost2010PropOp33
 70
     1
102
RTVSPost2010Prop34
280
     0
102
RTVSPost2010PropOp34
 70
     1
102
RTVSPost2010Prop35
280
     0
102
RTVSPost2010PropOp35
 70
     1
102
RTVSPost2010Prop36
280
     0
102
RTVSPost2010PropOp36
 70
     1
102
RTVSPost2010Prop37
 90
       50
102
RTVSPost2010PropOp37
 70
     1
102
RTVSPost2010Prop38
140
0.0
102
RTVSPost2010PropOp38
 70
     1
102
RTVSPost2010Prop39
140
1.0
102
RTVSPost2010PropOp39
 70
     1
102
RTVSPost2010Prop40
 90
        0
102
RTVSPost2010PropOp40
 70
     1
102
RTVSPost2010Prop41ColorIndex
 90
       18
102
RTVSPost2010Prop41ColorRGB
 90
        0
102
RTVSPost2010PropOp41
 70
     1
102
RTVSPost2010Prop42
 90
       50
102
RTVSPost2010PropOp42
 70
     1
102
RTVSPost2010Prop43
 90
        3
102
RTVSPost2010PropOp43
 70
     1
102
RTVSPost2010Prop44ColorIndex
 90
        5
102
RTVSPost2010Prop44ColorRGB
 90
      255
102
RTVSPost2010PropOp44
 70
     1
102
RTVSPost2010Prop45
280
     0
102
RTVSPost2010PropOp45
 70
     1
102
RTVSPost2010Prop46
 90
       50
102
RTVSPost2010PropOp46
 70
     1
102
RTVSPost2010Prop47
 90
       50
102
RTVSPost2010PropOp47
 70
     1
102
RTVSPost2010Prop48
 90
       50
102
RTVSPost2010PropOp48
 70
     1
102
RTVSPost2010Prop49
280
     0
102
RTVSPost2010PropOp49
 70
     1
102
RTVSPost2010Prop50
 90
       50
102
RTVSPost2010PropOp50
 70
     1
102
RTVSPost2010Prop51ColorIndex
 90
      256
102
RTVSPost2010Prop51ColorRGB
 90
-16777216
102
RTVSPost2010PropOp51
 70
     0
102
RTVSPost2010Prop52
140
1.0
102
RTVSPost2010PropOp52
 70
     0
102
RTVSPost2010Prop53
 90
        2
102
RTVSPost2010PropOp53
 70
     1
102
RTVSPost2010Prop54
  1
strokes_ogs.tif
102
RTVSPost2010PropOp54
 70
     1
102
RTVSPost2010Prop55
280
     0
102
RTVSPost2010PropOp55
 70
     1
102
RTVSPost2010Prop56
140
1.0
102
RTVSPost2010PropOp56
 70
     1
102
RTVSPost2010Prop57
140
1.0
102
RTVSPost2010PropOp57
 70
     1
  0
XRECORD
  5
AE4
102
{ACAD_REACTORS
330
AE3
102
}
330
AE3
100
AcDbXrecord
280
     1
102
RTVSPropertyOp0
 70
     1
102
RTVSPropertyOp1
 70
     1
102
RTVSPropertyOp2
 70
     1
102
RTVSPropertyOp3
 70
     1
102
RTVSPropertyOp4
 70
     1
102
RTVSPropertyOp5
 70
     1
102
RTVSPropertyOp6
 70
     1
102
RTVSPropertyOp7
 70
     1
102
RTVSPropertyOp8
 70
     1
102
RTVSPropertyOp9
 70
     1
102
RTVSPropertyOp10
 70
     1
102
RTVSPropertyOp11
 70
     1
102
RTVSPropertyOp12
 70
     1
102
RTVSPropertyOp13
 70
     1
102
RTVSPropertyOp14
 70
     1
102
RTVSPropertyOp15
 70
     1
102
RTVSPropertyOp16
 70
     1
102
RTVSPropertyOp17
 70
     1
102
RTVSPropertyOp18
 70
     1
102
RTVSPropertyOp19
 70
     1
102
RTVSPropertyOp20
 70
     1
102
RTVSPropertyOp21
 70
     1
102
RTVSPropertyOp22
 70
     1
102
RTVSPropertyOp23
 70
     1
102
RTVSPropertyOp24
 70
     1
102
RTVSPropertyOp25
 70
     1
102
RTVSPropertyOp26
 70
     1
102
RTVSPropertyOp27
 70
     1
102
RTVSPropertyOp28
 70
     1
102
RTVSPropertyOp29
 70
     1
102
RTVSPropertyOp30
 70
     1
102
RTVSPropertyOp31
 70
     1
102
RTVSPropertyOp32
 70
     1
102
RTVSPropertyOp33
 70
     1
102
RTVSPropertyOp34
 70
     1
102
RTVSPropertyOp35
 70
     1
102
RTVSPropertyOp36
 70
     1
102
RTVSPropertyOp37
 70
     1
102
RTVSPropertyOp38
 70
     1
102
RTVSPropertyOp39
 70
     1
102
RTVSPropertyOp40
 70
     1
102
RTVSPropertyOp41
 70
     1
102
RTVSPropertyOp42
 70
     1
102
RTVSPropertyOp43
 70
     1
102
RTVSPropertyOp44
 70
     1
102
RTVSPropertyOp45
 70
     1
102
RTVSPropertyOp46
 70
     1
102
RTVSPropertyOp47
 70
     1
102
RTVSPropertyOp48
 70
     1
102
RTVSPropertyOp49
 70
     1
102
RTVSPropertyOp50
 70
     1
102
RTVSPropertyOp51
 70
     0
102
RTVSPropertyOp52
 70
     0
102
RTVSPropertyOp53
 70
     1
102
RTVSPropertyOp54
 70
     1
102
RTVSPropertyOp55
 70
     1
102
RTVSPropertyOp56
 70
     1
102
RTVSPropertyOp57
 70
     1
102
RTVSPost2010Prop28
280
     0
102
RTVSPost2010PropOp28
 70
     1
102
RTVSPost2010Prop29
280
     1
102
RTVSPost2010PropOp29
 70
     1
102
RTVSPost2010Prop30
280
     1
102
RTVSPost2010PropOp30
 70
     1
102
RTVSPost2010Prop31
280
     0
102
RTVSPost2010PropOp31
 70
     1
102
RTVSPost2010Prop32
280
     0
102
RTVSPost2010PropOp32
 70
     1
102
RTVSPost2010Prop33
280
     0
102
RTVSPost2010PropOp33
 70
     1
102
RTVSPost2010Prop34
280
     0
102
RTVSPost2010PropOp34
 70
     1
102
RTVSPost2010Prop35
280
     0
102
RTVSPost2010PropOp35
 70
     1
102
RTVSPost2010Prop36
280
     0
102
RTVSPost2010PropOp36
 70
     1
102
RTVSPost2010Prop37
 90
       50
102
RTVSPost2010PropOp37
 70
     1
102
RTVSPost2010Prop38
140
0.0
102
RTVSPost2010PropOp38
 70
     1
102
RTVSPost2010Prop39
140
1.0
102
RTVSPost2010PropOp39
 70
     1
102
RTVSPost2010Prop40
 90
        0
102
RTVSPost2010PropOp40
 70
     1
102
RTVSPost2010Prop41ColorIndex
 90
       18
102
RTVSPost2010Prop41ColorRGB
 90
        0
102
RTVSPost2010PropOp41
 70
     1
102
RTVSPost2010Prop42
 90
       50
102
RTVSPost2010PropOp42
 70
     1
102
RTVSPost2010Prop43
 90
        3
102
RTVSPost2010PropOp43
 70
     1
102
RTVSPost2010Prop44ColorIndex
 90
        5
102
RTVSPost2010Prop44ColorRGB
 90
      255
102
RTVSPost2010PropOp44
 70
     1
102
RTVSPost2010Prop45
280
     0
102
RTVSPost2010PropOp45
 70
     1
102
RTVSPost2010Prop46
 90
       50
102
RTVSPost2010PropOp46
 70
     1
102
RTVSPost2010Prop47
 90
       50
102
RTVSPost2010PropOp47
 70
     1
102
RTVSPost2010Prop48
 90
       50
102
RTVSPost2010PropOp48
 70
     1
102
RTVSPost2010Prop49
280
     0
102
RTVSPost2010PropOp49
 70
     1
102
RTVSPost2010Prop50
 90
       50
102
RTVSPost2010PropOp50
 70
     1
102
RTVSPost2010Prop51ColorIndex
 90
      256
102
RTVSPost2010Prop51ColorRGB
 90
-16777216
102
RTVSPost2010PropOp51
 70
     0
102
RTVSPost2010Prop52
140
1.0
102
RTVSPost2010PropOp52
 70
     0
102
RTVSPost2010Prop53
 90
        2
102
RTVSPost2010PropOp53
 70
     1
102
RTVSPost2010Prop54
  1
strokes_ogs.tif
102
RTVSPost2010PropOp54
 70
     1
102
RTVSPost2010Prop55
280
     0
102
RTVSPost2010PropOp55
 70
     1
102
RTVSPost2010Prop56
140
1.0
102
RTVSPost2010PropOp56
 70
     1
102
RTVSPost2010Prop57
140
1.0
102
RTVSPost2010PropOp57
 70
     1
  0
XRECORD
  5
AF8
102
{ACAD_REACTORS
330
AF7
102
}
330
AF7
100
AcDbXrecord
280
     1
102
RTVSPropertyOp0
 70
     1
102
RTVSPropertyOp1
 70
     1
102
RTVSPropertyOp2
 70
     1
102
RTVSPropertyOp3
 70
     1
102
RTVSPropertyOp4
 70
     1
102
RTVSPropertyOp5
 70
     1
102
RTVSPropertyOp6
 70
     1
102
RTVSPropertyOp7
 70
     1
102
RTVSPropertyOp8
 70
     1
102
RTVSPropertyOp9
 70
     1
102
RTVSPropertyOp10
 70
     1
102
RTVSPropertyOp11
 70
     1
102
RTVSPropertyOp12
 70
     1
102
RTVSPropertyOp13
 70
     1
102
RTVSPropertyOp14
 70
     1
102
RTVSPropertyOp15
 70
     1
102
RTVSPropertyOp16
 70
     1
102
RTVSPropertyOp17
 70
     1
102
RTVSPropertyOp18
 70
     1
102
RTVSPropertyOp19
 70
     1
102
RTVSPropertyOp20
 70
     1
102
RTVSPropertyOp21
 70
     1
102
RTVSPropertyOp22
 70
     1
102
RTVSPropertyOp23
 70
     1
102
RTVSPropertyOp24
 70
     1
102
RTVSPropertyOp25
 70
     1
102
RTVSPropertyOp26
 70
     1
102
RTVSPropertyOp27
 70
     1
102
RTVSPropertyOp28
 70
     1
102
RTVSPropertyOp29
 70
     1
102
RTVSPropertyOp30
 70
     1
102
RTVSPropertyOp31
 70
     1
102
RTVSPropertyOp32
 70
     1
102
RTVSPropertyOp33
 70
     1
102
RTVSPropertyOp34
 70
     1
102
RTVSPropertyOp35
 70
     1
102
RTVSPropertyOp36
 70
     1
102
RTVSPropertyOp37
 70
     1
102
RTVSPropertyOp38
 70
     1
102
RTVSPropertyOp39
 70
     1
102
RTVSPropertyOp40
 70
     1
102
RTVSPropertyOp41
 70
     1
102
RTVSPropertyOp42
 70
     1
102
RTVSPropertyOp43
 70
     1
102
RTVSPropertyOp44
 70
     1
102
RTVSPropertyOp45
 70
     1
102
RTVSPropertyOp46
 70
     1
102
RTVSPropertyOp47
 70
     1
102
RTVSPropertyOp48
 70
     1
102
RTVSPropertyOp49
 70
     1
102
RTVSPropertyOp50
 70
     1
102
RTVSPropertyOp51
 70
     0
102
RTVSPropertyOp52
 70
     0
102
RTVSPropertyOp53
 70
     1
102
RTVSPropertyOp54
 70
     1
102
RTVSPropertyOp55
 70
     1
102
RTVSPropertyOp56
 70
     1
102
RTVSPropertyOp57
 70
     1
102
RTVSPost2010Prop28
280
     0
102
RTVSPost2010PropOp28
 70
     1
102
RTVSPost2010Prop29
280
     1
102
RTVSPost2010PropOp29
 70
     1
102
RTVSPost2010Prop30
280
     1
102
RTVSPost2010PropOp30
 70
     1
102
RTVSPost2010Prop31
280
     0
102
RTVSPost2010PropOp31
 70
     1
102
RTVSPost2010Prop32
280
     0
102
RTVSPost2010PropOp32
 70
     1
102
RTVSPost2010Prop33
280
     0
102
RTVSPost2010PropOp33
 70
     1
102
RTVSPost2010Prop34
280
     0
102
RTVSPost2010PropOp34
 70
     1
102
RTVSPost2010Prop35
280
     0
102
RTVSPost2010PropOp35
 70
     1
102
RTVSPost2010Prop36
280
     0
102
RTVSPost2010PropOp36
 70
     1
102
RTVSPost2010Prop37
 90
       50
102
RTVSPost2010PropOp37
 70
     1
102
RTVSPost2010Prop38
140
0.0
102
RTVSPost2010PropOp38
 70
     1
102
RTVSPost2010Prop39
140
1.0
102
RTVSPost2010PropOp39
 70
     1
102
RTVSPost2010Prop40
 90
        0
102
RTVSPost2010PropOp40
 70
     1
102
RTVSPost2010Prop41ColorIndex
 90
       18
102
RTVSPost2010Prop41ColorRGB
 90
        0
102
RTVSPost2010PropOp41
 70
     1
102
RTVSPost2010Prop42
 90
       50
102
RTVSPost2010PropOp42
 70
     1
102
RTVSPost2010Prop43
 90
        3
102
RTVSPost2010PropOp43
 70
     1
102
RTVSPost2010Prop44ColorIndex
 90
        5
102
RTVSPost2010Prop44ColorRGB
 90
      255
102
RTVSPost2010PropOp44
 70
     1
102
RTVSPost2010Prop45
280
     0
102
RTVSPost2010PropOp45
 70
     1
102
RTVSPost2010Prop46
 90
       50
102
RTVSPost2010PropOp46
 70
     1
102
RTVSPost2010Prop47
 90
       50
102
RTVSPost2010PropOp47
 70
     1
102
RTVSPost2010Prop48
 90
       50
102
RTVSPost2010PropOp48
 70
     1
102
RTVSPost2010Prop49
280
     0
102
RTVSPost2010PropOp49
 70
     1
102
RTVSPost2010Prop50
 90
       50
102
RTVSPost2010PropOp50
 70
     1
102
RTVSPost2010Prop51ColorIndex
 90
      256
102
RTVSPost2010Prop51ColorRGB
 90
-16777216
102
RTVSPost2010PropOp51
 70
     0
102
RTVSPost2010Prop52
140
1.0
102
RTVSPost2010PropOp52
 70
     0
102
RTVSPost2010Prop53
 90
        2
102
RTVSPost2010PropOp53
 70
     1
102
RTVSPost2010Prop54
  1
strokes_ogs.tif
102
RTVSPost2010PropOp54
 70
     1
102
RTVSPost2010Prop55
280
     0
102
RTVSPost2010PropOp55
 70
     1
102
RTVSPost2010Prop56
140
1.0
102
RTVSPost2010PropOp56
 70
     1
102
RTVSPost2010Prop57
140
1.0
102
RTVSPost2010PropOp57
 70
     1
  0
XRECORD
  5
AF2
102
{ACAD_REACTORS
330
AF1
102
}
330
AF1
100
AcDbXrecord
280
     1
102
RTVSPropertyOp0
 70
     1
102
RTVSPropertyOp1
 70
     1
102
RTVSPropertyOp2
 70
     1
102
RTVSPropertyOp3
 70
     1
102
RTVSPropertyOp4
 70
     1
102
RTVSPropertyOp5
 70
     1
102
RTVSPropertyOp6
 70
     1
102
RTVSPropertyOp7
 70
     1
102
RTVSPropertyOp8
 70
     1
102
RTVSPropertyOp9
 70
     1
102
RTVSPropertyOp10
 70
     1
102
RTVSPropertyOp11
 70
     1
102
RTVSPropertyOp12
 70
     1
102
RTVSPropertyOp13
 70
     1
102
RTVSPropertyOp14
 70
     1
102
RTVSPropertyOp15
 70
     1
102
RTVSPropertyOp16
 70
     1
102
RTVSPropertyOp17
 70
     1
102
RTVSPropertyOp18
 70
     1
102
RTVSPropertyOp19
 70
     1
102
RTVSPropertyOp20
 70
     1
102
RTVSPropertyOp21
 70
     1
102
RTVSPropertyOp22
 70
     1
102
RTVSPropertyOp23
 70
     1
102
RTVSPropertyOp24
 70
     1
102
RTVSPropertyOp25
 70
     1
102
RTVSPropertyOp26
 70
     1
102
RTVSPropertyOp27
 70
     1
102
RTVSPropertyOp28
 70
     1
102
RTVSPropertyOp29
 70
     1
102
RTVSPropertyOp30
 70
     1
102
RTVSPropertyOp31
 70
     1
102
RTVSPropertyOp32
 70
     1
102
RTVSPropertyOp33
 70
     1
102
RTVSPropertyOp34
 70
     1
102
RTVSPropertyOp35
 70
     1
102
RTVSPropertyOp36
 70
     1
102
RTVSPropertyOp37
 70
     1
102
RTVSPropertyOp38
 70
     1
102
RTVSPropertyOp39
 70
     1
102
RTVSPropertyOp40
 70
     1
102
RTVSPropertyOp41
 70
     1
102
RTVSPropertyOp42
 70
     1
102
RTVSPropertyOp43
 70
     1
102
RTVSPropertyOp44
 70
     1
102
RTVSPropertyOp45
 70
     1
102
RTVSPropertyOp46
 70
     1
102
RTVSPropertyOp47
 70
     1
102
RTVSPropertyOp48
 70
     1
102
RTVSPropertyOp49
 70
     1
102
RTVSPropertyOp50
 70
     1
102
RTVSPropertyOp51
 70
     0
102
RTVSPropertyOp52
 70
     0
102
RTVSPropertyOp53
 70
     1
102
RTVSPropertyOp54
 70
     1
102
RTVSPropertyOp55
 70
     1
102
RTVSPropertyOp56
 70
     1
102
RTVSPropertyOp57
 70
     1
102
RTVSPost2010Prop28
280
     0
102
RTVSPost2010PropOp28
 70
     1
102
RTVSPost2010Prop29
280
     1
102
RTVSPost2010PropOp29
 70
     1
102
RTVSPost2010Prop30
280
     1
102
RTVSPost2010PropOp30
 70
     1
102
RTVSPost2010Prop31
280
     0
102
RTVSPost2010PropOp31
 70
     1
102
RTVSPost2010Prop32
280
     0
102
RTVSPost2010PropOp32
 70
     1
102
RTVSPost2010Prop33
280
     0
102
RTVSPost2010PropOp33
 70
     1
102
RTVSPost2010Prop34
280
     0
102
RTVSPost2010PropOp34
 70
     1
102
RTVSPost2010Prop35
280
     0
102
RTVSPost2010PropOp35
 70
     1
102
RTVSPost2010Prop36
280
     0
102
RTVSPost2010PropOp36
 70
     1
102
RTVSPost2010Prop37
 90
       50
102
RTVSPost2010PropOp37
 70
     1
102
RTVSPost2010Prop38
140
0.0
102
RTVSPost2010PropOp38
 70
     1
102
RTVSPost2010Prop39
140
1.0
102
RTVSPost2010PropOp39
 70
     1
102
RTVSPost2010Prop40
 90
        0
102
RTVSPost2010PropOp40
 70
     1
102
RTVSPost2010Prop41ColorIndex
 90
       18
102
RTVSPost2010Prop41ColorRGB
 90
        0
102
RTVSPost2010PropOp41
 70
     1
102
RTVSPost2010Prop42
 90
       50
102
RTVSPost2010PropOp42
 70
     1
102
RTVSPost2010Prop43
 90
        3
102
RTVSPost2010PropOp43
 70
     1
102
RTVSPost2010Prop44ColorIndex
 90
        5
102
RTVSPost2010Prop44ColorRGB
 90
      255
102
RTVSPost2010PropOp44
 70
     1
102
RTVSPost2010Prop45
280
     0
102
RTVSPost2010PropOp45
 70
     1
102
RTVSPost2010Prop46
 90
       50
102
RTVSPost2010PropOp46
 70
     1
102
RTVSPost2010Prop47
 90
       50
102
RTVSPost2010PropOp47
 70
     1
102
RTVSPost2010Prop48
 90
       50
102
RTVSPost2010PropOp48
 70
     1
102
RTVSPost2010Prop49
280
     0
102
RTVSPost2010PropOp49
 70
     1
102
RTVSPost2010Prop50
 90
       50
102
RTVSPost2010PropOp50
 70
     1
102
RTVSPost2010Prop51ColorIndex
 90
      256
102
RTVSPost2010Prop51ColorRGB
 90
-16777216
102
RTVSPost2010PropOp51
 70
     0
102
RTVSPost2010Prop52
140
1.0
102
RTVSPost2010PropOp52
 70
     0
102
RTVSPost2010Prop53
 90
        2
102
RTVSPost2010PropOp53
 70
     1
102
RTVSPost2010Prop54
  1
strokes_ogs.tif
102
RTVSPost2010PropOp54
 70
     1
102
RTVSPost2010Prop55
280
     0
102
RTVSPost2010PropOp55
 70
     1
102
RTVSPost2010Prop56
140
1.0
102
RTVSPost2010PropOp56
 70
     1
102
RTVSPost2010Prop57
140
1.0
102
RTVSPost2010PropOp57
 70
     1
  0
XRECORD
  5
B08
102
{ACAD_REACTORS
330
B07
102
}
330
B07
100
AcDbXrecord
280
     1
102
RTVSPropertyOp0
 70
     1
102
RTVSPropertyOp1
 70
     1
102
RTVSPropertyOp2
 70
     1
102
RTVSPropertyOp3
 70
     1
102
RTVSPropertyOp4
 70
     1
102
RTVSPropertyOp5
 70
     1
102
RTVSPropertyOp6
 70
     1
102
RTVSPropertyOp7
 70
     1
102
RTVSPropertyOp8
 70
     1
102
RTVSPropertyOp9
 70
     1
102
RTVSPropertyOp10
 70
     1
102
RTVSPropertyOp11
 70
     1
102
RTVSPropertyOp12
 70
     1
102
RTVSPropertyOp13
 70
     1
102
RTVSPropertyOp14
 70
     1
102
RTVSPropertyOp15
 70
     1
102
RTVSPropertyOp16
 70
     1
102
RTVSPropertyOp17
 70
     1
102
RTVSPropertyOp18
 70
     1
102
RTVSPropertyOp19
 70
     1
102
RTVSPropertyOp20
 70
     1
102
RTVSPropertyOp21
 70
     1
102
RTVSPropertyOp22
 70
     1
102
RTVSPropertyOp23
 70
     1
102
RTVSPropertyOp24
 70
     1
102
RTVSPropertyOp25
 70
     1
102
RTVSPropertyOp26
 70
     1
102
RTVSPropertyOp27
 70
     1
102
RTVSPropertyOp28
 70
     1
102
RTVSPropertyOp29
 70
     1
102
RTVSPropertyOp30
 70
     1
102
RTVSPropertyOp31
 70
     1
102
RTVSPropertyOp32
 70
     1
102
RTVSPropertyOp33
 70
     1
102
RTVSPropertyOp34
 70
     1
102
RTVSPropertyOp35
 70
     1
102
RTVSPropertyOp36
 70
     1
102
RTVSPropertyOp37
 70
     1
102
RTVSPropertyOp38
 70
     1
102
RTVSPropertyOp39
 70
     1
102
RTVSPropertyOp40
 70
     1
102
RTVSPropertyOp41
 70
     1
102
RTVSPropertyOp42
 70
     1
102
RTVSPropertyOp43
 70
     1
102
RTVSPropertyOp44
 70
     1
102
RTVSPropertyOp45
 70
     1
102
RTVSPropertyOp46
 70
     1
102
RTVSPropertyOp47
 70
     1
102
RTVSPropertyOp48
 70
     1
102
RTVSPropertyOp49
 70
     1
102
RTVSPropertyOp50
 70
     1
102
RTVSPropertyOp51
 70
     0
102
RTVSPropertyOp52
 70
     0
102
RTVSPropertyOp53
 70
     1
102
RTVSPropertyOp54
 70
     1
102
RTVSPropertyOp55
 70
     1
102
RTVSPropertyOp56
 70
     1
102
RTVSPropertyOp57
 70
     1
102
RTVSPost2010Prop28
280
     0
102
RTVSPost2010PropOp28
 70
     1
102
RTVSPost2010Prop29
280
     1
102
RTVSPost2010PropOp29
 70
     1
102
RTVSPost2010Prop30
280
     1
102
RTVSPost2010PropOp30
 70
     1
102
RTVSPost2010Prop31
280
     0
102
RTVSPost2010PropOp31
 70
     1
102
RTVSPost2010Prop32
280
     0
102
RTVSPost2010PropOp32
 70
     1
102
RTVSPost2010Prop33
280
     0
102
RTVSPost2010PropOp33
 70
     1
102
RTVSPost2010Prop34
280
     0
102
RTVSPost2010PropOp34
 70
     1
102
RTVSPost2010Prop35
280
     0
102
RTVSPost2010PropOp35
 70
     1
102
RTVSPost2010Prop36
280
     0
102
RTVSPost2010PropOp36
 70
     1
102
RTVSPost2010Prop37
 90
       50
102
RTVSPost2010PropOp37
 70
     1
102
RTVSPost2010Prop38
140
0.0
102
RTVSPost2010PropOp38
 70
     1
102
RTVSPost2010Prop39
140
1.0
102
RTVSPost2010PropOp39
 70
     1
102
RTVSPost2010Prop40
 90
        0
102
RTVSPost2010PropOp40
 70
     1
102
RTVSPost2010Prop41ColorIndex
 90
       18
102
RTVSPost2010Prop41ColorRGB
 90
        0
102
RTVSPost2010PropOp41
 70
     1
102
RTVSPost2010Prop42
 90
       50
102
RTVSPost2010PropOp42
 70
     1
102
RTVSPost2010Prop43
 90
        3
102
RTVSPost2010PropOp43
 70
     1
102
RTVSPost2010Prop44ColorIndex
 90
        5
102
RTVSPost2010Prop44ColorRGB
 90
      255
102
RTVSPost2010PropOp44
 70
     1
102
RTVSPost2010Prop45
280
     0
102
RTVSPost2010PropOp45
 70
     1
102
RTVSPost2010Prop46
 90
       50
102
RTVSPost2010PropOp46
 70
     1
102
RTVSPost2010Prop47
 90
       50
102
RTVSPost2010PropOp47
 70
     1
102
RTVSPost2010Prop48
 90
       50
102
RTVSPost2010PropOp48
 70
     1
102
RTVSPost2010Prop49
280
     0
102
RTVSPost2010PropOp49
 70
     1
102
RTVSPost2010Prop50
 90
       50
102
RTVSPost2010PropOp50
 70
     1
102
RTVSPost2010Prop51ColorIndex
 90
      256
102
RTVSPost2010Prop51ColorRGB
 90
-16777216
102
RTVSPost2010PropOp51
 70
     0
102
RTVSPost2010Prop52
140
1.0
102
RTVSPost2010PropOp52
 70
     0
102
RTVSPost2010Prop53
 90
        2
102
RTVSPost2010PropOp53
 70
     1
102
RTVSPost2010Prop54
  1
strokes_ogs.tif
102
RTVSPost2010PropOp54
 70
     1
102
RTVSPost2010Prop55
280
     0
102
RTVSPost2010PropOp55
 70
     1
102
RTVSPost2010Prop56
140
1.0
102
RTVSPost2010PropOp56
 70
     1
102
RTVSPost2010Prop57
140
1.0
102
RTVSPost2010PropOp57
 70
     1
  0
XRECORD
  5
AFA
102
{ACAD_REACTORS
330
AF9
102
}
330
AF9
100
AcDbXrecord
280
     1
102
RTVSPropertyOp0
 70
     1
102
RTVSPropertyOp1
 70
     1
102
RTVSPropertyOp2
 70
     1
102
RTVSPropertyOp3
 70
     1
102
RTVSPropertyOp4
 70
     1
102
RTVSPropertyOp5
 70
     1
102
RTVSPropertyOp6
 70
     1
102
RTVSPropertyOp7
 70
     1
102
RTVSPropertyOp8
 70
     1
102
RTVSPropertyOp9
 70
     1
102
RTVSPropertyOp10
 70
     1
102
RTVSPropertyOp11
 70
     1
102
RTVSPropertyOp12
 70
     1
102
RTVSPropertyOp13
 70
     1
102
RTVSPropertyOp14
 70
     1
102
RTVSPropertyOp15
 70
     1
102
RTVSPropertyOp16
 70
     1
102
RTVSPropertyOp17
 70
     1
102
RTVSPropertyOp18
 70
     1
102
RTVSPropertyOp19
 70
     1
102
RTVSPropertyOp20
 70
     1
102
RTVSPropertyOp21
 70
     1
102
RTVSPropertyOp22
 70
     1
102
RTVSPropertyOp23
 70
     1
102
RTVSPropertyOp24
 70
     1
102
RTVSPropertyOp25
 70
     1
102
RTVSPropertyOp26
 70
     1
102
RTVSPropertyOp27
 70
     1
102
RTVSPropertyOp28
 70
     1
102
RTVSPropertyOp29
 70
     1
102
RTVSPropertyOp30
 70
     1
102
RTVSPropertyOp31
 70
     1
102
RTVSPropertyOp32
 70
     1
102
RTVSPropertyOp33
 70
     1
102
RTVSPropertyOp34
 70
     1
102
RTVSPropertyOp35
 70
     1
102
RTVSPropertyOp36
 70
     1
102
RTVSPropertyOp37
 70
     1
102
RTVSPropertyOp38
 70
     1
102
RTVSPropertyOp39
 70
     1
102
RTVSPropertyOp40
 70
     1
102
RTVSPropertyOp41
 70
     1
102
RTVSPropertyOp42
 70
     1
102
RTVSPropertyOp43
 70
     1
102
RTVSPropertyOp44
 70
     1
102
RTVSPropertyOp45
 70
     1
102
RTVSPropertyOp46
 70
     1
102
RTVSPropertyOp47
 70
     1
102
RTVSPropertyOp48
 70
     1
102
RTVSPropertyOp49
 70
     1
102
RTVSPropertyOp50
 70
     1
102
RTVSPropertyOp51
 70
     0
102
RTVSPropertyOp52
 70
     0
102
RTVSPropertyOp53
 70
     1
102
RTVSPropertyOp54
 70
     1
102
RTVSPropertyOp55
 70
     1
102
RTVSPropertyOp56
 70
     1
102
RTVSPropertyOp57
 70
     1
102
RTVSPost2010Prop28
280
     0
102
RTVSPost2010PropOp28
 70
     1
102
RTVSPost2010Prop29
280
     1
102
RTVSPost2010PropOp29
 70
     1
102
RTVSPost2010Prop30
280
     1
102
RTVSPost2010PropOp30
 70
     1
102
RTVSPost2010Prop31
280
     0
102
RTVSPost2010PropOp31
 70
     1
102
RTVSPost2010Prop32
280
     0
102
RTVSPost2010PropOp32
 70
     1
102
RTVSPost2010Prop33
280
     0
102
RTVSPost2010PropOp33
 70
     1
102
RTVSPost2010Prop34
280
     0
102
RTVSPost2010PropOp34
 70
     1
102
RTVSPost2010Prop35
280
     0
102
RTVSPost2010PropOp35
 70
     1
102
RTVSPost2010Prop36
280
     0
102
RTVSPost2010PropOp36
 70
     1
102
RTVSPost2010Prop37
 90
       50
102
RTVSPost2010PropOp37
 70
     1
102
RTVSPost2010Prop38
140
0.0
102
RTVSPost2010PropOp38
 70
     1
102
RTVSPost2010Prop39
140
1.0
102
RTVSPost2010PropOp39
 70
     1
102
RTVSPost2010Prop40
 90
        0
102
RTVSPost2010PropOp40
 70
     1
102
RTVSPost2010Prop41ColorIndex
 90
       18
102
RTVSPost2010Prop41ColorRGB
 90
        0
102
RTVSPost2010PropOp41
 70
     1
102
RTVSPost2010Prop42
 90
       50
102
RTVSPost2010PropOp42
 70
     1
102
RTVSPost2010Prop43
 90
        3
102
RTVSPost2010PropOp43
 70
     1
102
RTVSPost2010Prop44ColorIndex
 90
        5
102
RTVSPost2010Prop44ColorRGB
 90
      255
102
RTVSPost2010PropOp44
 70
     1
102
RTVSPost2010Prop45
280
     0
102
RTVSPost2010PropOp45
 70
     1
102
RTVSPost2010Prop46
 90
       50
102
RTVSPost2010PropOp46
 70
     1
102
RTVSPost2010Prop47
 90
       50
102
RTVSPost2010PropOp47
 70
     1
102
RTVSPost2010Prop48
 90
       50
102
RTVSPost2010PropOp48
 70
     1
102
RTVSPost2010Prop49
280
     0
102
RTVSPost2010PropOp49
 70
     1
102
RTVSPost2010Prop50
 90
       50
102
RTVSPost2010PropOp50
 70
     1
102
RTVSPost2010Prop51ColorIndex
 90
      256
102
RTVSPost2010Prop51ColorRGB
 90
-16777216
102
RTVSPost2010PropOp51
 70
     0
102
RTVSPost2010Prop52
140
1.0
102
RTVSPost2010PropOp52
 70
     0
102
RTVSPost2010Prop53
 90
        2
102
RTVSPost2010PropOp53
 70
     1
102
RTVSPost2010Prop54
  1
strokes_ogs.tif
102
RTVSPost2010PropOp54
 70
     1
102
RTVSPost2010Prop55
280
     0
102
RTVSPost2010PropOp55
 70
     1
102
RTVSPost2010Prop56
140
1.0
102
RTVSPost2010PropOp56
 70
     1
102
RTVSPost2010Prop57
140
1.0
102
RTVSPost2010PropOp57
 70
     1
  0
XRECORD
  5
AE8
102
{ACAD_REACTORS
330
AE7
102
}
330
AE7
100
AcDbXrecord
280
     1
102
RTVSPropertyOp0
 70
     1
102
RTVSPropertyOp1
 70
     1
102
RTVSPropertyOp2
 70
     1
102
RTVSPropertyOp3
 70
     1
102
RTVSPropertyOp4
 70
     1
102
RTVSPropertyOp5
 70
     1
102
RTVSPropertyOp6
 70
     1
102
RTVSPropertyOp7
 70
     1
102
RTVSPropertyOp8
 70
     1
102
RTVSPropertyOp9
 70
     1
102
RTVSPropertyOp10
 70
     1
102
RTVSPropertyOp11
 70
     1
102
RTVSPropertyOp12
 70
     1
102
RTVSPropertyOp13
 70
     1
102
RTVSPropertyOp14
 70
     1
102
RTVSPropertyOp15
 70
     1
102
RTVSPropertyOp16
 70
     1
102
RTVSPropertyOp17
 70
     1
102
RTVSPropertyOp18
 70
     1
102
RTVSPropertyOp19
 70
     1
102
RTVSPropertyOp20
 70
     1
102
RTVSPropertyOp21
 70
     1
102
RTVSPropertyOp22
 70
     1
102
RTVSPropertyOp23
 70
     1
102
RTVSPropertyOp24
 70
     1
102
RTVSPropertyOp25
 70
     1
102
RTVSPropertyOp26
 70
     1
102
RTVSPropertyOp27
 70
     1
102
RTVSPropertyOp28
 70
     1
102
RTVSPropertyOp29
 70
     1
102
RTVSPropertyOp30
 70
     1
102
RTVSPropertyOp31
 70
     1
102
RTVSPropertyOp32
 70
     1
102
RTVSPropertyOp33
 70
     1
102
RTVSPropertyOp34
 70
     1
102
RTVSPropertyOp35
 70
     1
102
RTVSPropertyOp36
 70
     1
102
RTVSPropertyOp37
 70
     1
102
RTVSPropertyOp38
 70
     1
102
RTVSPropertyOp39
 70
     1
102
RTVSPropertyOp40
 70
     1
102
RTVSPropertyOp41
 70
     1
102
RTVSPropertyOp42
 70
     1
102
RTVSPropertyOp43
 70
     1
102
RTVSPropertyOp44
 70
     1
102
RTVSPropertyOp45
 70
     1
102
RTVSPropertyOp46
 70
     1
102
RTVSPropertyOp47
 70
     1
102
RTVSPropertyOp48
 70
     1
102
RTVSPropertyOp49
 70
     1
102
RTVSPropertyOp50
 70
     1
102
RTVSPropertyOp51
 70
     0
102
RTVSPropertyOp52
 70
     0
102
RTVSPropertyOp53
 70
     1
102
RTVSPropertyOp54
 70
     1
102
RTVSPropertyOp55
 70
     1
102
RTVSPropertyOp56
 70
     1
102
RTVSPropertyOp57
 70
     1
102
RTVSPost2010Prop28
280
     0
102
RTVSPost2010PropOp28
 70
     1
102
RTVSPost2010Prop29
280
     1
102
RTVSPost2010PropOp29
 70
     1
102
RTVSPost2010Prop30
280
     1
102
RTVSPost2010PropOp30
 70
     1
102
RTVSPost2010Prop31
280
     0
102
RTVSPost2010PropOp31
 70
     1
102
RTVSPost2010Prop32
280
     0
102
RTVSPost2010PropOp32
 70
     1
102
RTVSPost2010Prop33
280
     0
102
RTVSPost2010PropOp33
 70
     1
102
RTVSPost2010Prop34
280
     0
102
RTVSPost2010PropOp34
 70
     1
102
RTVSPost2010Prop35
280
     0
102
RTVSPost2010PropOp35
 70
     1
102
RTVSPost2010Prop36
280
     0
102
RTVSPost2010PropOp36
 70
     1
102
RTVSPost2010Prop37
 90
       50
102
RTVSPost2010PropOp37
 70
     1
102
RTVSPost2010Prop38
140
0.0
102
RTVSPost2010PropOp38
 70
     1
102
RTVSPost2010Prop39
140
1.0
102
RTVSPost2010PropOp39
 70
     1
102
RTVSPost2010Prop40
 90
        0
102
RTVSPost2010PropOp40
 70
     1
102
RTVSPost2010Prop41ColorIndex
 90
       18
102
RTVSPost2010Prop41ColorRGB
 90
        0
102
RTVSPost2010PropOp41
 70
     1
102
RTVSPost2010Prop42
 90
       50
102
RTVSPost2010PropOp42
 70
     1
102
RTVSPost2010Prop43
 90
        3
102
RTVSPost2010PropOp43
 70
     1
102
RTVSPost2010Prop44ColorIndex
 90
        5
102
RTVSPost2010Prop44ColorRGB
 90
      255
102
RTVSPost2010PropOp44
 70
     1
102
RTVSPost2010Prop45
280
     0
102
RTVSPost2010PropOp45
 70
     1
102
RTVSPost2010Prop46
 90
       50
102
RTVSPost2010PropOp46
 70
     1
102
RTVSPost2010Prop47
 90
       50
102
RTVSPost2010PropOp47
 70
     1
102
RTVSPost2010Prop48
 90
       50
102
RTVSPost2010PropOp48
 70
     1
102
RTVSPost2010Prop49
280
     0
102
RTVSPost2010PropOp49
 70
     1
102
RTVSPost2010Prop50
 90
       50
102
RTVSPost2010PropOp50
 70
     1
102
RTVSPost2010Prop51ColorIndex
 90
      256
102
RTVSPost2010Prop51ColorRGB
 90
-16777216
102
RTVSPost2010PropOp51
 70
     0
102
RTVSPost2010Prop52
140
1.0
102
RTVSPost2010PropOp52
 70
     0
102
RTVSPost2010Prop53
 90
        2
102
RTVSPost2010PropOp53
 70
     1
102
RTVSPost2010Prop54
  1
strokes_ogs.tif
102
RTVSPost2010PropOp54
 70
     1
102
RTVSPost2010Prop55
280
     0
102
RTVSPost2010PropOp55
 70
     1
102
RTVSPost2010Prop56
140
1.0
102
RTVSPost2010PropOp56
 70
     1
102
RTVSPost2010Prop57
140
1.0
102
RTVSPost2010PropOp57
 70
     1
  0
XRECORD
  5
B06
102
{ACAD_REACTORS
330
B05
102
}
330
B05
100
AcDbXrecord
280
     1
102
RTVSPropertyOp0
 70
     1
102
RTVSPropertyOp1
 70
     1
102
RTVSPropertyOp2
 70
     1
102
RTVSPropertyOp3
 70
     1
102
RTVSPropertyOp4
 70
     1
102
RTVSPropertyOp5
 70
     1
102
RTVSPropertyOp6
 70
     1
102
RTVSPropertyOp7
 70
     1
102
RTVSPropertyOp8
 70
     1
102
RTVSPropertyOp9
 70
     1
102
RTVSPropertyOp10
 70
     1
102
RTVSPropertyOp11
 70
     1
102
RTVSPropertyOp12
 70
     1
102
RTVSPropertyOp13
 70
     1
102
RTVSPropertyOp14
 70
     1
102
RTVSPropertyOp15
 70
     1
102
RTVSPropertyOp16
 70
     1
102
RTVSPropertyOp17
 70
     1
102
RTVSPropertyOp18
 70
     1
102
RTVSPropertyOp19
 70
     1
102
RTVSPropertyOp20
 70
     1
102
RTVSPropertyOp21
 70
     1
102
RTVSPropertyOp22
 70
     1
102
RTVSPropertyOp23
 70
     1
102
RTVSPropertyOp24
 70
     1
102
RTVSPropertyOp25
 70
     1
102
RTVSPropertyOp26
 70
     1
102
RTVSPropertyOp27
 70
     1
102
RTVSPropertyOp28
 70
     1
102
RTVSPropertyOp29
 70
     1
102
RTVSPropertyOp30
 70
     1
102
RTVSPropertyOp31
 70
     1
102
RTVSPropertyOp32
 70
     1
102
RTVSPropertyOp33
 70
     1
102
RTVSPropertyOp34
 70
     1
102
RTVSPropertyOp35
 70
     1
102
RTVSPropertyOp36
 70
     1
102
RTVSPropertyOp37
 70
     1
102
RTVSPropertyOp38
 70
     1
102
RTVSPropertyOp39
 70
     1
102
RTVSPropertyOp40
 70
     1
102
RTVSPropertyOp41
 70
     1
102
RTVSPropertyOp42
 70
     1
102
RTVSPropertyOp43
 70
     1
102
RTVSPropertyOp44
 70
     1
102
RTVSPropertyOp45
 70
     1
102
RTVSPropertyOp46
 70
     1
102
RTVSPropertyOp47
 70
     1
102
RTVSPropertyOp48
 70
     1
102
RTVSPropertyOp49
 70
     1
102
RTVSPropertyOp50
 70
     1
102
RTVSPropertyOp51
 70
     0
102
RTVSPropertyOp52
 70
     0
102
RTVSPropertyOp53
 70
     1
102
RTVSPropertyOp54
 70
     1
102
RTVSPropertyOp55
 70
     1
102
RTVSPropertyOp56
 70
     1
102
RTVSPropertyOp57
 70
     1
102
RTVSPost2010Prop28
280
     0
102
RTVSPost2010PropOp28
 70
     1
102
RTVSPost2010Prop29
280
     1
102
RTVSPost2010PropOp29
 70
     1
102
RTVSPost2010Prop30
280
     1
102
RTVSPost2010PropOp30
 70
     1
102
RTVSPost2010Prop31
280
     0
102
RTVSPost2010PropOp31
 70
     1
102
RTVSPost2010Prop32
280
     0
102
RTVSPost2010PropOp32
 70
     1
102
RTVSPost2010Prop33
280
     0
102
RTVSPost2010PropOp33
 70
     1
102
RTVSPost2010Prop34
280
     0
102
RTVSPost2010PropOp34
 70
     1
102
RTVSPost2010Prop35
280
     0
102
RTVSPost2010PropOp35
 70
     1
102
RTVSPost2010Prop36
280
     0
102
RTVSPost2010PropOp36
 70
     1
102
RTVSPost2010Prop37
 90
       50
102
RTVSPost2010PropOp37
 70
     1
102
RTVSPost2010Prop38
140
0.0
102
RTVSPost2010PropOp38
 70
     1
102
RTVSPost2010Prop39
140
1.0
102
RTVSPost2010PropOp39
 70
     1
102
RTVSPost2010Prop40
 90
        0
102
RTVSPost2010PropOp40
 70
     1
102
RTVSPost2010Prop41ColorIndex
 90
       18
102
RTVSPost2010Prop41ColorRGB
 90
        0
102
RTVSPost2010PropOp41
 70
     1
102
RTVSPost2010Prop42
 90
       50
102
RTVSPost2010PropOp42
 70
     1
102
RTVSPost2010Prop43
 90
        3
102
RTVSPost2010PropOp43
 70
     1
102
RTVSPost2010Prop44ColorIndex
 90
        5
102
RTVSPost2010Prop44ColorRGB
 90
      255
102
RTVSPost2010PropOp44
 70
     1
102
RTVSPost2010Prop45
280
     0
102
RTVSPost2010PropOp45
 70
     1
102
RTVSPost2010Prop46
 90
       50
102
RTVSPost2010PropOp46
 70
     1
102
RTVSPost2010Prop47
 90
       50
102
RTVSPost2010PropOp47
 70
     1
102
RTVSPost2010Prop48
 90
       50
102
RTVSPost2010PropOp48
 70
     1
102
RTVSPost2010Prop49
280
     0
102
RTVSPost2010PropOp49
 70
     1
102
RTVSPost2010Prop50
 90
       50
102
RTVSPost2010PropOp50
 70
     1
102
RTVSPost2010Prop51ColorIndex
 90
      256
102
RTVSPost2010Prop51ColorRGB
 90
-16777216
102
RTVSPost2010PropOp51
 70
     0
102
RTVSPost2010Prop52
140
1.0
102
RTVSPost2010PropOp52
 70
     0
102
RTVSPost2010Prop53
 90
        2
102
RTVSPost2010PropOp53
 70
     1
102
RTVSPost2010Prop54
  1
strokes_ogs.tif
102
RTVSPost2010PropOp54
 70
     1
102
RTVSPost2010Prop55
280
     0
102
RTVSPost2010PropOp55
 70
     1
102
RTVSPost2010Prop56
140
1.0
102
RTVSPost2010PropOp56
 70
     1
102
RTVSPost2010Prop57
140
1.0
102
RTVSPost2010PropOp57
 70
     1
  0
XRECORD
  5
B04
102
{ACAD_REACTORS
330
B03
102
}
330
B03
100
AcDbXrecord
280
     1
102
RTVSPropertyOp0
 70
     1
102
RTVSPropertyOp1
 70
     1
102
RTVSPropertyOp2
 70
     1
102
RTVSPropertyOp3
 70
     1
102
RTVSPropertyOp4
 70
     1
102
RTVSPropertyOp5
 70
     1
102
RTVSPropertyOp6
 70
     1
102
RTVSPropertyOp7
 70
     1
102
RTVSPropertyOp8
 70
     1
102
RTVSPropertyOp9
 70
     1
102
RTVSPropertyOp10
 70
     1
102
RTVSPropertyOp11
 70
     1
102
RTVSPropertyOp12
 70
     1
102
RTVSPropertyOp13
 70
     1
102
RTVSPropertyOp14
 70
     1
102
RTVSPropertyOp15
 70
     1
102
RTVSPropertyOp16
 70
     1
102
RTVSPropertyOp17
 70
     1
102
RTVSPropertyOp18
 70
     1
102
RTVSPropertyOp19
 70
     1
102
RTVSPropertyOp20
 70
     1
102
RTVSPropertyOp21
 70
     1
102
RTVSPropertyOp22
 70
     1
102
RTVSPropertyOp23
 70
     1
102
RTVSPropertyOp24
 70
     1
102
RTVSPropertyOp25
 70
     1
102
RTVSPropertyOp26
 70
     1
102
RTVSPropertyOp27
 70
     1
102
RTVSPropertyOp28
 70
     1
102
RTVSPropertyOp29
 70
     1
102
RTVSPropertyOp30
 70
     1
102
RTVSPropertyOp31
 70
     1
102
RTVSPropertyOp32
 70
     1
102
RTVSPropertyOp33
 70
     1
102
RTVSPropertyOp34
 70
     1
102
RTVSPropertyOp35
 70
     1
102
RTVSPropertyOp36
 70
     1
102
RTVSPropertyOp37
 70
     1
102
RTVSPropertyOp38
 70
     1
102
RTVSPropertyOp39
 70
     1
102
RTVSPropertyOp40
 70
     1
102
RTVSPropertyOp41
 70
     1
102
RTVSPropertyOp42
 70
     1
102
RTVSPropertyOp43
 70
     1
102
RTVSPropertyOp44
 70
     1
102
RTVSPropertyOp45
 70
     1
102
RTVSPropertyOp46
 70
     1
102
RTVSPropertyOp47
 70
     1
102
RTVSPropertyOp48
 70
     1
102
RTVSPropertyOp49
 70
     1
102
RTVSPropertyOp50
 70
     1
102
RTVSPropertyOp51
 70
     0
102
RTVSPropertyOp52
 70
     0
102
RTVSPropertyOp53
 70
     1
102
RTVSPropertyOp54
 70
     1
102
RTVSPropertyOp55
 70
     1
102
RTVSPropertyOp56
 70
     1
102
RTVSPropertyOp57
 70
     1
102
RTVSPost2010Prop28
280
     0
102
RTVSPost2010PropOp28
 70
     1
102
RTVSPost2010Prop29
280
     1
102
RTVSPost2010PropOp29
 70
     1
102
RTVSPost2010Prop30
280
     1
102
RTVSPost2010PropOp30
 70
     1
102
RTVSPost2010Prop31
280
     0
102
RTVSPost2010PropOp31
 70
     1
102
RTVSPost2010Prop32
280
     0
102
RTVSPost2010PropOp32
 70
     1
102
RTVSPost2010Prop33
280
     0
102
RTVSPost2010PropOp33
 70
     1
102
RTVSPost2010Prop34
280
     0
102
RTVSPost2010PropOp34
 70
     1
102
RTVSPost2010Prop35
280
     0
102
RTVSPost2010PropOp35
 70
     1
102
RTVSPost2010Prop36
280
     0
102
RTVSPost2010PropOp36
 70
     1
102
RTVSPost2010Prop37
 90
       50
102
RTVSPost2010PropOp37
 70
     1
102
RTVSPost2010Prop38
140
0.0
102
RTVSPost2010PropOp38
 70
     1
102
RTVSPost2010Prop39
140
1.0
102
RTVSPost2010PropOp39
 70
     1
102
RTVSPost2010Prop40
 90
        0
102
RTVSPost2010PropOp40
 70
     1
102
RTVSPost2010Prop41ColorIndex
 90
       18
102
RTVSPost2010Prop41ColorRGB
 90
        0
102
RTVSPost2010PropOp41
 70
     1
102
RTVSPost2010Prop42
 90
       50
102
RTVSPost2010PropOp42
 70
     1
102
RTVSPost2010Prop43
 90
        3
102
RTVSPost2010PropOp43
 70
     1
102
RTVSPost2010Prop44ColorIndex
 90
        5
102
RTVSPost2010Prop44ColorRGB
 90
      255
102
RTVSPost2010PropOp44
 70
     1
102
RTVSPost2010Prop45
280
     0
102
RTVSPost2010PropOp45
 70
     1
102
RTVSPost2010Prop46
 90
       50
102
RTVSPost2010PropOp46
 70
     1
102
RTVSPost2010Prop47
 90
       50
102
RTVSPost2010PropOp47
 70
     1
102
RTVSPost2010Prop48
 90
       50
102
RTVSPost2010PropOp48
 70
     1
102
RTVSPost2010Prop49
280
     0
102
RTVSPost2010PropOp49
 70
     1
102
RTVSPost2010Prop50
 90
       50
102
RTVSPost2010PropOp50
 70
     1
102
RTVSPost2010Prop51ColorIndex
 90
      256
102
RTVSPost2010Prop51ColorRGB
 90
-16777216
102
RTVSPost2010PropOp51
 70
     0
102
RTVSPost2010Prop52
140
1.0
102
RTVSPost2010PropOp52
 70
     0
102
RTVSPost2010Prop53
 90
        2
102
RTVSPost2010PropOp53
 70
     1
102
RTVSPost2010Prop54
  1
strokes_ogs.tif
102
RTVSPost2010PropOp54
 70
     1
102
RTVSPost2010Prop55
280
     0
102
RTVSPost2010PropOp55
 70
     1
102
RTVSPost2010Prop56
140
1.0
102
RTVSPost2010PropOp56
 70
     1
102
RTVSPost2010Prop57
140
1.0
102
RTVSPost2010PropOp57
 70
     1
  0
XRECORD
  5
AFE
102
{ACAD_REACTORS
330
AFD
102
}
330
AFD
100
AcDbXrecord
280
     1
102
RTVSPropertyOp0
 70
     1
102
RTVSPropertyOp1
 70
     1
102
RTVSPropertyOp2
 70
     1
102
RTVSPropertyOp3
 70
     1
102
RTVSPropertyOp4
 70
     1
102
RTVSPropertyOp5
 70
     1
102
RTVSPropertyOp6
 70
     1
102
RTVSPropertyOp7
 70
     1
102
RTVSPropertyOp8
 70
     1
102
RTVSPropertyOp9
 70
     1
102
RTVSPropertyOp10
 70
     1
102
RTVSPropertyOp11
 70
     1
102
RTVSPropertyOp12
 70
     1
102
RTVSPropertyOp13
 70
     1
102
RTVSPropertyOp14
 70
     1
102
RTVSPropertyOp15
 70
     1
102
RTVSPropertyOp16
 70
     1
102
RTVSPropertyOp17
 70
     1
102
RTVSPropertyOp18
 70
     1
102
RTVSPropertyOp19
 70
     1
102
RTVSPropertyOp20
 70
     1
102
RTVSPropertyOp21
 70
     1
102
RTVSPropertyOp22
 70
     1
102
RTVSPropertyOp23
 70
     1
102
RTVSPropertyOp24
 70
     1
102
RTVSPropertyOp25
 70
     1
102
RTVSPropertyOp26
 70
     1
102
RTVSPropertyOp27
 70
     1
102
RTVSPropertyOp28
 70
     1
102
RTVSPropertyOp29
 70
     1
102
RTVSPropertyOp30
 70
     1
102
RTVSPropertyOp31
 70
     1
102
RTVSPropertyOp32
 70
     1
102
RTVSPropertyOp33
 70
     1
102
RTVSPropertyOp34
 70
     1
102
RTVSPropertyOp35
 70
     1
102
RTVSPropertyOp36
 70
     1
102
RTVSPropertyOp37
 70
     1
102
RTVSPropertyOp38
 70
     1
102
RTVSPropertyOp39
 70
     1
102
RTVSPropertyOp40
 70
     1
102
RTVSPropertyOp41
 70
     1
102
RTVSPropertyOp42
 70
     1
102
RTVSPropertyOp43
 70
     1
102
RTVSPropertyOp44
 70
     1
102
RTVSPropertyOp45
 70
     1
102
RTVSPropertyOp46
 70
     1
102
RTVSPropertyOp47
 70
     1
102
RTVSPropertyOp48
 70
     1
102
RTVSPropertyOp49
 70
     1
102
RTVSPropertyOp50
 70
     1
102
RTVSPropertyOp51
 70
     0
102
RTVSPropertyOp52
 70
     0
102
RTVSPropertyOp53
 70
     1
102
RTVSPropertyOp54
 70
     1
102
RTVSPropertyOp55
 70
     1
102
RTVSPropertyOp56
 70
     1
102
RTVSPropertyOp57
 70
     1
102
RTVSPost2010Prop28
280
     0
102
RTVSPost2010PropOp28
 70
     1
102
RTVSPost2010Prop29
280
     1
102
RTVSPost2010PropOp29
 70
     1
102
RTVSPost2010Prop30
280
     1
102
RTVSPost2010PropOp30
 70
     1
102
RTVSPost2010Prop31
280
     0
102
RTVSPost2010PropOp31
 70
     1
102
RTVSPost2010Prop32
280
     0
102
RTVSPost2010PropOp32
 70
     1
102
RTVSPost2010Prop33
280
     0
102
RTVSPost2010PropOp33
 70
     1
102
RTVSPost2010Prop34
280
     0
102
RTVSPost2010PropOp34
 70
     1
102
RTVSPost2010Prop35
280
     0
102
RTVSPost2010PropOp35
 70
     1
102
RTVSPost2010Prop36
280
     0
102
RTVSPost2010PropOp36
 70
     1
102
RTVSPost2010Prop37
 90
       50
102
RTVSPost2010PropOp37
 70
     1
102
RTVSPost2010Prop38
140
0.0
102
RTVSPost2010PropOp38
 70
     1
102
RTVSPost2010Prop39
140
1.0
102
RTVSPost2010PropOp39
 70
     1
102
RTVSPost2010Prop40
 90
        0
102
RTVSPost2010PropOp40
 70
     1
102
RTVSPost2010Prop41ColorIndex
 90
       18
102
RTVSPost2010Prop41ColorRGB
 90
        0
102
RTVSPost2010PropOp41
 70
     1
102
RTVSPost2010Prop42
 90
       50
102
RTVSPost2010PropOp42
 70
     1
102
RTVSPost2010Prop43
 90
        3
102
RTVSPost2010PropOp43
 70
     1
102
RTVSPost2010Prop44ColorIndex
 90
        5
102
RTVSPost2010Prop44ColorRGB
 90
      255
102
RTVSPost2010PropOp44
 70
     1
102
RTVSPost2010Prop45
280
     0
102
RTVSPost2010PropOp45
 70
     1
102
RTVSPost2010Prop46
 90
       50
102
RTVSPost2010PropOp46
 70
     1
102
RTVSPost2010Prop47
 90
       50
102
RTVSPost2010PropOp47
 70
     1
102
RTVSPost2010Prop48
 90
       50
102
RTVSPost2010PropOp48
 70
     1
102
RTVSPost2010Prop49
280
     0
102
RTVSPost2010PropOp49
 70
     1
102
RTVSPost2010Prop50
 90
       50
102
RTVSPost2010PropOp50
 70
     1
102
RTVSPost2010Prop51ColorIndex
 90
      256
102
RTVSPost2010Prop51ColorRGB
 90
-16777216
102
RTVSPost2010PropOp51
 70
     0
102
RTVSPost2010Prop52
140
1.0
102
RTVSPost2010PropOp52
 70
     0
102
RTVSPost2010Prop53
 90
        2
102
RTVSPost2010PropOp53
 70
     1
102
RTVSPost2010Prop54
  1
strokes_ogs.tif
102
RTVSPost2010PropOp54
 70
     1
102
RTVSPost2010Prop55
280
     0
102
RTVSPost2010PropOp55
 70
     1
102
RTVSPost2010Prop56
140
1.0
102
RTVSPost2010PropOp56
 70
     1
102
RTVSPost2010Prop57
140
1.0
102
RTVSPost2010PropOp57
 70
     1
  0
XRECORD
  5
B00
102
{ACAD_REACTORS
330
AFF
102
}
330
AFF
100
AcDbXrecord
280
     1
102
RTVSPropertyOp0
 70
     1
102
RTVSPropertyOp1
 70
     1
102
RTVSPropertyOp2
 70
     1
102
RTVSPropertyOp3
 70
     1
102
RTVSPropertyOp4
 70
     1
102
RTVSPropertyOp5
 70
     1
102
RTVSPropertyOp6
 70
     1
102
RTVSPropertyOp7
 70
     1
102
RTVSPropertyOp8
 70
     1
102
RTVSPropertyOp9
 70
     1
102
RTVSPropertyOp10
 70
     1
102
RTVSPropertyOp11
 70
     1
102
RTVSPropertyOp12
 70
     1
102
RTVSPropertyOp13
 70
     1
102
RTVSPropertyOp14
 70
     1
102
RTVSPropertyOp15
 70
     1
102
RTVSPropertyOp16
 70
     1
102
RTVSPropertyOp17
 70
     1
102
RTVSPropertyOp18
 70
     1
102
RTVSPropertyOp19
 70
     1
102
RTVSPropertyOp20
 70
     1
102
RTVSPropertyOp21
 70
     1
102
RTVSPropertyOp22
 70
     1
102
RTVSPropertyOp23
 70
     1
102
RTVSPropertyOp24
 70
     1
102
RTVSPropertyOp25
 70
     1
102
RTVSPropertyOp26
 70
     1
102
RTVSPropertyOp27
 70
     1
102
RTVSPropertyOp28
 70
     1
102
RTVSPropertyOp29
 70
     1
102
RTVSPropertyOp30
 70
     1
102
RTVSPropertyOp31
 70
     1
102
RTVSPropertyOp32
 70
     1
102
RTVSPropertyOp33
 70
     1
102
RTVSPropertyOp34
 70
     1
102
RTVSPropertyOp35
 70
     1
102
RTVSPropertyOp36
 70
     1
102
RTVSPropertyOp37
 70
     1
102
RTVSPropertyOp38
 70
     1
102
RTVSPropertyOp39
 70
     1
102
RTVSPropertyOp40
 70
     1
102
RTVSPropertyOp41
 70
     1
102
RTVSPropertyOp42
 70
     1
102
RTVSPropertyOp43
 70
     1
102
RTVSPropertyOp44
 70
     1
102
RTVSPropertyOp45
 70
     1
102
RTVSPropertyOp46
 70
     1
102
RTVSPropertyOp47
 70
     1
102
RTVSPropertyOp48
 70
     1
102
RTVSPropertyOp49
 70
     1
102
RTVSPropertyOp50
 70
     1
102
RTVSPropertyOp51
 70
     0
102
RTVSPropertyOp52
 70
     0
102
RTVSPropertyOp53
 70
     1
102
RTVSPropertyOp54
 70
     1
102
RTVSPropertyOp55
 70
     1
102
RTVSPropertyOp56
 70
     1
102
RTVSPropertyOp57
 70
     1
102
RTVSPost2010Prop28
280
     0
102
RTVSPost2010PropOp28
 70
     1
102
RTVSPost2010Prop29
280
     1
102
RTVSPost2010PropOp29
 70
     1
102
RTVSPost2010Prop30
280
     1
102
RTVSPost2010PropOp30
 70
     1
102
RTVSPost2010Prop31
280
     0
102
RTVSPost2010PropOp31
 70
     1
102
RTVSPost2010Prop32
280
     0
102
RTVSPost2010PropOp32
 70
     1
102
RTVSPost2010Prop33
280
     0
102
RTVSPost2010PropOp33
 70
     1
102
RTVSPost2010Prop34
280
     0
102
RTVSPost2010PropOp34
 70
     1
102
RTVSPost2010Prop35
280
     0
102
RTVSPost2010PropOp35
 70
     1
102
RTVSPost2010Prop36
280
     0
102
RTVSPost2010PropOp36
 70
     1
102
RTVSPost2010Prop37
 90
       50
102
RTVSPost2010PropOp37
 70
     1
102
RTVSPost2010Prop38
140
0.0
102
RTVSPost2010PropOp38
 70
     1
102
RTVSPost2010Prop39
140
1.0
102
RTVSPost2010PropOp39
 70
     1
102
RTVSPost2010Prop40
 90
        0
102
RTVSPost2010PropOp40
 70
     1
102
RTVSPost2010Prop41ColorIndex
 90
       18
102
RTVSPost2010Prop41ColorRGB
 90
        0
102
RTVSPost2010PropOp41
 70
     1
102
RTVSPost2010Prop42
 90
       50
102
RTVSPost2010PropOp42
 70
     1
102
RTVSPost2010Prop43
 90
        3
102
RTVSPost2010PropOp43
 70
     1
102
RTVSPost2010Prop44ColorIndex
 90
        5
102
RTVSPost2010Prop44ColorRGB
 90
      255
102
RTVSPost2010PropOp44
 70
     1
102
RTVSPost2010Prop45
280
     0
102
RTVSPost2010PropOp45
 70
     1
102
RTVSPost2010Prop46
 90
       50
102
RTVSPost2010PropOp46
 70
     1
102
RTVSPost2010Prop47
 90
       50
102
RTVSPost2010PropOp47
 70
     1
102
RTVSPost2010Prop48
 90
       50
102
RTVSPost2010PropOp48
 70
     1
102
RTVSPost2010Prop49
280
     0
102
RTVSPost2010PropOp49
 70
     1
102
RTVSPost2010Prop50
 90
       50
102
RTVSPost2010PropOp50
 70
     1
102
RTVSPost2010Prop51ColorIndex
 90
      256
102
RTVSPost2010Prop51ColorRGB
 90
-16777216
102
RTVSPost2010PropOp51
 70
     0
102
RTVSPost2010Prop52
140
1.0
102
RTVSPost2010PropOp52
 70
     0
102
RTVSPost2010Prop53
 90
        2
102
RTVSPost2010PropOp53
 70
     1
102
RTVSPost2010Prop54
  1
strokes_ogs.tif
102
RTVSPost2010PropOp54
 70
     1
102
RTVSPost2010Prop55
280
     0
102
RTVSPost2010PropOp55
 70
     1
102
RTVSPost2010Prop56
140
1.0
102
RTVSPost2010PropOp56
 70
     1
102
RTVSPost2010Prop57
140
1.0
102
RTVSPost2010PropOp57
 70
     1
  0
XRECORD
  5
AF0
102
{ACAD_REACTORS
330
AEF
102
}
330
AEF
100
AcDbXrecord
280
     1
102
RTVSPropertyOp0
 70
     1
102
RTVSPropertyOp1
 70
     1
102
RTVSPropertyOp2
 70
     1
102
RTVSPropertyOp3
 70
     1
102
RTVSPropertyOp4
 70
     1
102
RTVSPropertyOp5
 70
     1
102
RTVSPropertyOp6
 70
     1
102
RTVSPropertyOp7
 70
     1
102
RTVSPropertyOp8
 70
     1
102
RTVSPropertyOp9
 70
     1
102
RTVSPropertyOp10
 70
     1
102
RTVSPropertyOp11
 70
     1
102
RTVSPropertyOp12
 70
     1
102
RTVSPropertyOp13
 70
     1
102
RTVSPropertyOp14
 70
     1
102
RTVSPropertyOp15
 70
     1
102
RTVSPropertyOp16
 70
     1
102
RTVSPropertyOp17
 70
     1
102
RTVSPropertyOp18
 70
     1
102
RTVSPropertyOp19
 70
     1
102
RTVSPropertyOp20
 70
     1
102
RTVSPropertyOp21
 70
     1
102
RTVSPropertyOp22
 70
     1
102
RTVSPropertyOp23
 70
     1
102
RTVSPropertyOp24
 70
     1
102
RTVSPropertyOp25
 70
     1
102
RTVSPropertyOp26
 70
     1
102
RTVSPropertyOp27
 70
     1
102
RTVSPropertyOp28
 70
     1
102
RTVSPropertyOp29
 70
     1
102
RTVSPropertyOp30
 70
     1
102
RTVSPropertyOp31
 70
     1
102
RTVSPropertyOp32
 70
     1
102
RTVSPropertyOp33
 70
     1
102
RTVSPropertyOp34
 70
     1
102
RTVSPropertyOp35
 70
     1
102
RTVSPropertyOp36
 70
     1
102
RTVSPropertyOp37
 70
     1
102
RTVSPropertyOp38
 70
     1
102
RTVSPropertyOp39
 70
     1
102
RTVSPropertyOp40
 70
     1
102
RTVSPropertyOp41
 70
     1
102
RTVSPropertyOp42
 70
     1
102
RTVSPropertyOp43
 70
     1
102
RTVSPropertyOp44
 70
     1
102
RTVSPropertyOp45
 70
     1
102
RTVSPropertyOp46
 70
     1
102
RTVSPropertyOp47
 70
     1
102
RTVSPropertyOp48
 70
     1
102
RTVSPropertyOp49
 70
     1
102
RTVSPropertyOp50
 70
     1
102
RTVSPropertyOp51
 70
     0
102
RTVSPropertyOp52
 70
     0
102
RTVSPropertyOp53
 70
     1
102
RTVSPropertyOp54
 70
     1
102
RTVSPropertyOp55
 70
     1
102
RTVSPropertyOp56
 70
     1
102
RTVSPropertyOp57
 70
     1
102
RTVSPost2010Prop28
280
     0
102
RTVSPost2010PropOp28
 70
     1
102
RTVSPost2010Prop29
280
     1
102
RTVSPost2010PropOp29
 70
     1
102
RTVSPost2010Prop30
280
     1
102
RTVSPost2010PropOp30
 70
     1
102
RTVSPost2010Prop31
280
     0
102
RTVSPost2010PropOp31
 70
     1
102
RTVSPost2010Prop32
280
     0
102
RTVSPost2010PropOp32
 70
     1
102
RTVSPost2010Prop33
280
     0
102
RTVSPost2010PropOp33
 70
     1
102
RTVSPost2010Prop34
280
     0
102
RTVSPost2010PropOp34
 70
     1
102
RTVSPost2010Prop35
280
     0
102
RTVSPost2010PropOp35
 70
     1
102
RTVSPost2010Prop36
280
     0
102
RTVSPost2010PropOp36
 70
     1
102
RTVSPost2010Prop37
 90
       50
102
RTVSPost2010PropOp37
 70
     1
102
RTVSPost2010Prop38
140
0.0
102
RTVSPost2010PropOp38
 70
     1
102
RTVSPost2010Prop39
140
1.0
102
RTVSPost2010PropOp39
 70
     1
102
RTVSPost2010Prop40
 90
        0
102
RTVSPost2010PropOp40
 70
     1
102
RTVSPost2010Prop41ColorIndex
 90
       18
102
RTVSPost2010Prop41ColorRGB
 90
        0
102
RTVSPost2010PropOp41
 70
     1
102
RTVSPost2010Prop42
 90
       50
102
RTVSPost2010PropOp42
 70
     1
102
RTVSPost2010Prop43
 90
        3
102
RTVSPost2010PropOp43
 70
     1
102
RTVSPost2010Prop44ColorIndex
 90
        5
102
RTVSPost2010Prop44ColorRGB
 90
      255
102
RTVSPost2010PropOp44
 70
     1
102
RTVSPost2010Prop45
280
     0
102
RTVSPost2010PropOp45
 70
     1
102
RTVSPost2010Prop46
 90
       50
102
RTVSPost2010PropOp46
 70
     1
102
RTVSPost2010Prop47
 90
       50
102
RTVSPost2010PropOp47
 70
     1
102
RTVSPost2010Prop48
 90
       50
102
RTVSPost2010PropOp48
 70
     1
102
RTVSPost2010Prop49
280
     0
102
RTVSPost2010PropOp49
 70
     1
102
RTVSPost2010Prop50
 90
       50
102
RTVSPost2010PropOp50
 70
     1
102
RTVSPost2010Prop51ColorIndex
 90
      256
102
RTVSPost2010Prop51ColorRGB
 90
-16777216
102
RTVSPost2010PropOp51
 70
     0
102
RTVSPost2010Prop52
140
1.0
102
RTVSPost2010PropOp52
 70
     0
102
RTVSPost2010Prop53
 90
        2
102
RTVSPost2010PropOp53
 70
     1
102
RTVSPost2010Prop54
  1
strokes_ogs.tif
102
RTVSPost2010PropOp54
 70
     1
102
RTVSPost2010Prop55
280
     0
102
RTVSPost2010PropOp55
 70
     1
102
RTVSPost2010Prop56
140
1.0
102
RTVSPost2010PropOp56
 70
     1
102
RTVSPost2010Prop57
140
1.0
102
RTVSPost2010PropOp57
 70
     1
  0
XRECORD
  5
AE2
102
{ACAD_REACTORS
330
AE1
102
}
330
AE1
100
AcDbXrecord
280
     1
102
RTVSPropertyOp0
 70
     1
102
RTVSPropertyOp1
 70
     1
102
RTVSPropertyOp2
 70
     1
102
RTVSPropertyOp3
 70
     1
102
RTVSPropertyOp4
 70
     1
102
RTVSPropertyOp5
 70
     1
102
RTVSPropertyOp6
 70
     1
102
RTVSPropertyOp7
 70
     1
102
RTVSPropertyOp8
 70
     1
102
RTVSPropertyOp9
 70
     1
102
RTVSPropertyOp10
 70
     1
102
RTVSPropertyOp11
 70
     1
102
RTVSPropertyOp12
 70
     1
102
RTVSPropertyOp13
 70
     1
102
RTVSPropertyOp14
 70
     1
102
RTVSPropertyOp15
 70
     1
102
RTVSPropertyOp16
 70
     1
102
RTVSPropertyOp17
 70
     1
102
RTVSPropertyOp18
 70
     1
102
RTVSPropertyOp19
 70
     1
102
RTVSPropertyOp20
 70
     1
102
RTVSPropertyOp21
 70
     1
102
RTVSPropertyOp22
 70
     1
102
RTVSPropertyOp23
 70
     1
102
RTVSPropertyOp24
 70
     1
102
RTVSPropertyOp25
 70
     1
102
RTVSPropertyOp26
 70
     1
102
RTVSPropertyOp27
 70
     1
102
RTVSPropertyOp28
 70
     1
102
RTVSPropertyOp29
 70
     1
102
RTVSPropertyOp30
 70
     1
102
RTVSPropertyOp31
 70
     1
102
RTVSPropertyOp32
 70
     1
102
RTVSPropertyOp33
 70
     1
102
RTVSPropertyOp34
 70
     1
102
RTVSPropertyOp35
 70
     1
102
RTVSPropertyOp36
 70
     1
102
RTVSPropertyOp37
 70
     1
102
RTVSPropertyOp38
 70
     1
102
RTVSPropertyOp39
 70
     1
102
RTVSPropertyOp40
 70
     1
102
RTVSPropertyOp41
 70
     1
102
RTVSPropertyOp42
 70
     1
102
RTVSPropertyOp43
 70
     1
102
RTVSPropertyOp44
 70
     1
102
RTVSPropertyOp45
 70
     1
102
RTVSPropertyOp46
 70
     1
102
RTVSPropertyOp47
 70
     1
102
RTVSPropertyOp48
 70
     1
102
RTVSPropertyOp49
 70
     1
102
RTVSPropertyOp50
 70
     1
102
RTVSPropertyOp51
 70
     0
102
RTVSPropertyOp52
 70
     0
102
RTVSPropertyOp53
 70
     1
102
RTVSPropertyOp54
 70
     1
102
RTVSPropertyOp55
 70
     1
102
RTVSPropertyOp56
 70
     1
102
RTVSPropertyOp57
 70
     1
102
RTVSPost2010Prop28
280
     0
102
RTVSPost2010PropOp28
 70
     1
102
RTVSPost2010Prop29
280
     1
102
RTVSPost2010PropOp29
 70
     1
102
RTVSPost2010Prop30
280
     1
102
RTVSPost2010PropOp30
 70
     1
102
RTVSPost2010Prop31
280
     0
102
RTVSPost2010PropOp31
 70
     1
102
RTVSPost2010Prop32
280
     0
102
RTVSPost2010PropOp32
 70
     1
102
RTVSPost2010Prop33
280
     0
102
RTVSPost2010PropOp33
 70
     1
102
RTVSPost2010Prop34
280
     0
102
RTVSPost2010PropOp34
 70
     1
102
RTVSPost2010Prop35
280
     0
102
RTVSPost2010PropOp35
 70
     1
102
RTVSPost2010Prop36
280
     0
102
RTVSPost2010PropOp36
 70
     1
102
RTVSPost2010Prop37
 90
       50
102
RTVSPost2010PropOp37
 70
     1
102
RTVSPost2010Prop38
140
0.0
102
RTVSPost2010PropOp38
 70
     1
102
RTVSPost2010Prop39
140
1.0
102
RTVSPost2010PropOp39
 70
     1
102
RTVSPost2010Prop40
 90
        0
102
RTVSPost2010PropOp40
 70
     1
102
RTVSPost2010Prop41ColorIndex
 90
       18
102
RTVSPost2010Prop41ColorRGB
 90
        0
102
RTVSPost2010PropOp41
 70
     1
102
RTVSPost2010Prop42
 90
       50
102
RTVSPost2010PropOp42
 70
     1
102
RTVSPost2010Prop43
 90
        3
102
RTVSPost2010PropOp43
 70
     1
102
RTVSPost2010Prop44ColorIndex
 90
        5
102
RTVSPost2010Prop44ColorRGB
 90
      255
102
RTVSPost2010PropOp44
 70
     1
102
RTVSPost2010Prop45
280
     0
102
RTVSPost2010PropOp45
 70
     1
102
RTVSPost2010Prop46
 90
       50
102
RTVSPost2010PropOp46
 70
     1
102
RTVSPost2010Prop47
 90
       50
102
RTVSPost2010PropOp47
 70
     1
102
RTVSPost2010Prop48
 90
       50
102
RTVSPost2010PropOp48
 70
     1
102
RTVSPost2010Prop49
280
     0
102
RTVSPost2010PropOp49
 70
     1
102
RTVSPost2010Prop50
 90
       50
102
RTVSPost2010PropOp50
 70
     1
102
RTVSPost2010Prop51ColorIndex
 90
      256
102
RTVSPost2010Prop51ColorRGB
 90
-16777216
102
RTVSPost2010PropOp51
 70
     0
102
RTVSPost2010Prop52
140
1.0
102
RTVSPost2010PropOp52
 70
     0
102
RTVSPost2010Prop53
 90
        2
102
RTVSPost2010PropOp53
 70
     1
102
RTVSPost2010Prop54
  1
strokes_ogs.tif
102
RTVSPost2010PropOp54
 70
     1
102
RTVSPost2010Prop55
280
     0
102
RTVSPost2010PropOp55
 70
     1
102
RTVSPost2010Prop56
140
1.0
102
RTVSPost2010PropOp56
 70
     1
102
RTVSPost2010Prop57
140
1.0
102
RTVSPost2010PropOp57
 70
     1
  0
XRECORD
  5
B02
102
{ACAD_REACTORS
330
B01
102
}
330
B01
100
AcDbXrecord
280
     1
102
RTVSPropertyOp0
 70
     1
102
RTVSPropertyOp1
 70
     1
102
RTVSPropertyOp2
 70
     1
102
RTVSPropertyOp3
 70
     1
102
RTVSPropertyOp4
 70
     1
102
RTVSPropertyOp5
 70
     1
102
RTVSPropertyOp6
 70
     1
102
RTVSPropertyOp7
 70
     1
102
RTVSPropertyOp8
 70
     1
102
RTVSPropertyOp9
 70
     1
102
RTVSPropertyOp10
 70
     1
102
RTVSPropertyOp11
 70
     1
102
RTVSPropertyOp12
 70
     1
102
RTVSPropertyOp13
 70
     1
102
RTVSPropertyOp14
 70
     1
102
RTVSPropertyOp15
 70
     1
102
RTVSPropertyOp16
 70
     1
102
RTVSPropertyOp17
 70
     1
102
RTVSPropertyOp18
 70
     1
102
RTVSPropertyOp19
 70
     1
102
RTVSPropertyOp20
 70
     1
102
RTVSPropertyOp21
 70
     1
102
RTVSPropertyOp22
 70
     1
102
RTVSPropertyOp23
 70
     1
102
RTVSPropertyOp24
 70
     1
102
RTVSPropertyOp25
 70
     1
102
RTVSPropertyOp26
 70
     1
102
RTVSPropertyOp27
 70
     1
102
RTVSPropertyOp28
 70
     1
102
RTVSPropertyOp29
 70
     1
102
RTVSPropertyOp30
 70
     1
102
RTVSPropertyOp31
 70
     1
102
RTVSPropertyOp32
 70
     1
102
RTVSPropertyOp33
 70
     1
102
RTVSPropertyOp34
 70
     1
102
RTVSPropertyOp35
 70
     1
102
RTVSPropertyOp36
 70
     1
102
RTVSPropertyOp37
 70
     1
102
RTVSPropertyOp38
 70
     1
102
RTVSPropertyOp39
 70
     1
102
RTVSPropertyOp40
 70
     1
102
RTVSPropertyOp41
 70
     1
102
RTVSPropertyOp42
 70
     1
102
RTVSPropertyOp43
 70
     1
102
RTVSPropertyOp44
 70
     1
102
RTVSPropertyOp45
 70
     1
102
RTVSPropertyOp46
 70
     1
102
RTVSPropertyOp47
 70
     1
102
RTVSPropertyOp48
 70
     1
102
RTVSPropertyOp49
 70
     1
102
RTVSPropertyOp50
 70
     1
102
RTVSPropertyOp51
 70
     0
102
RTVSPropertyOp52
 70
     0
102
RTVSPropertyOp53
 70
     1
102
RTVSPropertyOp54
 70
     1
102
RTVSPropertyOp55
 70
     1
102
RTVSPropertyOp56
 70
     1
102
RTVSPropertyOp57
 70
     1
102
RTVSPost2010Prop28
280
     0
102
RTVSPost2010PropOp28
 70
     1
102
RTVSPost2010Prop29
280
     1
102
RTVSPost2010PropOp29
 70
     1
102
RTVSPost2010Prop30
280
     1
102
RTVSPost2010PropOp30
 70
     1
102
RTVSPost2010Prop31
280
     0
102
RTVSPost2010PropOp31
 70
     1
102
RTVSPost2010Prop32
280
     0
102
RTVSPost2010PropOp32
 70
     1
102
RTVSPost2010Prop33
280
     0
102
RTVSPost2010PropOp33
 70
     1
102
RTVSPost2010Prop34
280
     0
102
RTVSPost2010PropOp34
 70
     1
102
RTVSPost2010Prop35
280
     0
102
RTVSPost2010PropOp35
 70
     1
102
RTVSPost2010Prop36
280
     0
102
RTVSPost2010PropOp36
 70
     1
102
RTVSPost2010Prop37
 90
       50
102
RTVSPost2010PropOp37
 70
     1
102
RTVSPost2010Prop38
140
0.0
102
RTVSPost2010PropOp38
 70
     1
102
RTVSPost2010Prop39
140
1.0
102
RTVSPost2010PropOp39
 70
     1
102
RTVSPost2010Prop40
 90
        0
102
RTVSPost2010PropOp40
 70
     1
102
RTVSPost2010Prop41ColorIndex
 90
       18
102
RTVSPost2010Prop41ColorRGB
 90
        0
102
RTVSPost2010PropOp41
 70
     1
102
RTVSPost2010Prop42
 90
       50
102
RTVSPost2010PropOp42
 70
     1
102
RTVSPost2010Prop43
 90
        3
102
RTVSPost2010PropOp43
 70
     1
102
RTVSPost2010Prop44ColorIndex
 90
        5
102
RTVSPost2010Prop44ColorRGB
 90
      255
102
RTVSPost2010PropOp44
 70
     1
102
RTVSPost2010Prop45
280
     0
102
RTVSPost2010PropOp45
 70
     1
102
RTVSPost2010Prop46
 90
       50
102
RTVSPost2010PropOp46
 70
     1
102
RTVSPost2010Prop47
 90
       50
102
RTVSPost2010PropOp47
 70
     1
102
RTVSPost2010Prop48
 90
       50
102
RTVSPost2010PropOp48
 70
     1
102
RTVSPost2010Prop49
280
     0
102
RTVSPost2010PropOp49
 70
     1
102
RTVSPost2010Prop50
 90
       50
102
RTVSPost2010PropOp50
 70
     1
102
RTVSPost2010Prop51ColorIndex
 90
      256
102
RTVSPost2010Prop51ColorRGB
 90
-16777216
102
RTVSPost2010PropOp51
 70
     0
102
RTVSPost2010Prop52
140
1.0
102
RTVSPost2010PropOp52
 70
     0
102
RTVSPost2010Prop53
 90
        2
102
RTVSPost2010PropOp53
 70
     1
102
RTVSPost2010Prop54
  1
strokes_ogs.tif
102
RTVSPost2010PropOp54
 70
     1
102
RTVSPost2010Prop55
280
     0
102
RTVSPost2010PropOp55
 70
     1
102
RTVSPost2010Prop56
140
1.0
102
RTVSPost2010PropOp56
 70
     1
102
RTVSPost2010Prop57
140
1.0
102
RTVSPost2010PropOp57
 70
     1
  0
ENDSEC
  0
SECTION
  2
THUMBNAILIMAGE
 90
    17448
310
28000000800000008000000001000800000000000000000000000000000000000000000000000000FFFFFF000000FF0000FFFF0000FF0000FFFF0000FF000000FF00FF000000000080808000C0C0C0000000FF007F7FFF000000A5005252A50000007F003F3F7F0000004C0026264C000000260013132600003FFF007F9FFF
310
000029A5005267A500001F7F003F4F7F0000134C00262F4C000009260013172600007FFF007FBFFF000052A500527CA500003F7F003F5F7F0000264C0026394C0000132600131C260000BFFF007FDFFF00007CA5005291A500005F7F003F6F7F0000394C0026424C00001C26001321260000FFFF007FFFFF0000A5A50052A5
310
A500007F7F003F7F7F00004C4C00264C4C00002626001326260000FFBF007FFFDF0000A57C0052A59100007F5F003F7F6F00004C3900264C420000261C001326210000FF7F007FFFBF0000A5520052A57C00007F3F003F7F5F00004C2600264C39000026130013261C0000FF3F007FFF9F0000A5290052A56700007F1F003F
310
7F4F00004C1300264C2F00002609001326170000FF00007FFF7F0000A5000052A55200007F00003F7F3F00004C0000264C260000260000132613003FFF00009FFF7F0029A5000067A552001F7F00004F7F3F00134C00002F4C260009260000172613007FFF0000BFFF7F0052A500007CA552003F7F00005F7F3F00264C0000
310
394C2600132600001C261300BFFF0000DFFF7F007CA5000091A552005F7F00006F7F3F00394C0000424C26001C26000021261300FFFF0000FFFF7F00A5A50000A5A552007F7F00007F7F3F004C4C00004C4C26002626000026261300FFBF0000FFDF7F00A57C0000A59152007F5F00007F6F3F004C3900004C422600261C00
310
0026211300FF7F0000FFBF7F00A5520000A57C52007F3F00007F5F3F004C2600004C39260026130000261C1300FF3F0000FF9F7F00A5290000A56752007F1F00007F4F3F004C1300004C2F26002609000026171300FF000000FF7F7F00A5000000A55252007F0000007F3F3F004C0000004C2626002600000026131300FF00
310
3F00FF7F9F00A5002900A55267007F001F007F3F4F004C0013004C262F002600090026131700FF007F00FF7FBF00A5005200A5527C007F003F007F3F5F004C0026004C2639002600130026131C00FF00BF00FF7FDF00A5007C00A55291007F005F007F3F6F004C0039004C26420026001C0026132100FF00FF00FF7FFF00A5
310
00A500A552A5007F007F007F3F7F004C004C004C264C002600260026132600BF00FF00DF7FFF007C00A5009152A5005F007F006F3F7F0039004C0042264C001C002600211326007F00FF00BF7FFF005200A5007C52A5003F007F005F3F7F0026004C0039264C00130026001C1326003F00FF009F7FFF002900A5006752A500
310
1F007F004F3F7F0013004C002F264C000900260017132600000000002D2D2D005B5B5B0089898900B7B7B700B3B3B30000000000000000000000000000000000000000000000000000000000000000000000000000000000000000000000000000000000000000000000000000000000000000000000000000000000000000
310
00000000000000000000000000000000000000000000000000000000000000000000000000000000000000000000000000000000000000000000000000000000000000000000000000000000000000000000000000000000000000000000000000000000000000000000000000000000000000000000000000000000000000
310
00000000000000000000000000000000000000000000000000000000000000000000000000000000000000000000000000000000000000000000000000000000000000000000000000000000000000000000000000000000000000000000000000000000000000000000000000000000000000000000000000000000000000
310
00000000000000000000000000000000000000000000000000000000000000000000000000000000000000000000000000000000000000000000000000000000000000000000000000000000000000000000000000000000000000000000000000000000000000000000000000000000000000000000000000000000000000
310
00000000000000000000000000000000000000000000000000000000000000000000000000000000000000000000000000000000000000000000000000000000000000000000000000000000000000000000000000000000000000000000000000000000000000000000000000000000000000000000000000000000000000
310
00000000000000000000000000000000000000000000000000000000000000000000000000000000000000000000000000000000000000000000000000000000000000000000000000000000000000000000000000000000000000000000000000000000000000000000000000000000000000000000000000000000000000
310
00000000000000000000000000000000000000000000000000000000000000000000000000000000000000000000000000000000000000000000000000000000000000000000000000000000000000000000000000000000000000000000000000000000000000000000000000000000000000000000000000000000000000
310
00000000000000000000000000000000000000000000000000000000000000000000000000000000000000000000000000000000000000000000000000000000000000000000000000000000000000000000000000000000000000000000000000000000000000000000000000000000000000000000000000000000000000
310
00000000000000000000000000000000000000000000000000000000000000000000000000000000000000000000000000000000000000000000000000000000000000000000000000000000000000000000000000000000000000000000000000000000000000000000000000000000000000000000000000000000000000
310
00000000000000000000000000000000000000000000000000000000000000000000000000000000000000000000000000000000000000000000000000000000000000000000000000000000000000000000000000000000000000000000000000000000000000000000000000000000000000000000000000000000000000
310
00000000000000000000000000000000000000000000000000000000000000000000000000000000000000000000000000000000000000000000000000000000000000000000000000000000000000000000000000000000000000000000000000000000000000000000000000000000000000000000000000000000000000
310
00000000000000000000000000000000000000000000000000000000000000000000000000000000000000000000000000000000000000000000000000000000000000000000000000000000000000000000000000000000000000000000000000000000000000000000000000000000000000000000000000000000000000
310
00000000000000000000000000000000000000000000000000000000000000000000000000000000000000000000000000000000000000000000000000000000000000000000000000000000000000000000000000000000000000000000000000000000000000000000000000000000000000000000000000000000000000
310
00000000000000000000000000000000000000000000000000000000000000000000000000000000000000000000000000000000000000000000000000000000000000000000000000000000000000000000000000000000000000000000000000000000000000000000000000000000000000000000000000000000000000
310
00000000000000000000000000000000000000000000000000000000000000000000000000000000000000000000000000000000000000000000000000000000000000000000000000000000000000000000000000000000000000000000000000000000000000000000000000000000000000000000000000000000000000
310
00000000000000000000000000000000000000000000000000000000000000000000000000000000000000000000000000000000000000000000000000000000000000000000000000000000000000000000000000000000000000000000000000000000000000000000000000000000000000000000000000000000000000
310
00000000000000000000000000000000000000000000000000000000000000000000000000000000000000000000000000000000000000000000000000000000000000000000000000000000000000000000000000000000000000000000000000000000000000000000000000000000000000000000000000000000000000
310
00000000000000000000000000000000000000000000000000000000000000000000000000000000000000000000000000000000000000000000000000000000000000000000000000000000000000000000000000000000000000000000000000000000000000000000000000000000000000000000000000000000000000
310
00000000000000000000000000000000000000000000000000000000000000000000000000000000000000000000000000000000000000000000000000000000000000000000000000000000000000000000000000000000000000000000000000000000000000000000000000000000000000000000000000000000000000
310
00000000000000000000000000000000000000000000000000000000000000000000000000000000000000000000000000000000000000000000000000000000000000000000000000000000000000000000000000000000000000000000000000000000000000000000000000000000000000000000000000000000000000
310
00000000000000000000000000000000000000000000000000000000000000000000000000000000000000000000000000000000000000000000000000000000000000000000000000000000000000000000000000000000000000000000000000000000000000000000000000000000000000000000000000000000000000
310
00000000000000000000000000000000000000000000000000000000000000000000000000000000000000000000000000000000000000000000000000000000000000000000000000000000000000000000000000000000000000000000000000000000000000000000000000000000000000000000000000000000000000
310
00000000000000000000000000000000000000000000000000000000000000000000000000000000000000000000000000000000000000000000000000000000000000000000000000000000000000000000000000000000000000000000000000000000000000000000000000000000000000000000000000000000000000
310
00000000000000000000000000000000000000000000000000000000000000000000000000000000000000000000000000000000000000000000000000000000000000000000000000000000000000000000000000000000000000000000000000000000000000000000000000000000000000000000000000000000000000
310
00000000000000000000000000000000000000000000000000000000000000000000000000000000000000000000000000000000000000000000000000000000000000000000000000000000000000000000000000000000000000000000000000000000000000000000000000000000000000000000000000000000000000
310
00000000000000000000000000000000000000000000000000000000000000000000000000000000000000000000000000000000000000000000000000000000000000000000000000000000000000000000000000000000000000000000000000000000000000000000000000000000000000000000000000000000000000
310
00000000000000000000000000000000000000000000000000000000000000000000000000000000000000000000000000000000000000000000000000000000000000000000000000000000000000000000000000000000000000000000000000000000000000000000000000000000000000000000000000000000000000
310
00000000000000000000000000000000000000000000000000000000000000000000000000000000000000000000000000000000000000000000000000000000000000000000000000000000000000000000000000000000000000000000000000000000000000000000000000000000000000000000000000000000000000
310
00000000000000000000000000000000000000000000000000000000000000000000000000000000000000000000000000000000000000000000000000000000000000000000000000000000000000000000000000000000000000000000000000000000000000000000000000000303030303030303030303030303030300
310
00000003030303030303030303030303030303000000000000000000000000000000000000000000000000000000000000000000000000000000000000000000000000000000000000000000000000000000000000000000000000000000000000000000000000000000000000000003030303030303030303030303030303
310
00000000030303030303030303030303030303030000000000000000000000000000000000000000000000000000000000000000000000000000000000000000000000000000000000000000000000000000000000000000000000000000000000000000000000000000000000000000000303030303030303030303030303
310
03030000000003030303030303030303030303030303000000000000000000000000000000000000000000000000000000000000000000000000000000000000000000000000000000000000000000000000000000000000000000000000000000000000000000000000000000000000000003030303030003030300030303
310
03030000000000030303030300030300030003030303000000000000000000000000000000000000000000000000000000000000000000000000000000000000000000000000000000000000000000000000000000000000000000000000000000000000000000000000000000000000000003030303030303030303030303
310
03030300000000030303030303030303030303030303030000000000000003030303030303030303000000000000000000000000000000000000000000000000000000000000000000000000000000000000000000000000000000000000000000000000000000000000000000000000000000030303030303030303030303
310
03030303000000000303030303030303030303030303030300000000000003030303030303030303000000000000000000000000000000000000000000000000000000000000000000000000000000000000000000000000000000000000000000000000000000000000000000000000000000000000000000030303030303
310
03030303030000000000000000000303030303030003030303000000000000000303000003000303000000000000000000000000000000000000000000000000000000000000000000000000000000000000000000000000000000000000000000000000000000000000000000000000000000000000000303030303030303
310
03030303030300000000000003030003030303030303030303030000000000000003030303030303030303000000000000000000000000000000000000000000000000000000000000000000000000000000000000000000000000000000000000000000000000000000000000000000000000000000000003030303030303
310
03030303030303000000000003030300030303030303030303030300000000000003030303030303030303000000000000000000000000000000000000000000000000000000000000000000000000000000000000000000000000000000000000000000000000000000000000000000000000000000000000000000030303
310
03030303030303030000000000000000000303030303030303030303000000000000030303030303030303030000000000000000000000000000000000000000000000000000000000000000000000000000000000000000000000000000000000000000000000000000000000000000000000000000000003030303030303
310
03030303030303030300000000030303030303030303030303030303030000000000000303030303030303030300000000000000000000000000000000000000000000000000000000000000000000000000000000000000000000000000000000000000000000000000000000000000000000000000000000000303030000
310
03030000000000000000000000000000000000000000000000000000000000000000000000000000000000000000000000000000000000000000000000000000000000000000000000000000000000000000000000000000000000000000000000000000000000000000000000000000000000000000000000000303030303
310
03030300000000000000000000000003030303030303030000000000000000000000000000000000000000000000000000000000000000000000000000000000000000000000000000000000000000000000000000000000000000000000000000000000000000000000000000000000000000000000000000000000000000
310
00000000000000000000000000000000000000000000000000000000000000000000000000000000000000000000000000000000000000000000000000000000030303030303030303030000000000000000000000000000000000000000000000000000000000000000000000000000000000000000000000000000000000
310
00000000000000000000000000000000000000000000000000000000000000000000000000000000000000000000000000000000000000000000000000000000000303000000000000000300000000000000000000000000000000000000000000000000000000000000000000000000000000000000000000000000000000
310
00000000000000000000000000000000000000000000000000000000000000000000000000000000000000000000000000000000000707000000000000000000000303030000000000000003000000000000000000000000000000000000000000000000000000000000000000000000000000000000000000000000000000
310
00000000000000000000000000000000000000000000000000000000000000000000000000000000000000000000000000000000000007070707070707070707070707030707070303030300030000000000000000000000000000000000000000000000000000000000000000000000000000000000000000000000000000
310
00000000000000000000000000000000000000000000000000000000000000000000000000000000000000000000000000000000030303070700000000000000000000000300000000070303000300000000000000000000000000000000000000000000000000000000000000000000000000000000000000000000000000
310
00000000000000000000000000000000000000000000000000000000000000000000000000000000000000000000000000000000030303030303030303030303030303030303030303030703030303000000000000000000000000000000000000000000000000000000000000000000000000000000000000000000000000
310
00000000000000000000000000000000000000000000000000000000000000000000000000000000000000000000000000000000000003030303070000000707070707070707030707070707000303030000000000000000000000000000000000000000000000000000000000000000000000000000000000000000000000
310
00000000000000000000000000000000000000000000000000000000000000000000000000000000000000000000000000000000000000000000070707070707070707070707030303070707030303000300000000000000000000000000000000000000000000000000000000000000000000000000000000000000000000
310
00000000000000000000000000000000000000000000000000000000000000000000000000000000000000000000000000000000000000000000000000000000000000000000000003030000000000000003000000000000000000000000000000000000000000000000000000000000000000000000000000000000000000
310
03030303030300000000000000000000000000000000000000000000000000000000000000000000000000000000000000000000000000000000000000000000000000000000000000030303030303030303030000000000000000000000000000000000000000000000000000000000000000000000000000000000000000
310
00030000030003000000000000000000000000000000000000000000000000000000000000000000000000000000000000000000000000000000000000000000000000000000000000000000000000000000000000000000000000000000000000000000000000000000000000000000000000000000000000000000000000
310
00000307030707070000000000000000000000000000000000000000000000030303000000000000000000000000000000000000000000000000000000000303030303030303030303030303030303030300000000000000000000000000000000000000000000000000000000000000000000000000000000000000000000
310
00000007000300000000000000000000000000000000000000000000000303030303030303030000000000000000000000000000000000000000000000000003030303030303030303030303030000000003000000000000000000000000000000000000000000000000000000000000000000000000000000000000000000
310
00000000070003000007000000000000000000000000000000000000000003000303030000000300000000000000000000000000000000000000000000000000030000000000030300000000000300000000030000000000000000000000000000000000000000000000000000000000000000000000000000000000000000
310
00000300000700030000070000000000000000000000000000000000000000030003030303030003000000000000000000000000000000000000000000000000000303000000000000000000000003000000000300000000000000000000000000000000000000000000000000000000000000000000000000000000000000
310
00000003030303070307070700000000000000000000000000000000000000000300030003000300030000000000000000000000000000000000000000000000000003030000000000000000000000030000000003000000000000000000000000000000000000000000000000000000000000000000000000000000000000
310
00000000030000000000000000000000000000000000000000000000000000000003000307030703000300000000000000000000000000000303030303030303030303030303030303030303030303030303030303030303030300000000000000000000000000000000000000000000000000000000000000000000000303
310
03030300000000000000000000000000000000000000000000000000000000000000030007000300070003000000000000000000000000000003000300000000000000000707000000000000000000000003000000000300000003000000000000000000000000000000000000000000000000000000000000000000000003
310
00030303000000000000000000000000000000000000000000000000000000000000000300070003000700030000000000000000000000000000030003030303030303030303030000000000000000000000030000000003000000030000000000000000000000000000000000000000000000000000000000000000000000
310
03000000030303000000030303030303000000000000000000000000000000000000000003000700030007000300000000000000000000000000000300030003000000000000070700000000000000000000000300000000030000030300000000000000000000000000000000000000000000000000000000000000000000
310
00030000000303030000000300000300030000000000000000000000000000000000000000030007070307070003000000000000000000000000000003000300030000000000000707000000000000000000000003000000000300000003000000000000000000000000000000000000000000000000000000000000000000
310
00000300000003000000000003000000000300000000000000000000000000000000000000000300070303030700030000000000000000000000000000030003000300000000000007070000000000000000000000030000000003000000030000000000000000000000000000000000000000000000000000000000000000
310
00000003000000030000000000030703070703030303030303000000000000000000000000000003000707030707000300000000000000000000000000000300030003000000000000070707070707070707070707070307070707030303030300000000000000000000000000000000000000000000000000000000000000
310
00000000030000000700000000000700030700070000000000030000000000000000000000000000030007000300070003000000000000000000000000000003000300030000000000000707000000000000000000000003000000000700030003000000000000000000000000000000000000000000000000000000000000
310
00000000000300000007000000000007030303030303030303000300000000000000000000000000000300070003000700030000000000000000000000000000030003000300000000000007070000000000000000000000030000000007000300030000000000000000000000000000000000000000000000000000000000
310
00000000000003000000070000000000070003000007000000030003000000000000000000000000000003000700030007000300000000000000000000000000000300030003000000000000070700000000000000000000000300000000070003000300000000000000000000000000000000000000000000000000000000
310
00000000000003030707070700000000000700030000070000000300030000000000000000000000000000030007000300070003000000000000000000000000000003000300030000000000000707000000000000000000000003000000000700030003000000000000000000000000000000000000000000000000000000
310
00000000000000030700000007000000000007000300000700000003000300000000000000000000000000000300070003000700030000000000000000000000000000030003000300000000000007070000000000000000000000030000000007000300030000000000000000000000000000000000000000000000000000
310
00000000000000000307000000070000000000070003000007000000030003000000000000000000000000000003000700030007000300000000000000000000000000000300030303000000000000070700000000000000000000000300000000070003000300000000000000000000000000000000000000000000000000
310
00000000000000000003070000000700000000000700030000070000000300030000000000000000000000000000030007000300070003000000000000000000000000000003000303030000000000000707000000000000000000000003000000000700030003000000000000000000000000000000000000000000000000
310
00000000000000000000030700000007000000000007000300000700000003000300000000000000000000000000000300070003000700030000000000000000000000000000030003000300000000000007070000000000000000000000030000000007000300030000000000000000000000000000000000000000000000
310
00000000000000000000000307000000070000000000070303030307000000030003000000000000000000000000000003000700030007000300000000000000000000000000000300030003000000000000070700000000000000000000000300000000070003000300000000000000000000000000000000000000000000
310
00000000000000000000000003070000000700000000000703030303070000000300030000000000000000000000000000030007000300070003000000000000000000000000000003000300030000000000000707000000000000000000000003000000000703030003000000000000000000000000000000000000000000
310
00000000000000000000000003030700000007000000000007030300030700000303000300000000000000000000000000000300070003000700030000000000000000000000000000030003000300000000000007070000000000000000000000030000000007000300030000000000000000000000000000000000000000
310
00000000000000000000000000030307030303030300030303030303070307000003030303000000000000000000000000000003000700030007000300000000000000000000000000030300030003000000000000070700000000000000000000000300000000070003000300000000000000000000000000000000000000
310
00000000000000000000000000000003070000000700000300000703030003070000000300030000000000000000000000000000030007070307070003000000000000000000000000000303030300030003030003030707000000000000000000000003000000000700030303000000000000000000000000000000000000
310
00000000000000000000000000000000030700000007000003000007070300070700000003000300000000000000000000000000000300070703070700030000000000000000000000000000030003000300030300000007070000000000000000000000030000000007000300030000000000000000000000000000000000
310
00000000000000000000000000000000000307000000070000030000070703000707000000030003000000000000000303030303030303000707030707000303030303030303030300000000000300030003030303000000070700000000000000000000000300000000070003000300000000000000000000000000000000
310
00000000000000000000000000000000000003070000000700030300000303030303070000000300030000000000000003000000070700070003030303070007000707070707000003000000000003000300030303030303030303030000000000000000000003000000000700030003000000000000000000000000000000
310
00000000000000000000000000000000000000030700000007000003000007070300070700000003000300000000000000030000000700000700070703070700070000070700000000030000000000030003000300030000000007070000000000000000000303030303000007000300030000000000000000000000000000
310
00000000000000000000000000000000000000000307000000070000030000070703000707000000030003000000000000000300000007000007000707030707000700000700000007000300000000000300030003000303000000070700000000000000000303030303030300070003000300000000000000000000000000
310
00000000000000000000000000000000000000000003030707070700000303030303030707070000000300030000000000000303000000070000070007030303070007000303030303070303000000000003000300030003030303030307000000000000000003030303030303000700030003000000000000000000000000
310
00000000000000000000000000000000000000000000000000000007000003000007000300000700000003000300000000000003030000000303030303070303030700030303030303030303030000000000030003000300000300000007070000000000000003030303030303030303030300030000000000000000000000
310
00000000000000000000000000000000000000000000000000000000070003030000070003030303030303030303000000000000000300000007000007000700030007000700000707000003000300000000000300030003000003030303030700000000000000000303030303030300070003000300000000000000000000
310
00000000000000000000000000000000000000000000000000000000000700000300000700030700070000000000030000000000000003000000070000070007000300070007000007070700030003000000000003000303030000000303030707000000000000000000030303030300000703030003000000000000000000
310
00000000000000000000000000000000000000000000000000000000000007000003030303030307070303030303030300000000000000030000000307000700070003000700070007030000000300030000000000030003000300000000000007070707070707070707070307030307070707030300030000000000000000
310
00000000000000000000000000000000000000000000000000000000000000000000000003030003000000000000000003000000000000000303030303030303000700030007000303030303030303030300000000000300030003000000000000070700000000000000070307070307070700000003000300000000000000
310
00000000000000000000000000000000000000000000000000000000000000000000000003000000000000000000000000030000000000000000000000030000030007070307070003000003000000030000000000000003000300030000000000000707070707070707070703070703070703030303030303000000000000
310
00000000000000000000000000000000000000000000000000000000000000030303030303000000000000000000000000000300000000000000000000000300000300070303030700030000030000000300000000000000030003000300000000000007070000000000000003000000000000000000000000030000000000
310
00000000000000000000000000000000000000000000000000000000000000000003030303030000000000000000000000000303000000000000000000000003000003000700030007000300000300000003000000000000000300030003000000000000070700000000000000030000000000000000000000030300000000
310
00000000000000000000000000000000000000000000000000000000000000000000000000000000000000000000000000000000030000000000000000000000030303030007000300070003030303000000030000000000000003000303030303030303030303030000000000030303030000000000000000000303000000
310
00000000000000000000000000000000000000000000000000000000000000000000000000000000000000000000000000000000000300000000000000000000000300030000070003000700000003030000000300000000000000030003000000000000000003070000000000000000000000000000000000000000030000
310
00000000000000000000000000000000000000000000000000000000000000000000000000000000000000000000000000000000000003030303030303030303030303030303030707030707000000000300000003000000000000000303030303030303030303070703030303030303030303030303030303030303030300
310
00000000000000000000000000000000000000000000000000000000000000000000000000000000000000000000000000000000000000000000000000000000000000030000000000000300000000000003000000030000000000000000000000000000000300000000000000000000000000000000000000000000000000
310
00000000000000000000000000000000000000000000000000000000000000000000000000000000000000000000000000000000000000000000000000000000000000000303030303030303030303030303030303030300000000000000000003030303030300000000000000000000000000000000000000000000000000
310
00000000000000000000000000000000000000000000000000000000000000000000000000000303030303030303030300000000000000000000000000000000000000000000000000030000000000030300000003030000000000000000000000030303030303000000000000000000000000000000000000000000000000
310
00000000000000000000000000000000000000000000000000000000000000000000000000000000030300030300030303000000000000000000000000000000000000000000000000000000000000000000000000000000000000000000000000000000000000000000000000000000000000000000000000000000000000
310
00000000000000000000000000000000000000000000000000000000000000000000000000000000000303030303000303030000000000000000000000000000000000000000000000000000000000000000000000000000000000000000000000000000000000000000000000000000000000000000000000000000000000
310
00000000000000000000000000000000000000000000000000000000000000000000000000000000000000000000000000000000000000000000000000000000000000000000000000000000000000000000000000000000000000000000000000000000000000000000000000000000000000000000000000000000000000
310
00000000000000000000000000000000000000000000000000000000000000000000000000000000000000000000000000000000000000000000000000000000000000000000000000000000000000000000000000000000000000000000000000000000000000000000000000000000000000000000000000000000000000
310
00000000000000000000000000000000000000000000000000000000000000000000000000000000000000000000000000000000000000000000000000000000000000000000000000000000000000000000000000000000000000000000000000000000000000000000000000000000000000000000000000000000000000
310
00000000000000000000000000000000000000000000000000000000000000000000000000000000000000000000000000000000000000000000000000000000000000000000000000000000000000000000000000000000000000000000000000000000000000000000000000000000000000000000000000000000000000
310
00000000000000000000000000000000000000000000000000000000000000000000000000000000000000000000000000000000000000000000000000000000000000000000000000000000000000000000000000000000000000000000000000000000000000000000000000000000000000000000000000000000000000
310
00000000000000000000000000000000000000000000000000000000000000000000000000000000000000000000000000000000000000000000000000000000000000000000000000000000000000000000000000000000000000000000000000000000000000000000000000000000000000000000000000000000000000
310
00000000000000000000000000000000000000000000000000000000000000000000000000000000000000000000000000000000000000000000000000000000000000000000000000000000000000000000000000000000000000000000000000000000000000000000000000000000000000000000000000000000000000
310
00000000000000000000000000000000000000000000000000000000000000000000000000000000000000000000000000000000000000000000000000000000000000000000000000000000000000000000000000000000000000000000000000000000000000000000000000000000000000000000000000000000000000
310
00000000000000000000000000000000000000000000000000000000000000000000000000000000000000000000000000000000000000000000000000000000000000000000000000000000000000000000000000000000000000000000000000000000000000000000000000000000000000000000000000000000000000
310
00000000000000000000000000000000000000000000000000000000000000000000000000000000000000000000000000000000000000000000000000000000000000000000000000000000000000000000000000000000000000000000000000000000000000000000000000000000000000000000000000000000000000
310
00000000000000000000000000000000000000000000000000000000000000000000000000000000000000000000000000000000000000000000000000000000000000000000000000000000000000000000000000000000000000000000000000000000000000000000000000000000000000000000000000000000000000
310
00000000000000000000000000000000000000000000000000000000000000000000000000000000000000000000000000000000000000000000000000000000000000000000000000000000000000000000000000000000000000000000000000000000000000000000000000000000000000000000000000000000000000
310
00000000000000000000000000000000000000000000000000000000000000000000000000000000000000000000000000000000000000000000000000000000000000000000000000000000000000000000000000000000000000000000000000000000000000000000000000000000000000000000000000000000000000
310
00000000000000000000000000000000000000000000000000000000000000000000000000000000000000000000000000000000000000000000000000000000000000000000000000000000000000000000000000000000000000000000000000000000000000000000000000000000000000000000000000000000000000
310
00000000000000000000000000000000000000000000000000000000000000000000000000000000000000000000000000000000000000000000000000000000000000000000000000000000000000000000000000000000000000000000000000000000000000000000000000000000000000000000000000000000000000
310
00000000000000000000000000000000000000000000000000000000000000000000000000000000000000000000000000000000000000000000000000000000000000000000000000000000000000000000000000000000000000000000000000000000000000000000000000000000000000000000000000000000000000
310
00000000000000000000000000000000000000000000000000000000000000000000000000000000000000000000000000000000000000000000000000000000000000000000000000000000000000000000000000000000000000000000000000000000000000000000000000000000000000000000000000000000000000
310
00000000000000000000000000000000000000000000000000000000000000000000000000000000000000000000000000000000000000000000000000000000000000000000000000000000000000000000000000000000000000000000000000000000000000000000000000000000000000000000000000000000000000
310
00000000000000000000000000000000000000000000000000000000000000000000000000000000000000000000000000000000000000000000000000000000000000000000000000000000000000000000000000000000000000000000000000000000000000000000000000000000000000000000000000000000000000
310
00000000000000000000000000000000000000000000000000000000000000000000000000000000000000000000000000000000000000000000000000000000000000000000000000000000000000000000000000000000000000000000000000000000000000000000000000000000000000000000000000000000000000
310
00000000000000000000000000000000000000000000000000000000000000000000000000000000000000000000000000000000000000000000000000000000000000000000000000000000000000000000000000000000000000000000000000000000000000000000000000000000000000000000000000000000000000
310
00000000000000000000000000000000000000000000000000000000000000000000000000000000000000000000000000000000000000000000000000000000000000000000000000000000000000000000000000000000000000000000000000000000000000000000000000000000000000000000000000000000000000
310
00000000000000000000000000000000000000000000000000000000000000000000000000000000000000000000000000000000000000000000000000000000000000000000000000000000000000000000000000000000000000000000000000000000000000000000000000000000000000000000000000000000000000
310
00000000000000000000000000000000000000000000000000000000000000000000000000000000000000000000000000000000000000000000000000000000000000000000000000000000000000000000000000000000000000000000000000000000000000000000000000000000000000000000000000000000000000
310
00000000000000000000000000000000000000000000000000000000000000000000000000000000000000000000000000000000000000000000000000000000000000000000000000000000000000000000000000000000000000000000000000000000000000000000000000000000000000000000000000000000000000
310
00000000000000000000000000000000000000000000000000000000000000000000000000000000000000000000000000000000000000000000000000000000000000000000000000000000000000000000000000000000000000000000000000000000000000000000000000000000000000000000000000000000000000
310
00000000000000000000000000000000000000000000000000000000000000000000000000000000000000000000000000000000000000000000000000000000000000000000000000000000000000000000000000000000000000000000000000000000000000000000000000000000000000000000000000000000000000
310
00000000000000000000000000000000000000000000000000000000000000000000000000000000000000000000000000000000000000000000000000000000000000000000000000000000000000000000000000000000000000000000000000000000000000000000000000000000000000000000000000000000000000
310
00000000000000000000000000000000000000000000000000000000000000000000000000000000000000000000000000000000000000000000000000000000000000000000000000000000000000000000000000000000000000000000000000000000000000000000000000000000000000000000000000000000000000
310
00000000000000000000000000000000000000000000000000000000000000000000000000000000000000000000000000
  0
ENDSEC
  0
EOF
