  0
SECTION
  2
HEADER
  9
$ACADVER
  1
AC1027
  9
$ACADMAINTVER
 70
     8
  9
$DWGCODEPAGE
  3
ANSI_932
  9
$REQUIREDVERSIONS
160
                 0
  9
$LASTSAVEDBY
  1
fujika.waniguchi
  9
$INSBASE
 10
0.0
 20
0.0
 30
0.0
  9
$EXTMIN
 10
6.323562444444
 20
18.051019276745
 30
0.0
  9
$EXTMAX
 10
569.87047771212
 20
408.387617052156
 30
0.0
  9
$LIMMIN
 10
0.0
 20
0.0
  9
$LIMMAX
 10
559.0
 20
400.0
  9
$ORTHOMODE
 70
     0
  9
$REGENMODE
 70
     1
  9
$FILLMODE
 70
     1
  9
$QTEXTMODE
 70
     0
  9
$MIRRTEXT
 70
     1
  9
$LTSCALE
 40
15.0
  9
$ATTMODE
 70
     1
  9
$TEXTSIZE
 40
4.0
  9
$TRACEWID
 40
0.05
  9
$TEXTSTYLE
  7
Standard
  9
$CLAYER
  8
CSLAYER1
  9
$CELTYPE
  6
ByLayer
  9
$CECOLOR
 62
   256
  9
$CELTSCALE
 40
1.0
  9
$DISPSILH
 70
     0
  9
$DIMSCALE
 40
1.0
  9
$DIMASZ
 40
0.18
  9
$DIMEXO
 40
0.0625
  9
$DIMDLI
 40
0.38
  9
$DIMRND
 40
0.0
  9
$DIMDLE
 40
0.0
  9
$DIMEXE
 40
0.18
  9
$DIMTP
 40
0.0
  9
$DIMTM
 40
0.0
  9
$DIMTXT
 40
0.18
  9
$DIMCEN
 40
0.09
  9
$DIMTSZ
 40
0.0
  9
$DIMTOL
 70
     0
  9
$DIMLIM
 70
     0
  9
$DIMTIH
 70
     1
  9
$DIMTOH
 70
     1
  9
$DIMSE1
 70
     0
  9
$DIMSE2
 70
     0
  9
$DIMTAD
 70
     0
  9
$DIMZIN
 70
     0
  9
$DIMBLK
  1

  9
$DIMASO
 70
     1
  9
$DIMSHO
 70
     1
  9
$DIMPOST
  1

  9
$DIMAPOST
  1

  9
$DIMALT
 70
     0
  9
$DIMALTD
 70
     2
  9
$DIMALTF
 40
25.4
  9
$DIMLFAC
 40
1.0
  9
$DIMTOFL
 70
     0
  9
$DIMTVP
 40
0.0
  9
$DIMTIX
 70
     0
  9
$DIMSOXD
 70
     0
  9
$DIMSAH
 70
     0
  9
$DIMBLK1
  1

  9
$DIMBLK2
  1

  9
$DIMSTYLE
  2
Standard
  9
$DIMCLRD
 70
     0
  9
$DIMCLRE
 70
     0
  9
$DIMCLRT
 70
     0
  9
$DIMTFAC
 40
1.0
  9
$DIMGAP
 40
0.09
  9
$DIMJUST
 70
     0
  9
$DIMSD1
 70
     0
  9
$DIMSD2
 70
     0
  9
$DIMTOLJ
 70
     1
  9
$DIMTZIN
 70
     0
  9
$DIMALTZ
 70
     0
  9
$DIMALTTZ
 70
     0
  9
$DIMUPT
 70
     0
  9
$DIMDEC
 70
     4
  9
$DIMTDEC
 70
     4
  9
$DIMALTU
 70
     2
  9
$DIMALTTD
 70
     2
  9
$DIMTXSTY
  7
Standard
  9
$DIMAUNIT
 70
     0
  9
$DIMADEC
 70
     0
  9
$DIMALTRND
 40
0.0
  9
$DIMAZIN
 70
     0
  9
$DIMDSEP
 70
    46
  9
$DIMATFIT
 70
     3
  9
$DIMFRAC
 70
     0
  9
$DIMLDRBLK
  1

  9
$DIMLUNIT
 70
     2
  9
$DIMLWD
 70
    -2
  9
$DIMLWE
 70
    -2
  9
$DIMTMOVE
 70
     2
  9
$DIMFXL
 40
1.0
  9
$DIMFXLON
 70
     0
  9
$DIMJOGANG
 40
0.785398163397
  9
$DIMTFILL
 70
     0
  9
$DIMTFILLCLR
 70
     0
  9
$DIMARCSYM
 70
     0
  9
$DIMLTYPE
  6

  9
$DIMLTEX1
  6

  9
$DIMLTEX2
  6

  9
$DIMTXTDIRECTION
 70
     0
  9
$LUNITS
 70
     2
  9
$LUPREC
 70
     4
  9
$SKETCHINC
 40
0.1
  9
$FILLETRAD
 40
0.0
  9
$AUNITS
 70
     0
  9
$AUPREC
 70
     0
  9
$MENU
  1
ACAD
  9
$ELEVATION
 40
0.0
  9
$PELEVATION
 40
0.0
  9
$THICKNESS
 40
0.0
  9
$LIMCHECK
 70
     0
  9
$CHAMFERA
 40
0.0
  9
$CHAMFERB
 40
0.0
  9
$CHAMFERC
 40
0.0
  9
$CHAMFERD
 40
0.0
  9
$SKPOLY
 70
     0
  9
$TDCREATE
 40
2451928.0
  9
$TDUCREATE
 40
2451927.625
  9
$TDUPDATE
 40
2457875.583474641
  9
$TDUUPDATE
 40
2457875.208474641
  9
$TDINDWG
 40
0.1233738194
  9
$TDUSRTIMER
 40
0.1233738194
  9
$USRTIMER
 70
     1
  9
$ANGBASE
 50
0.0
  9
$ANGDIR
 70
     0
  9
$PDMODE
 70
     0
  9
$PDSIZE
 40
0.0
  9
$PLINEWID
 40
0.0
  9
$SPLFRAME
 70
     0
  9
$SPLINETYPE
 70
     6
  9
$SPLINESEGS
 70
     8
  9
$HANDSEED
  5
1029
  9
$SURFTAB1
 70
     6
  9
$SURFTAB2
 70
     6
  9
$SURFTYPE
 70
     6
  9
$SURFU
 70
     6
  9
$SURFV
 70
     6
  9
$UCSBASE
  2

  9
$UCSNAME
  2

  9
$UCSORG
 10
0.0
 20
0.0
 30
0.0
  9
$UCSXDIR
 10
1.0
 20
0.0
 30
0.0
  9
$UCSYDIR
 10
0.0
 20
1.0
 30
0.0
  9
$UCSORTHOREF
  2

  9
$UCSORTHOVIEW
 70
     0
  9
$UCSORGTOP
 10
0.0
 20
0.0
 30
0.0
  9
$UCSORGBOTTOM
 10
0.0
 20
0.0
 30
0.0
  9
$UCSORGLEFT
 10
0.0
 20
0.0
 30
0.0
  9
$UCSORGRIGHT
 10
0.0
 20
0.0
 30
0.0
  9
$UCSORGFRONT
 10
0.0
 20
0.0
 30
0.0
  9
$UCSORGBACK
 10
0.0
 20
0.0
 30
0.0
  9
$PUCSBASE
  2

  9
$PUCSNAME
  2

  9
$PUCSORG
 10
0.0
 20
0.0
 30
0.0
  9
$PUCSXDIR
 10
1.0
 20
0.0
 30
0.0
  9
$PUCSYDIR
 10
0.0
 20
1.0
 30
0.0
  9
$PUCSORTHOREF
  2

  9
$PUCSORTHOVIEW
 70
     0
  9
$PUCSORGTOP
 10
0.0
 20
0.0
 30
0.0
  9
$PUCSORGBOTTOM
 10
0.0
 20
0.0
 30
0.0
  9
$PUCSORGLEFT
 10
0.0
 20
0.0
 30
0.0
  9
$PUCSORGRIGHT
 10
0.0
 20
0.0
 30
0.0
  9
$PUCSORGFRONT
 10
0.0
 20
0.0
 30
0.0
  9
$PUCSORGBACK
 10
0.0
 20
0.0
 30
0.0
  9
$USERI1
 70
     0
  9
$USERI2
 70
     0
  9
$USERI3
 70
     0
  9
$USERI4
 70
     0
  9
$USERI5
 70
     0
  9
$USERR1
 40
0.0
  9
$USERR2
 40
0.0
  9
$USERR3
 40
0.0
  9
$USERR4
 40
0.0
  9
$USERR5
 40
0.0
  9
$WORLDVIEW
 70
     1
  9
$SHADEDGE
 70
     3
  9
$SHADEDIF
 70
    70
  9
$TILEMODE
 70
     1
  9
$MAXACTVP
 70
    64
  9
$PINSBASE
 10
0.0
 20
0.0
 30
0.0
  9
$PLIMCHECK
 70
     0
  9
$PEXTMIN
 10
1.000000000000E+20
 20
1.000000000000E+20
 30
1.000000000000E+20
  9
$PEXTMAX
 10
-1.000000000000E+20
 20
-1.000000000000E+20
 30
-1.000000000000E+20
  9
$PLIMMIN
 10
0.0
 20
0.0
  9
$PLIMMAX
 10
12.0
 20
9.0
  9
$UNITMODE
 70
     0
  9
$VISRETAIN
 70
     1
  9
$PLINEGEN
 70
     0
  9
$PSLTSCALE
 70
     1
  9
$TREEDEPTH
 70
  3020
  9
$CMLSTYLE
  2
Standard
  9
$CMLJUST
 70
     0
  9
$CMLSCALE
 40
1.0
  9
$PROXYGRAPHICS
 70
     1
  9
$MEASUREMENT
 70
     0
  9
$CELWEIGHT
370
    -1
  9
$ENDCAPS
280
     0
  9
$JOINSTYLE
280
     0
  9
$LWDISPLAY
290
     0
  9
$INSUNITS
 70
     0
  9
$HYPERLINKBASE
  1

  9
$STYLESHEET
  1

  9
$XEDIT
290
     1
  9
$CEPSNTYPE
380
     0
  9
$PSTYLEMODE
290
     1
  9
$FINGERPRINTGUID
  2
{213DE84E-6745-4AEA-A329-6E62D57DE3DD}
  9
$VERSIONGUID
  2
{FAEB1C32-E019-11D5-929B-00C0DF256EC4}
  9
$EXTNAMES
290
     1
  9
$PSVPSCALE
 40
0.0
  9
$OLESTARTUP
290
     0
  9
$SORTENTS
280
   127
  9
$INDEXCTL
280
     0
  9
$HIDETEXT
280
     1
  9
$XCLIPFRAME
280
     2
  9
$HALOGAP
280
     0
  9
$OBSCOLOR
 70
   257
  9
$OBSLTYPE
280
     0
  9
$INTERSECTIONDISPLAY
280
     0
  9
$INTERSECTIONCOLOR
 70
   257
  9
$DIMASSOC
280
     2
  9
$PROJECTNAME
  1

  9
$CAMERADISPLAY
290
     0
  9
$LENSLENGTH
 40
50.0
  9
$CAMERAHEIGHT
 40
0.0
  9
$STEPSPERSEC
 40
2.0
  9
$STEPSIZE
 40
6.0
  9
$3DDWFPREC
 40
2.0
  9
$PSOLWIDTH
 40
0.25
  9
$PSOLHEIGHT
 40
4.0
  9
$LOFTANG1
 40
1.570796326795
  9
$LOFTANG2
 40
1.570796326795
  9
$LOFTMAG1
 40
0.0
  9
$LOFTMAG2
 40
0.0
  9
$LOFTPARAM
 70
     7
  9
$LOFTNORMALS
280
     1
  9
$LATITUDE
 40
37.795
  9
$LONGITUDE
 40
-122.394
  9
$NORTHDIRECTION
 40
0.0
  9
$TIMEZONE
 70
 -8000
  9
$LIGHTGLYPHDISPLAY
280
     1
  9
$TILEMODELIGHTSYNCH
280
     1
  9
$SOLIDHIST
280
     0
  9
$SHOWHIST
280
     1
  9
$DWFFRAME
280
     2
  9
$DGNFRAME
280
     2
  9
$REALWORLDSCALE
290
     1
  9
$INTERFERECOLOR
 62
   256
  9
$CSHADOW
280
     0
  9
$SHADOWPLANELOCATION
 40
0.0
  0
ENDSEC
  0
SECTION
  2
CLASSES
  0
CLASS
  1
ACDBDICTIONARYWDFLT
  2
AcDbDictionaryWithDefault
  3
ObjectDBX Classes
 90
        0
 91
        5
280
     0
281
     0
  0
CLASS
  1
SCALE
  2
AcDbScale
  3
ObjectDBX Classes
 90
     1153
 91
        5
280
     0
281
     0
  0
CLASS
  1
VISUALSTYLE
  2
AcDbVisualStyle
  3
ObjectDBX Classes
 90
     4095
 91
        5
280
     0
281
     0
  0
CLASS
  1
MATERIAL
  2
AcDbMaterial
  3
ObjectDBX Classes
 90
     1153
 91
        5
280
     0
281
     0
  0
CLASS
  1
TABLESTYLE
  2
AcDbTableStyle
  3
ObjectDBX Classes
 90
     4095
 91
        5
280
     0
281
     0
  0
CLASS
  1
MLEADERSTYLE
  2
AcDbMLeaderStyle
  3
ACDB_MLEADERSTYLE_CLASS
 90
     4095
 91
        5
280
     0
281
     0
  0
CLASS
  1
SUN
  2
AcDbSun
  3
SCENEOE
 90
     1153
 91
        5
280
     0
281
     0
  0
CLASS
  1
DICTIONARYVAR
  2
AcDbDictionaryVar
  3
ObjectDBX Classes
 90
        0
 91
        4
280
     0
281
     0
  0
CLASS
  1
DIMASSOC
  2
AcDbDimAssoc
  3
"AcDbDimAssoc|Product Desc:     AcDim ARX App For Dimension|Company:          Autodesk, Inc.|WEB Address:      www.autodesk.com"
 90
        0
 91
        4
280
     0
281
     0
  0
CLASS
  1
SORTENTSTABLE
  2
AcDbSortentsTable
  3
ObjectDBX Classes
 90
        0
 91
        4
280
     0
281
     0
  0
CLASS
  1
CELLSTYLEMAP
  2
AcDbCellStyleMap
  3
ObjectDBX Classes
 90
     1152
 91
        4
280
     0
281
     0
  0
CLASS
  1
XRECORD
  2
AcDbXrecord
  3
ObjectDBX Classes
 90
        0
 91
        1
280
     0
281
     0
  0
CLASS
  1
LWPOLYLINE
  2
AcDbPolyline
  3
ObjectDBX Classes
 90
        0
 91
        1
280
     0
281
     1
  0
CLASS
  1
HATCH
  2
AcDbHatch
  3
ObjectDBX Classes
 90
        0
 91
        1
280
     0
281
     1
  0
CLASS
  1
ACDBPLACEHOLDER
  2
AcDbPlaceHolder
  3
ObjectDBX Classes
 90
        0
 91
        1
280
     0
281
     0
  0
CLASS
  1
LAYOUT
  2
AcDbLayout
  3
ObjectDBX Classes
 90
        0
 91
        1
280
     0
281
     0
  0
ENDSEC
  0
SECTION
  2
TABLES
  0
TABLE
  2
VPORT
  5
8
330
0
100
AcDbSymbolTable
 70
     1
  0
VPORT
  5
3B
330
8
100
AcDbSymbolTableRecord
100
AcDbViewportTableRecord
  2
*Active
 70
     0
 10
0.0
 20
0.0
 11
1.0
 21
1.0
 12
288.097020078282
 22
213.21931816445
 13
0.0
 23
0.0
 14
0.5
 24
0.5
 15
0.5
 25
0.5
 16
0.0
 26
0.0
 36
1.0
 17
0.0
 27
0.0
 37
0.0
 40
398.143329730919
 41
1.784768211921
 42
50.0
 43
0.0
 44
0.0
 50
0.0
 51
0.0
 71
    16
 72
   100
 73
     1
 74
     3
 75
     0
 76
     0
 77
     0
 78
     0
281
     0
 65
     1
110
0.0
120
0.0
130
0.0
111
1.0
121
0.0
131
0.0
112
0.0
122
1.0
132
0.0
 79
     0
146
0.0
348
66A
 60
     3
 61
     5
292
     1
282
     1
141
0.0
142
0.0
 63
   256
361
687
  0
ENDTAB
  0
TABLE
  2
LTYPE
  5
5
330
0
100
AcDbSymbolTable
 70
    10
  0
LTYPE
  5
14
330
5
100
AcDbSymbolTableRecord
100
AcDbLinetypeTableRecord
  2
ByBlock
 70
     0
  3

 72
    65
 73
     0
 40
0.0
  0
LTYPE
  5
15
330
5
100
AcDbSymbolTableRecord
100
AcDbLinetypeTableRecord
  2
ByLayer
 70
     0
  3

 72
    65
 73
     0
 40
0.0
  0
LTYPE
  5
16
330
5
100
AcDbSymbolTableRecord
100
AcDbLinetypeTableRecord
  2
CONTINUOUS
 70
     0
  3
Solid line
 72
    65
 73
     0
 40
0.0
  0
LTYPE
  5
21
330
5
100
AcDbSymbolTableRecord
100
AcDbLinetypeTableRecord
  2
DASHED
 70
     0
  3
__ __ __ __ __ __ __ __ __ __ __ __ __ __ __
 72
    65
 73
     2
 40
0.75
 49
0.5
 74
     0
 49
-0.25
 74
     0
  0
LTYPE
  5
22
330
5
100
AcDbSymbolTableRecord
100
AcDbLinetypeTableRecord
  2
HIDDEN
 70
     0
  3
_ _ _ _ _ _ _ _ _ _ _ _ _ _ _ _ _ _ _ _ _ _ _
 72
    65
 73
     2
 40
0.375
 49
0.25
 74
     0
 49
-0.125
 74
     0
  0
LTYPE
  5
23
330
5
100
AcDbSymbolTableRecord
100
AcDbLinetypeTableRecord
  2
DOT
 70
     0
  3
...............................................
 72
    65
 73
     2
 40
0.25
 49
0.0
 74
     0
 49
-0.25
 74
     0
  0
LTYPE
  5
24
330
5
100
AcDbSymbolTableRecord
100
AcDbLinetypeTableRecord
  2
DASHDOT
 70
     0
  3
__ . __ . __ . __ . __ . __ . __ . __ . __ . __
 72
    65
 73
     4
 40
1.0
 49
0.5
 74
     0
 49
-0.25
 74
     0
 49
0.0
 74
     0
 49
-0.25
 74
     0
  0
LTYPE
  5
25
330
5
100
AcDbSymbolTableRecord
100
AcDbLinetypeTableRecord
  2
DIVIDE
 70
     0
  3
__ . . __ . . __ . . __ . . __ . . __ . . __
 72
    65
 73
     6
 40
1.25
 49
0.5
 74
     0
 49
-0.25
 74
     0
 49
0.0
 74
     0
 49
-0.25
 74
     0
 49
0.0
 74
     0
 49
-0.25
 74
     0
  0
LTYPE
  5
26
330
5
100
AcDbSymbolTableRecord
100
AcDbLinetypeTableRecord
  2
CENTER
 70
     0
  3
____ _ ____ _ ____ _ ____ _ ____ _ ____ _ ____ 
 72
    65
 73
     4
 40
2.0
 49
1.25
 74
     0
 49
-0.25
 74
     0
 49
0.25
 74
     0
 49
-0.25
 74
     0
  0
LTYPE
  5
27
330
5
100
AcDbSymbolTableRecord
100
AcDbLinetypeTableRecord
  2
PHANTOM
 70
     0
  3
______  __  __  ______  __  __  ______  __  __ 
 72
    65
 73
     6
 40
2.5
 49
1.25
 74
     0
 49
-0.25
 74
     0
 49
0.25
 74
     0
 49
-0.25
 74
     0
 49
0.25
 74
     0
 49
-0.25
 74
     0
  0
LTYPE
  5
28
330
5
100
AcDbSymbolTableRecord
100
AcDbLinetypeTableRecord
  2
BORDER
 70
     0
  3
__ __ . __ __ . __ __ . __ __ . __ __ . __ __ .
 72
    65
 73
     6
 40
1.75
 49
0.5
 74
     0
 49
-0.25
 74
     0
 49
0.5
 74
     0
 49
-0.25
 74
     0
 49
0.0
 74
     0
 49
-0.25
 74
     0
  0
LTYPE
  5
6A3
330
5
100
AcDbSymbolTableRecord
100
AcDbLinetypeTableRecord
  2
DYN_DIM
 70
     0
  3
Dashed dynamic dimension line
 72
    65
 73
     2
 40
2.060970268327
 49
0.588848648094
 74
     0
 49
-1.472121620234
 74
     0
  0
ENDTAB
  0
TABLE
  2
LAYER
  5
2
102
{ACAD_XDICTIONARY
360
6EE
102
}
330
0
100
AcDbSymbolTable
 70
    18
  0
LAYER
  5
10
330
2
100
AcDbSymbolTableRecord
100
AcDbLayerTableRecord
  2
0
 70
     0
 62
     7
  6
CONTINUOUS
370
    -3
390
F
347
681
348
0
  0
LAYER
  5
29
330
2
100
AcDbSymbolTableRecord
100
AcDbLayerTableRecord
  2
CSLAYER1
 70
     0
 62
     7
  6
CONTINUOUS
370
    -3
390
F
347
681
348
0
  0
LAYER
  5
32
330
2
100
AcDbSymbolTableRecord
100
AcDbLayerTableRecord
  2
CSLAYER10
 70
     0
 62
     3
  6
CONTINUOUS
370
    -3
390
F
347
681
348
0
  0
LAYER
  5
68F
330
2
100
AcDbSymbolTableRecord
100
AcDbLayerTableRecord
  2
Defpoints
 70
     0
 62
     7
  6
CONTINUOUS
290
     0
370
    -3
390
F
347
681
348
0
  0
ENDTAB
  0
TABLE
  2
STYLE
  5
3
330
0
100
AcDbSymbolTable
 70
     3
  0
STYLE
  5
11
330
3
100
AcDbSymbolTableRecord
100
AcDbTextStyleTableRecord
  2
Standard
 70
     0
 40
0.0
 41
1.0
 50
0.0
 71
     0
 42
4.0
  3
txt
  4

  0
STYLE
  5
39
330
3
100
AcDbSymbolTableRecord
100
AcDbTextStyleTableRecord
  2
FX_FONT
 70
     0
 40
1.0
 41
1.0
 50
0.0
 71
     0
 42
1.0
  3
monotxt
  4
bigfont
  0
STYLE
  5
6A2
330
3
100
AcDbSymbolTableRecord
100
AcDbTextStyleTableRecord
  2
DYN_DIM
 70
     0
 40
0.0
 41
1.0
 50
0.0
 71
     0
 42
0.2
  3
txt
  4

  0
ENDTAB
  0
TABLE
  2
VIEW
  5
6
330
0
100
AcDbSymbolTable
 70
     0
  0
ENDTAB
  0
TABLE
  2
UCS
  5
7
330
0
100
AcDbSymbolTable
 70
     0
  0
ENDTAB
  0
TABLE
  2
APPID
  5
9
330
0
100
AcDbSymbolTable
 70
     4
  0
APPID
  5
12
330
9
100
AcDbSymbolTableRecord
100
AcDbRegAppTableRecord
  2
ACAD
 70
     0
  0
APPID
  5
6A4
330
9
100
AcDbSymbolTableRecord
100
AcDbRegAppTableRecord
  2
ACAD_DSTYLE_DIMRADIAL_EXTENSION
 70
     0
  0
APPID
  5
C9B
330
9
100
AcDbSymbolTableRecord
100
AcDbRegAppTableRecord
  2
ACAD_MLEADERVER
 70
     0
  0
APPID
  5
DB5
330
9
100
AcDbSymbolTableRecord
100
AcDbRegAppTableRecord
  2
AcadAnnotative
 70
     0
  0
ENDTAB
  0
TABLE
  2
DIMSTYLE
  5
A
330
0
100
AcDbSymbolTable
 70
     1
100
AcDbDimStyleTable
  0
DIMSTYLE
105
3A
330
A
100
AcDbSymbolTableRecord
100
AcDbDimStyleTableRecord
  2
Standard
 70
     0
178
     0
340
11
  0
ENDTAB
  0
TABLE
  2
BLOCK_RECORD
  5
1
330
0
100
AcDbSymbolTable
 70
    80
  0
BLOCK_RECORD
  5
1D
102
{ACAD_XDICTIONARY
360
72D
102
}
330
1
100
AcDbSymbolTableRecord
100
AcDbBlockTableRecord
  2
*Model_Space
340
1E
 70
     0
280
     1
281
     0
  0
BLOCK_RECORD
  5
1B
330
1
100
AcDbSymbolTableRecord
100
AcDbBlockTableRecord
  2
*Paper_Space
340
1C
 70
     0
280
     1
281
     0
  0
BLOCK_RECORD
  5
3D
330
1
100
AcDbSymbolTableRecord
100
AcDbBlockTableRecord
  2
FXDIM0000
340
0
 70
     0
280
     1
281
     0
  0
BLOCK_RECORD
  5
47
330
1
100
AcDbSymbolTableRecord
100
AcDbBlockTableRecord
  2
FXDIM0001
340
0
 70
     0
280
     1
281
     0
  0
BLOCK_RECORD
  5
68
330
1
100
AcDbSymbolTableRecord
100
AcDbBlockTableRecord
  2
FXDIM0002
340
0
 70
     0
280
     1
281
     0
  0
BLOCK_RECORD
  5
85
330
1
100
AcDbSymbolTableRecord
100
AcDbBlockTableRecord
  2
FXDIM0003
340
0
 70
     0
280
     1
281
     0
  0
BLOCK_RECORD
  5
15E
330
1
100
AcDbSymbolTableRecord
100
AcDbBlockTableRecord
  2
FXDIM0004
340
0
 70
     0
280
     1
281
     0
  0
BLOCK_RECORD
  5
1EC
330
1
100
AcDbSymbolTableRecord
100
AcDbBlockTableRecord
  2
FXDIM0005
340
0
 70
     0
280
     1
281
     0
  0
BLOCK_RECORD
  5
1F4
330
1
100
AcDbSymbolTableRecord
100
AcDbBlockTableRecord
  2
FXDIM0006
340
0
 70
     0
280
     1
281
     0
  0
BLOCK_RECORD
  5
24F
330
1
100
AcDbSymbolTableRecord
100
AcDbBlockTableRecord
  2
FXDIM0007
340
0
 70
     0
280
     1
281
     0
  0
BLOCK_RECORD
  5
292
330
1
100
AcDbSymbolTableRecord
100
AcDbBlockTableRecord
  2
BLKF0000
340
0
 70
     0
280
     1
281
     0
  0
BLOCK_RECORD
  5
2D4
330
1
100
AcDbSymbolTableRecord
100
AcDbBlockTableRecord
  2
BLKF0001
340
0
 70
     0
280
     1
281
     0
  0
BLOCK_RECORD
  5
2DD
330
1
100
AcDbSymbolTableRecord
100
AcDbBlockTableRecord
  2
BLKF0002
340
0
 70
     0
280
     1
281
     0
  0
BLOCK_RECORD
  5
2E2
330
1
100
AcDbSymbolTableRecord
100
AcDbBlockTableRecord
  2
BLKF0003
340
0
 70
     0
280
     1
281
     0
  0
BLOCK_RECORD
  5
304
330
1
100
AcDbSymbolTableRecord
100
AcDbBlockTableRecord
  2
BLKF0004
340
0
 70
     0
280
     1
281
     0
  0
BLOCK_RECORD
  5
6C1
102
{ACAD_XDICTIONARY
360
6E5
102
}
330
1
100
AcDbSymbolTableRecord
100
AcDbBlockTableRecord
  2
A7800C8
340
0
 70
     0
280
     1
281
     0
  0
BLOCK_RECORD
  5
6F3
102
{ACAD_XDICTIONARY
360
718
102
}
330
1
100
AcDbSymbolTableRecord
100
AcDbBlockTableRecord
  2
A780158
340
0
 70
     0
280
     1
281
     0
  0
BLOCK_RECORD
  5
72F
102
{ACAD_XDICTIONARY
360
754
102
}
330
1
100
AcDbSymbolTableRecord
100
AcDbBlockTableRecord
  2
A780108
340
0
 70
     0
280
     1
281
     0
  0
BLOCK_RECORD
  5
769
102
{ACAD_XDICTIONARY
360
78E
102
}
330
1
100
AcDbSymbolTableRecord
100
AcDbBlockTableRecord
  2
A780168
340
0
102
{BLKREFS
331
816
102
}
 70
     0
280
     1
281
     0
  0
BLOCK_RECORD
  5
795
102
{ACAD_XDICTIONARY
360
7BB
102
}
330
1
100
AcDbSymbolTableRecord
100
AcDbBlockTableRecord
  2
A7801A8
340
0
102
{BLKREFS
331
81E
331
826
102
}
 70
     0
280
     1
281
     0
  0
BLOCK_RECORD
  5
7C3
102
{ACAD_XDICTIONARY
360
7E9
102
}
330
1
100
AcDbSymbolTableRecord
100
AcDbBlockTableRecord
  2
A780128
340
0
 70
     0
280
     1
281
     0
  0
BLOCK_RECORD
  5
82A
102
{ACAD_XDICTIONARY
360
850
102
}
330
1
100
AcDbSymbolTableRecord
100
AcDbBlockTableRecord
  2
A780118
340
0
102
{BLKREFS
331
8BB
102
}
 70
     0
280
     1
281
     0
  0
BLOCK_RECORD
  5
889
330
1
100
AcDbSymbolTableRecord
100
AcDbBlockTableRecord
  2
A780188
340
0
102
{BLKREFS
331
888
102
}
 70
     0
280
     1
281
     0
  0
BLOCK_RECORD
  5
893
102
{ACAD_XDICTIONARY
360
8B9
102
}
330
1
100
AcDbSymbolTableRecord
100
AcDbBlockTableRecord
  2
14F00190
340
0
 70
     0
280
     1
281
     0
  0
BLOCK_RECORD
  5
93B
102
{ACAD_XDICTIONARY
360
960
102
}
330
1
100
AcDbSymbolTableRecord
100
AcDbBlockTableRecord
  2
14F002B0
340
0
 70
     0
280
     1
281
     0
  0
BLOCK_RECORD
  5
9A3
102
{ACAD_XDICTIONARY
360
9C7
102
}
330
1
100
AcDbSymbolTableRecord
100
AcDbBlockTableRecord
  2
A7800E8
340
0
 70
     0
280
     1
281
     0
  0
BLOCK_RECORD
  5
9CE
102
{ACAD_XDICTIONARY
360
9F4
102
}
330
1
100
AcDbSymbolTableRecord
100
AcDbBlockTableRecord
  2
A780198
340
0
 70
     0
280
     1
281
     0
  0
BLOCK_RECORD
  5
C1B
102
{ACAD_XDICTIONARY
360
C40
102
}
330
1
100
AcDbSymbolTableRecord
100
AcDbBlockTableRecord
  2
14F00250
340
0
 70
     0
280
     1
281
     0
  0
ENDTAB
  0
ENDSEC
  0
SECTION
  2
BLOCKS
  0
BLOCK
  5
661
330
1D
100
AcDbEntity
  8
0
100
AcDbBlockBegin
  2
*Model_Space
 70
     0
 10
0.0
 20
0.0
 30
0.0
  3
*Model_Space
  1

  0
ENDBLK
  5
662
330
1D
100
AcDbEntity
  8
0
100
AcDbBlockEnd
  0
BLOCK
  5
663
330
1B
100
AcDbEntity
 67
     1
  8
0
100
AcDbBlockBegin
  2
*Paper_Space
 70
     0
 10
0.0
 20
0.0
 30
0.0
  3
*Paper_Space
  1

  0
ENDBLK
  5
664
330
1B
100
AcDbEntity
 67
     1
  8
0
100
AcDbBlockEnd
  0
BLOCK
  5
3C
330
3D
100
AcDbEntity
  8
CSLAYER1
100
AcDbBlockBegin
  2
FXDIM0000
 70
     0
 10
0.0
 20
0.0
 30
0.0
  3
FXDIM0000
  1

  0
LINE
  5
3E
330
3D
100
AcDbEntity
  8
CSLAYER1
  6
Continuous
 62
     7
100
AcDbLine
 10
100.418883
 20
315.221514
 30
0.0
 11
126.320433
 21
315.221514
 31
0.0
  0
LINE
  5
3F
330
3D
100
AcDbEntity
  8
CSLAYER1
  6
Continuous
 62
     7
100
AcDbLine
 10
99.067077
 20
190.221514
 30
0.0
 11
126.320433
 21
190.221514
 31
0.0
  0
LINE
  5
40
330
3D
100
AcDbEntity
  8
CSLAYER1
  6
Continuous
 62
     7
100
AcDbLine
 10
125.320433
 20
315.221514
 30
0.0
 11
125.320433
 21
190.221514
 31
0.0
  0
LINE
  5
41
330
3D
100
AcDbEntity
  8
CSLAYER1
  6
Continuous
 62
     7
100
AcDbLine
 10
125.320433
 20
315.221514
 30
0.0
 11
125.059381
 21
313.238625
 31
0.0
  0
LINE
  5
42
330
3D
100
AcDbEntity
  8
CSLAYER1
  6
Continuous
 62
     7
100
AcDbLine
 10
125.320433
 20
315.221514
 30
0.0
 11
125.581486
 21
313.238625
 31
0.0
  0
LINE
  5
43
330
3D
100
AcDbEntity
  8
CSLAYER1
  6
Continuous
 62
     7
100
AcDbLine
 10
125.320433
 20
190.221514
 30
0.0
 11
125.059381
 21
192.204404
 31
0.0
  0
LINE
  5
44
330
3D
100
AcDbEntity
  8
CSLAYER1
  6
Continuous
 62
     7
100
AcDbLine
 10
125.320433
 20
190.221514
 30
0.0
 11
125.581486
 21
192.204404
 31
0.0
  0
ENDBLK
  5
45
330
3D
100
AcDbEntity
  8
0
100
AcDbBlockEnd
  0
BLOCK
  5
46
330
47
100
AcDbEntity
  8
CSLAYER1
100
AcDbBlockBegin
  2
FXDIM0001
 70
     0
 10
0.0
 20
0.0
 30
0.0
  3
FXDIM0001
  1

  0
LINE
  5
48
330
47
100
AcDbEntity
  8
CSLAYER1
  6
Continuous
 62
     7
100
AcDbLine
 10
67.327357
 20
249.721514
 30
0.0
 11
52.320433
 21
249.721514
 31
0.0
  0
LINE
  5
49
330
47
100
AcDbEntity
  8
CSLAYER1
  6
Continuous
 62
     7
100
AcDbLine
 10
67.327357
 20
211.721514
 30
0.0
 11
52.320433
 21
211.721514
 31
0.0
  0
LINE
  5
4A
330
47
100
AcDbEntity
  8
CSLAYER1
  6
Continuous
 62
     7
100
AcDbLine
 10
53.320433
 20
249.721514
 30
0.0
 11
53.320433
 21
211.721514
 31
0.0
  0
LINE
  5
4B
330
47
100
AcDbEntity
  8
CSLAYER1
  6
Continuous
 62
     7
100
AcDbLine
 10
53.320433
 20
249.721514
 30
0.0
 11
53.059381
 21
247.738625
 31
0.0
  0
LINE
  5
4C
330
47
100
AcDbEntity
  8
CSLAYER1
  6
Continuous
 62
     7
100
AcDbLine
 10
53.320433
 20
249.721514
 30
0.0
 11
53.581486
 21
247.738625
 31
0.0
  0
LINE
  5
4D
330
47
100
AcDbEntity
  8
CSLAYER1
  6
Continuous
 62
     7
100
AcDbLine
 10
53.320433
 20
211.721514
 30
0.0
 11
53.059381
 21
213.704404
 31
0.0
  0
LINE
  5
4E
330
47
100
AcDbEntity
  8
CSLAYER1
  6
Continuous
 62
     7
100
AcDbLine
 10
53.320433
 20
211.721514
 30
0.0
 11
53.581486
 21
213.704404
 31
0.0
  0
ENDBLK
  5
4F
330
47
100
AcDbEntity
  8
0
100
AcDbBlockEnd
  0
BLOCK
  5
67
330
68
100
AcDbEntity
  8
CSLAYER1
100
AcDbBlockBegin
  2
FXDIM0002
 70
     0
 10
0.0
 20
0.0
 30
0.0
  3
FXDIM0002
  1

  0
LINE
  5
69
330
68
100
AcDbEntity
  8
CSLAYER1
  6
Continuous
 62
     7
100
AcDbLine
 10
85.48663
 20
305.221514
 30
0.0
 11
117.017898
 21
305.221514
 31
0.0
  0
LINE
  5
6A
330
68
100
AcDbEntity
  8
CSLAYER1
  6
Continuous
 62
     7
100
AcDbLine
 10
85.48663
 20
200.221514
 30
0.0
 11
117.017898
 21
200.221514
 31
0.0
  0
LINE
  5
6B
330
68
100
AcDbEntity
  8
CSLAYER1
  6
Continuous
 62
     7
100
AcDbLine
 10
116.017898
 20
305.221514
 30
0.0
 11
116.017898
 21
200.221514
 31
0.0
  0
LINE
  5
6C
330
68
100
AcDbEntity
  8
CSLAYER1
  6
Continuous
 62
     7
100
AcDbLine
 10
116.017898
 20
305.221514
 30
0.0
 11
115.756846
 21
303.238625
 31
0.0
  0
LINE
  5
6D
330
68
100
AcDbEntity
  8
CSLAYER1
  6
Continuous
 62
     7
100
AcDbLine
 10
116.017898
 20
305.221514
 30
0.0
 11
116.278951
 21
303.238625
 31
0.0
  0
LINE
  5
6E
330
68
100
AcDbEntity
  8
CSLAYER1
  6
Continuous
 62
     7
100
AcDbLine
 10
116.017898
 20
200.221514
 30
0.0
 11
115.756846
 21
202.204404
 31
0.0
  0
LINE
  5
6F
330
68
100
AcDbEntity
  8
CSLAYER1
  6
Continuous
 62
     7
100
AcDbLine
 10
116.017898
 20
200.221514
 30
0.0
 11
116.278951
 21
202.204404
 31
0.0
  0
ENDBLK
  5
70
330
68
100
AcDbEntity
  8
0
100
AcDbBlockEnd
  0
BLOCK
  5
84
330
85
100
AcDbEntity
  8
CSLAYER1
100
AcDbBlockBegin
  2
FXDIM0003
 70
     0
 10
0.0
 20
0.0
 30
0.0
  3
FXDIM0003
  1

  0
LINE
  5
86
330
85
100
AcDbEntity
  8
CSLAYER1
  6
Continuous
 62
     7
100
AcDbLine
 10
71.820433
 20
175.221514
 30
0.0
 11
76.820433
 21
175.221514
 31
0.0
  0
LINE
  5
87
330
85
100
AcDbEntity
  8
CSLAYER1
  6
Continuous
 62
     7
100
AcDbLine
 10
76.820433
 20
175.221514
 30
0.0
 11
74.837544
 21
175.482567
 31
0.0
  0
LINE
  5
88
330
85
100
AcDbEntity
  8
CSLAYER1
  6
Continuous
 62
     7
100
AcDbLine
 10
76.820433
 20
175.221514
 30
0.0
 11
74.837544
 21
174.960462
 31
0.0
  0
ENDBLK
  5
89
330
85
100
AcDbEntity
  8
0
100
AcDbBlockEnd
  0
BLOCK
  5
15D
330
15E
100
AcDbEntity
  8
CSLAYER1
100
AcDbBlockBegin
  2
FXDIM0004
 70
     0
 10
0.0
 20
0.0
 30
0.0
  3
FXDIM0004
  1

  0
LINE
  5
15F
330
15E
100
AcDbEntity
  8
CSLAYER1
  6
Continuous
 62
     7
100
AcDbLine
 10
223.580745
 20
363.046959
 30
0.0
 11
223.580745
 21
379.559202
 31
0.0
  0
ENDBLK
  5
160
330
15E
100
AcDbEntity
  8
0
100
AcDbBlockEnd
  0
BLOCK
  5
1EB
330
1EC
100
AcDbEntity
  8
CSLAYER1
100
AcDbBlockBegin
  2
FXDIM0005
 70
     0
 10
0.0
 20
0.0
 30
0.0
  3
FXDIM0005
  1

  0
LINE
  5
1ED
330
1EC
100
AcDbEntity
  8
CSLAYER1
  6
Continuous
 62
     7
100
AcDbLine
 10
525.939628
 20
261.919505
 30
0.0
 11
540.80031
 21
242.105263
 31
0.0
  0
CIRCLE
  5
1EE
330
1EC
100
AcDbEntity
  8
CSLAYER1
  6
Continuous
 62
     7
100
AcDbCircle
 10
525.939628
 20
261.919505
 30
0.0
 40
0.5
  0
CIRCLE
  5
1EF
330
1EC
100
AcDbEntity
  8
CSLAYER1
  6
Continuous
 62
     7
100
AcDbCircle
 10
525.939628
 20
261.919505
 30
0.0
 40
0.25
  0
LINE
  5
1F0
330
1EC
100
AcDbEntity
  8
CSLAYER1
  6
Continuous
 62
     7
100
AcDbLine
 10
540.80031
 20
242.105263
 30
0.0
 11
540.80031
 21
210.105263
 31
0.0
  0
TEXT
  5
1F1
330
1EC
100
AcDbEntity
  8
CSLAYER1
 62
     7
100
AcDbText
 10
539.800293
 20
211.10527
 30
0.0
 40
4.0
  1
リード線４本　L=180
 50
90.0
 41
0.569380008435
  7
FX_FONT
 72
     5
 11
539.800293
 21
241.10527
 31
0.0
100
AcDbText
  0
ENDBLK
  5
1F2
330
1EC
100
AcDbEntity
  8
0
100
AcDbBlockEnd
  0
BLOCK
  5
1F3
330
1F4
100
AcDbEntity
  8
CSLAYER1
100
AcDbBlockBegin
  2
FXDIM0006
 70
     0
 10
0.0
 20
0.0
 30
0.0
  3
FXDIM0006
  1

  0
LINE
  5
1F5
330
1F4
100
AcDbEntity
  8
CSLAYER1
  6
Continuous
 62
     7
100
AcDbLine
 10
362.4736
 20
342.921514
 30
0.0
 11
347.235721
 21
369.435152
 31
0.0
  0
LINE
  5
1F6
330
1F4
100
AcDbEntity
  8
CSLAYER1
  6
Continuous
 62
     7
100
AcDbLine
 10
362.4736
 20
342.921514
 30
0.0
 11
361.259215
 21
344.510624
 31
0.0
  0
LINE
  5
1F7
330
1F4
100
AcDbEntity
  8
CSLAYER1
  6
Continuous
 62
     7
100
AcDbLine
 10
362.4736
 20
342.921514
 30
0.0
 11
361.711886
 21
344.770782
 31
0.0
  0
LINE
  5
1F8
330
1F4
100
AcDbEntity
  8
CSLAYER1
  6
Continuous
 62
     7
100
AcDbLine
 10
347.235721
 20
369.435152
 30
0.0
 11
322.735721
 21
369.435152
 31
0.0
  0
TEXT
  5
1F9
330
1F4
100
AcDbEntity
  8
CSLAYER1
 62
     7
100
AcDbText
 10
323.735718
 20
370.43515
 30
0.0
 40
4.0
  1
2-4mmネジ用穴
 41
0.590034965035
  7
FX_FONT
 72
     5
 11
346.235718
 21
370.43515
 31
0.0
100
AcDbText
  0
ENDBLK
  5
1FA
330
1F4
100
AcDbEntity
  8
0
100
AcDbBlockEnd
  0
BLOCK
  5
24E
330
24F
100
AcDbEntity
  8
CSLAYER1
100
AcDbBlockBegin
  2
FXDIM0007
 70
     0
 10
0.0
 20
0.0
 30
0.0
  3
FXDIM0007
  1

  0
LINE
  5
250
330
24F
100
AcDbEntity
  8
CSLAYER1
  6
Continuous
 62
     7
100
AcDbLine
 10
67.320433
 20
249.721514
 30
0.0
 11
52.155126
 21
249.721514
 31
0.0
  0
LINE
  5
251
330
24F
100
AcDbEntity
  8
CSLAYER1
  6
Continuous
 62
     7
100
AcDbLine
 10
67.320433
 20
255.721514
 30
0.0
 11
52.155126
 21
255.721514
 31
0.0
  0
ENDBLK
  5
252
330
24F
100
AcDbEntity
  8
0
100
AcDbBlockEnd
  0
BLOCK
  5
291
330
292
100
AcDbEntity
  8
CSLAYER1
100
AcDbBlockBegin
  2
BLKF0000
 70
     0
 10
0.0
 20
0.0
 30
0.0
  3
BLKF0000
  1

  0
LINE
  5
293
330
292
100
AcDbEntity
  8
CSLAYER1
  6
Continuous
 62
     3
100
AcDbLine
 10
360.4736
 20
336.421514
 30
0.0
 11
360.552428
 21
336.478513
 31
0.0
  0
LINE
  5
294
330
292
100
AcDbEntity
  8
CSLAYER1
  6
Continuous
 62
     3
100
AcDbLine
 10
360.552428
 20
336.478513
 30
0.0
 11
360.631248
 21
336.535236
 31
0.0
  0
LINE
  5
295
330
292
100
AcDbEntity
  8
CSLAYER1
  6
Continuous
 62
     3
100
AcDbLine
 10
360.631248
 20
336.535236
 30
0.0
 11
360.710052
 21
336.59141
 31
0.0
  0
LINE
  5
296
330
292
100
AcDbEntity
  8
CSLAYER1
  6
Continuous
 62
     3
100
AcDbLine
 10
360.710052
 20
336.59141
 30
0.0
 11
360.788831
 21
336.64676
 31
0.0
  0
LINE
  5
297
330
292
100
AcDbEntity
  8
CSLAYER1
  6
Continuous
 62
     3
100
AcDbLine
 10
360.788831
 20
336.64676
 30
0.0
 11
360.867577
 21
336.70101
 31
0.0
  0
LINE
  5
298
330
292
100
AcDbEntity
  8
CSLAYER1
  6
Continuous
 62
     3
100
AcDbLine
 10
360.867577
 20
336.70101
 30
0.0
 11
360.946283
 21
336.753887
 31
0.0
  0
LINE
  5
299
330
292
100
AcDbEntity
  8
CSLAYER1
  6
Continuous
 62
     3
100
AcDbLine
 10
360.946283
 20
336.753887
 30
0.0
 11
361.02494
 21
336.805116
 31
0.0
  0
LINE
  5
29A
330
292
100
AcDbEntity
  8
CSLAYER1
  6
Continuous
 62
     3
100
AcDbLine
 10
361.02494
 20
336.805116
 30
0.0
 11
361.103541
 21
336.854421
 31
0.0
  0
LINE
  5
29B
330
292
100
AcDbEntity
  8
CSLAYER1
  6
Continuous
 62
     3
100
AcDbLine
 10
361.103541
 20
336.854421
 30
0.0
 11
361.182076
 21
336.901528
 31
0.0
  0
LINE
  5
29C
330
292
100
AcDbEntity
  8
CSLAYER1
  6
Continuous
 62
     3
100
AcDbLine
 10
361.182076
 20
336.901528
 30
0.0
 11
361.260538
 21
336.946162
 31
0.0
  0
LINE
  5
29D
330
292
100
AcDbEntity
  8
CSLAYER1
  6
Continuous
 62
     3
100
AcDbLine
 10
361.260538
 20
336.946162
 30
0.0
 11
361.338919
 21
336.988049
 31
0.0
  0
LINE
  5
29E
330
292
100
AcDbEntity
  8
CSLAYER1
  6
Continuous
 62
     3
100
AcDbLine
 10
361.338919
 20
336.988049
 30
0.0
 11
361.417211
 21
337.026914
 31
0.0
  0
LINE
  5
29F
330
292
100
AcDbEntity
  8
CSLAYER1
  6
Continuous
 62
     3
100
AcDbLine
 10
361.417211
 20
337.026914
 30
0.0
 11
361.495405
 21
337.062481
 31
0.0
  0
LINE
  5
2A0
330
292
100
AcDbEntity
  8
CSLAYER1
  6
Continuous
 62
     3
100
AcDbLine
 10
361.495405
 20
337.062481
 30
0.0
 11
361.573493
 21
337.094477
 31
0.0
  0
LINE
  5
2A1
330
292
100
AcDbEntity
  8
CSLAYER1
  6
Continuous
 62
     3
100
AcDbLine
 10
361.573493
 20
337.094477
 30
0.0
 11
361.651468
 21
337.122627
 31
0.0
  0
LINE
  5
2A2
330
292
100
AcDbEntity
  8
CSLAYER1
  6
Continuous
 62
     3
100
AcDbLine
 10
361.651468
 20
337.122627
 30
0.0
 11
361.72932
 21
337.146655
 31
0.0
  0
LINE
  5
2A3
330
292
100
AcDbEntity
  8
CSLAYER1
  6
Continuous
 62
     3
100
AcDbLine
 10
361.72932
 20
337.146655
 30
0.0
 11
361.807043
 21
337.166287
 31
0.0
  0
LINE
  5
2A4
330
292
100
AcDbEntity
  8
CSLAYER1
  6
Continuous
 62
     3
100
AcDbLine
 10
361.807043
 20
337.166287
 30
0.0
 11
361.884627
 21
337.181248
 31
0.0
  0
LINE
  5
2A5
330
292
100
AcDbEntity
  8
CSLAYER1
  6
Continuous
 62
     3
100
AcDbLine
 10
361.884627
 20
337.181248
 30
0.0
 11
361.962066
 21
337.191264
 31
0.0
  0
LINE
  5
2A6
330
292
100
AcDbEntity
  8
CSLAYER1
  6
Continuous
 62
     3
100
AcDbLine
 10
361.962066
 20
337.191264
 30
0.0
 11
362.039349
 21
337.196059
 31
0.0
  0
LINE
  5
2A7
330
292
100
AcDbEntity
  8
CSLAYER1
  6
Continuous
 62
     3
100
AcDbLine
 10
362.039349
 20
337.196059
 30
0.0
 11
362.11647
 21
337.19536
 31
0.0
  0
LINE
  5
2A8
330
292
100
AcDbEntity
  8
CSLAYER1
  6
Continuous
 62
     3
100
AcDbLine
 10
362.11647
 20
337.19536
 30
0.0
 11
362.23542
 21
337.183192
 31
0.0
  0
LINE
  5
2A9
330
292
100
AcDbEntity
  8
CSLAYER1
  6
Continuous
 62
     3
100
AcDbLine
 10
362.23542
 20
337.183192
 30
0.0
 11
362.354027
 21
337.158456
 31
0.0
  0
LINE
  5
2AA
330
292
100
AcDbEntity
  8
CSLAYER1
  6
Continuous
 62
     3
100
AcDbLine
 10
362.354027
 20
337.158456
 30
0.0
 11
362.472354
 21
337.122384
 31
0.0
  0
LINE
  5
2AB
330
292
100
AcDbEntity
  8
CSLAYER1
  6
Continuous
 62
     3
100
AcDbLine
 10
362.472354
 20
337.122384
 30
0.0
 11
362.590468
 21
337.076208
 31
0.0
  0
LINE
  5
2AC
330
292
100
AcDbEntity
  8
CSLAYER1
  6
Continuous
 62
     3
100
AcDbLine
 10
362.590468
 20
337.076208
 30
0.0
 11
362.708433
 21
337.021161
 31
0.0
  0
LINE
  5
2AD
330
292
100
AcDbEntity
  8
CSLAYER1
  6
Continuous
 62
     3
100
AcDbLine
 10
362.708433
 20
337.021161
 30
0.0
 11
362.826314
 21
336.958474
 31
0.0
  0
LINE
  5
2AE
330
292
100
AcDbEntity
  8
CSLAYER1
  6
Continuous
 62
     3
100
AcDbLine
 10
362.826314
 20
336.958474
 30
0.0
 11
362.944176
 21
336.88938
 31
0.0
  0
LINE
  5
2AF
330
292
100
AcDbEntity
  8
CSLAYER1
  6
Continuous
 62
     3
100
AcDbLine
 10
362.944176
 20
336.88938
 30
0.0
 11
363.062084
 21
336.81511
 31
0.0
  0
LINE
  5
2B0
330
292
100
AcDbEntity
  8
CSLAYER1
  6
Continuous
 62
     3
100
AcDbLine
 10
363.062084
 20
336.81511
 30
0.0
 11
363.180101
 21
336.736898
 31
0.0
  0
LINE
  5
2B1
330
292
100
AcDbEntity
  8
CSLAYER1
  6
Continuous
 62
     3
100
AcDbLine
 10
363.180101
 20
336.736898
 30
0.0
 11
363.298294
 21
336.655975
 31
0.0
  0
LINE
  5
2B2
330
292
100
AcDbEntity
  8
CSLAYER1
  6
Continuous
 62
     3
100
AcDbLine
 10
363.298294
 20
336.655975
 30
0.0
 11
363.416728
 21
336.573574
 31
0.0
  0
LINE
  5
2B3
330
292
100
AcDbEntity
  8
CSLAYER1
  6
Continuous
 62
     3
100
AcDbLine
 10
363.416728
 20
336.573574
 30
0.0
 11
363.535466
 21
336.490927
 31
0.0
  0
LINE
  5
2B4
330
292
100
AcDbEntity
  8
CSLAYER1
  6
Continuous
 62
     3
100
AcDbLine
 10
363.535466
 20
336.490927
 30
0.0
 11
363.654573
 21
336.409265
 31
0.0
  0
LINE
  5
2B5
330
292
100
AcDbEntity
  8
CSLAYER1
  6
Continuous
 62
     3
100
AcDbLine
 10
363.654573
 20
336.409265
 30
0.0
 11
363.774115
 21
336.329822
 31
0.0
  0
LINE
  5
2B6
330
292
100
AcDbEntity
  8
CSLAYER1
  6
Continuous
 62
     3
100
AcDbLine
 10
363.774115
 20
336.329822
 30
0.0
 11
363.894157
 21
336.253829
 31
0.0
  0
LINE
  5
2B7
330
292
100
AcDbEntity
  8
CSLAYER1
  6
Continuous
 62
     3
100
AcDbLine
 10
363.894157
 20
336.253829
 30
0.0
 11
364.014763
 21
336.182519
 31
0.0
  0
LINE
  5
2B8
330
292
100
AcDbEntity
  8
CSLAYER1
  6
Continuous
 62
     3
100
AcDbLine
 10
364.014763
 20
336.182519
 30
0.0
 11
364.135998
 21
336.117123
 31
0.0
  0
LINE
  5
2B9
330
292
100
AcDbEntity
  8
CSLAYER1
  6
Continuous
 62
     3
100
AcDbLine
 10
364.135998
 20
336.117123
 30
0.0
 11
364.257926
 21
336.058875
 31
0.0
  0
LINE
  5
2BA
330
292
100
AcDbEntity
  8
CSLAYER1
  6
Continuous
 62
     3
100
AcDbLine
 10
364.257926
 20
336.058875
 30
0.0
 11
364.380614
 21
336.009005
 31
0.0
  0
LINE
  5
2BB
330
292
100
AcDbEntity
  8
CSLAYER1
  6
Continuous
 62
     3
100
AcDbLine
 10
364.380614
 20
336.009005
 30
0.0
 11
364.504125
 21
335.968747
 31
0.0
  0
LINE
  5
2BC
330
292
100
AcDbEntity
  8
CSLAYER1
  6
Continuous
 62
     3
100
AcDbLine
 10
364.504125
 20
335.968747
 30
0.0
 11
364.628524
 21
335.939333
 31
0.0
  0
LINE
  5
2BD
330
292
100
AcDbEntity
  8
CSLAYER1
  6
Continuous
 62
     3
100
AcDbLine
 10
364.628524
 20
335.939333
 30
0.0
 11
364.713525
 21
335.92606
 31
0.0
  0
LINE
  5
2BE
330
292
100
AcDbEntity
  8
CSLAYER1
  6
Continuous
 62
     3
100
AcDbLine
 10
364.713525
 20
335.92606
 30
0.0
 11
364.798944
 21
335.91809
 31
0.0
  0
LINE
  5
2BF
330
292
100
AcDbEntity
  8
CSLAYER1
  6
Continuous
 62
     3
100
AcDbLine
 10
364.798944
 20
335.91809
 30
0.0
 11
364.884761
 21
335.915157
 31
0.0
  0
LINE
  5
2C0
330
292
100
AcDbEntity
  8
CSLAYER1
  6
Continuous
 62
     3
100
AcDbLine
 10
364.884761
 20
335.915157
 30
0.0
 11
364.970954
 21
335.916997
 31
0.0
  0
LINE
  5
2C1
330
292
100
AcDbEntity
  8
CSLAYER1
  6
Continuous
 62
     3
100
AcDbLine
 10
364.970954
 20
335.916997
 30
0.0
 11
365.057504
 21
335.923343
 31
0.0
  0
LINE
  5
2C2
330
292
100
AcDbEntity
  8
CSLAYER1
  6
Continuous
 62
     3
100
AcDbLine
 10
365.057504
 20
335.923343
 30
0.0
 11
365.144388
 21
335.933932
 31
0.0
  0
LINE
  5
2C3
330
292
100
AcDbEntity
  8
CSLAYER1
  6
Continuous
 62
     3
100
AcDbLine
 10
365.144388
 20
335.933932
 30
0.0
 11
365.231586
 21
335.948497
 31
0.0
  0
LINE
  5
2C4
330
292
100
AcDbEntity
  8
CSLAYER1
  6
Continuous
 62
     3
100
AcDbLine
 10
365.231586
 20
335.948497
 30
0.0
 11
365.319077
 21
335.966774
 31
0.0
  0
LINE
  5
2C5
330
292
100
AcDbEntity
  8
CSLAYER1
  6
Continuous
 62
     3
100
AcDbLine
 10
365.319077
 20
335.966774
 30
0.0
 11
365.40684
 21
335.988498
 31
0.0
  0
LINE
  5
2C6
330
292
100
AcDbEntity
  8
CSLAYER1
  6
Continuous
 62
     3
100
AcDbLine
 10
365.40684
 20
335.988498
 30
0.0
 11
365.494855
 21
336.013403
 31
0.0
  0
LINE
  5
2C7
330
292
100
AcDbEntity
  8
CSLAYER1
  6
Continuous
 62
     3
100
AcDbLine
 10
365.494855
 20
336.013403
 30
0.0
 11
365.583099
 21
336.041225
 31
0.0
  0
LINE
  5
2C8
330
292
100
AcDbEntity
  8
CSLAYER1
  6
Continuous
 62
     3
100
AcDbLine
 10
365.583099
 20
336.041225
 30
0.0
 11
365.671553
 21
336.071698
 31
0.0
  0
LINE
  5
2C9
330
292
100
AcDbEntity
  8
CSLAYER1
  6
Continuous
 62
     3
100
AcDbLine
 10
365.671553
 20
336.071698
 30
0.0
 11
365.760195
 21
336.104557
 31
0.0
  0
LINE
  5
2CA
330
292
100
AcDbEntity
  8
CSLAYER1
  6
Continuous
 62
     3
100
AcDbLine
 10
365.760195
 20
336.104557
 30
0.0
 11
365.849004
 21
336.139537
 31
0.0
  0
LINE
  5
2CB
330
292
100
AcDbEntity
  8
CSLAYER1
  6
Continuous
 62
     3
100
AcDbLine
 10
365.849004
 20
336.139537
 30
0.0
 11
365.93796
 21
336.176373
 31
0.0
  0
LINE
  5
2CC
330
292
100
AcDbEntity
  8
CSLAYER1
  6
Continuous
 62
     3
100
AcDbLine
 10
365.93796
 20
336.176373
 30
0.0
 11
366.027042
 21
336.214799
 31
0.0
  0
LINE
  5
2CD
330
292
100
AcDbEntity
  8
CSLAYER1
  6
Continuous
 62
     3
100
AcDbLine
 10
366.027042
 20
336.214799
 30
0.0
 11
366.116228
 21
336.254552
 31
0.0
  0
LINE
  5
2CE
330
292
100
AcDbEntity
  8
CSLAYER1
  6
Continuous
 62
     3
100
AcDbLine
 10
366.116228
 20
336.254552
 30
0.0
 11
366.205498
 21
336.295364
 31
0.0
  0
LINE
  5
2CF
330
292
100
AcDbEntity
  8
CSLAYER1
  6
Continuous
 62
     3
100
AcDbLine
 10
366.205498
 20
336.295364
 30
0.0
 11
366.29483
 21
336.336972
 31
0.0
  0
LINE
  5
2D0
330
292
100
AcDbEntity
  8
CSLAYER1
  6
Continuous
 62
     3
100
AcDbLine
 10
366.29483
 20
336.336972
 30
0.0
 11
366.384205
 21
336.379111
 31
0.0
  0
LINE
  5
2D1
330
292
100
AcDbEntity
  8
CSLAYER1
  6
Continuous
 62
     3
100
AcDbLine
 10
366.384205
 20
336.379111
 30
0.0
 11
366.4736
 21
336.421514
 31
0.0
  0
ENDBLK
  5
2D2
330
292
100
AcDbEntity
  8
0
100
AcDbBlockEnd
  0
BLOCK
  5
2D3
330
2D4
100
AcDbEntity
  8
CSLAYER1
100
AcDbBlockBegin
  2
BLKF0001
 70
     0
 10
0.0
 20
0.0
 30
0.0
  3
BLKF0001
  1

  0
LINE
  5
2D5
330
2D4
100
AcDbEntity
  8
CSLAYER1
  6
Continuous
 62
     7
100
AcDbLine
 10
364.120047
 20
345.775068
 30
0.0
 11
365.534261
 21
347.189281
 31
0.0
  0
LINE
  5
2D6
330
2D4
100
AcDbEntity
  8
CSLAYER1
  6
Continuous
 62
     7
100
AcDbLine
 10
363.059387
 20
346.835728
 30
0.0
 11
364.4736
 21
348.249941
 31
0.0
  0
LINE
  5
2D7
330
2D4
100
AcDbEntity
  8
CSLAYER1
  6
Continuous
 62
     7
100
AcDbLine
 10
362.4736
 20
348.371262
 30
0.0
 11
364.4736
 21
350.371262
 31
0.0
  0
LINE
  5
2D8
330
2D4
100
AcDbEntity
  8
CSLAYER1
  6
Continuous
 62
     7
100
AcDbLine
 10
362.4736
 20
350.492582
 30
0.0
 11
364.4736
 21
352.492582
 31
0.0
  0
LINE
  5
2D9
330
2D4
100
AcDbEntity
  8
CSLAYER1
  6
Continuous
 62
     7
100
AcDbLine
 10
362.4736
 20
352.613902
 30
0.0
 11
364.4736
 21
354.613902
 31
0.0
  0
LINE
  5
2DA
330
2D4
100
AcDbEntity
  8
CSLAYER1
  6
Continuous
 62
     7
100
AcDbLine
 10
362.4736
 20
354.735223
 30
0.0
 11
363.159892
 21
355.421514
 31
0.0
  0
ENDBLK
  5
2DB
330
2D4
100
AcDbEntity
  8
0
100
AcDbBlockEnd
  0
BLOCK
  5
2DC
330
2DD
100
AcDbEntity
  8
CSLAYER1
100
AcDbBlockBegin
  2
BLKF0002
 70
     0
 10
0.0
 20
0.0
 30
0.0
  3
BLKF0002
  1

  0
LINE
  5
2DE
330
2DD
100
AcDbEntity
  8
CSLAYER1
  6
Continuous
 62
     7
100
AcDbLine
 10
363.600446
 20
336.446375
 30
0.0
 11
364.4736
 21
337.31953
 31
0.0
  0
LINE
  5
2DF
330
2DD
100
AcDbEntity
  8
CSLAYER1
  6
Continuous
 62
     7
100
AcDbLine
 10
362.4736
 20
337.44085
 30
0.0
 11
364.963932
 21
339.931182
 31
0.0
  0
ENDBLK
  5
2E0
330
2DD
100
AcDbEntity
  8
0
100
AcDbBlockEnd
  0
BLOCK
  5
2E1
330
2E2
100
AcDbEntity
  8
CSLAYER1
100
AcDbBlockBegin
  2
BLKF0003
 70
     0
 10
0.0
 20
0.0
 30
0.0
  3
BLKF0003
  1

  0
LINE
  5
2E3
330
2E2
100
AcDbEntity
  8
CSLAYER1
  6
Continuous
 62
     7
100
AcDbLine
 10
425.505988
 20
190.489696
 30
0.0
 11
451.905419
 21
216.889126
 31
0.0
  0
LINE
  5
2E4
330
2E2
100
AcDbEntity
  8
CSLAYER1
  6
Continuous
 62
     7
100
AcDbLine
 10
423.840319
 20
190.945347
 30
0.0
 11
451.449767
 21
218.554795
 31
0.0
  0
LINE
  5
2E5
330
2E2
100
AcDbEntity
  8
CSLAYER1
  6
Continuous
 62
     7
100
AcDbLine
 10
422.278498
 20
191.504847
 30
0.0
 11
450.890268
 21
220.116616
 31
0.0
  0
LINE
  5
2E6
330
2E2
100
AcDbEntity
  8
CSLAYER1
  6
Continuous
 62
     7
100
AcDbLine
 10
420.809911
 20
192.15758
 30
0.0
 11
450.237535
 21
221.585204
 31
0.0
  0
LINE
  5
2E7
330
2E2
100
AcDbEntity
  8
CSLAYER1
  6
Continuous
 62
     7
100
AcDbLine
 10
419.426966
 20
192.895956
 30
0.0
 11
449.499159
 21
222.968148
 31
0.0
  0
LINE
  5
2E8
330
2E2
100
AcDbEntity
  8
CSLAYER1
  6
Continuous
 62
     7
100
AcDbLine
 10
418.124244
 20
193.714554
 30
0.0
 11
448.680561
 21
224.27087
 31
0.0
  0
LINE
  5
2E9
330
2E2
100
AcDbEntity
  8
CSLAYER1
  6
Continuous
 62
     7
100
AcDbLine
 10
416.897972
 20
194.609602
 30
0.0
 11
447.785513
 21
225.497143
 31
0.0
  0
LINE
  5
2EA
330
2E2
100
AcDbEntity
  8
CSLAYER1
  6
Continuous
 62
     7
100
AcDbLine
 10
415.745704
 20
195.578654
 30
0.0
 11
446.81646
 21
226.649411
 31
0.0
  0
LINE
  5
2EB
330
2E2
100
AcDbEntity
  8
CSLAYER1
  6
Continuous
 62
     7
100
AcDbLine
 10
414.666133
 20
196.620404
 30
0.0
 11
445.774711
 21
227.728981
 31
0.0
  0
LINE
  5
2EC
330
2E2
100
AcDbEntity
  8
CSLAYER1
  6
Continuous
 62
     7
100
AcDbLine
 10
413.658993
 20
197.734584
 30
0.0
 11
444.660531
 21
228.736121
 31
0.0
  0
LINE
  5
2ED
330
2E2
100
AcDbEntity
  8
CSLAYER1
  6
Continuous
 62
     7
100
AcDbLine
 10
412.725041
 20
198.921952
 30
0.0
 11
443.473163
 21
229.670074
 31
0.0
  0
LINE
  5
2EE
330
2E2
100
AcDbEntity
  8
CSLAYER1
  6
Continuous
 62
     7
100
AcDbLine
 10
411.866109
 20
200.18434
 30
0.0
 11
442.210774
 21
230.529006
 31
0.0
  0
LINE
  5
2EF
330
2E2
100
AcDbEntity
  8
CSLAYER1
  6
Continuous
 62
     7
100
AcDbLine
 10
411.085246
 20
201.524798
 30
0.0
 11
440.870317
 21
231.309869
 31
0.0
  0
LINE
  5
2F0
330
2E2
100
AcDbEntity
  8
CSLAYER1
  6
Continuous
 62
     7
100
AcDbLine
 10
410.386962
 20
202.947834
 30
0.0
 11
439.447281
 21
232.008153
 31
0.0
  0
LINE
  5
2F1
330
2E2
100
AcDbEntity
  8
CSLAYER1
  6
Continuous
 62
     7
100
AcDbLine
 10
409.777631
 20
204.459823
 30
0.0
 11
437.935291
 21
232.617484
 31
0.0
  0
LINE
  5
2F2
330
2E2
100
AcDbEntity
  8
CSLAYER1
  6
Continuous
 62
     7
100
AcDbLine
 10
409.266152
 20
206.069665
 30
0.0
 11
436.32545
 21
233.128963
 31
0.0
  0
LINE
  5
2F3
330
2E2
100
AcDbEntity
  8
CSLAYER1
  6
Continuous
 62
     7
100
AcDbLine
 10
408.017525
 20
206.942358
 30
0.0
 11
434.605235
 21
233.530068
 31
0.0
  0
LINE
  5
2F4
330
2E2
100
AcDbEntity
  8
CSLAYER1
  6
Continuous
 62
     7
100
AcDbLine
 10
406.34914
 20
207.395294
 30
0.0
 11
432.756585
 21
233.802739
 31
0.0
  0
LINE
  5
2F5
330
2E2
100
AcDbEntity
  8
CSLAYER1
  6
Continuous
 62
     7
100
AcDbLine
 10
405.081068
 20
208.248542
 30
0.0
 11
430.752275
 21
233.919749
 31
0.0
  0
LINE
  5
2F6
330
2E2
100
AcDbEntity
  8
CSLAYER1
  6
Continuous
 62
     7
100
AcDbLine
 10
404.139542
 20
209.428336
 30
0.0
 11
428.548314
 21
233.837109
 31
0.0
  0
LINE
  5
2F7
330
2E2
100
AcDbEntity
  8
CSLAYER1
  6
Continuous
 62
     7
100
AcDbLine
 10
403.564149
 20
210.974263
 30
0.0
 11
426.065191
 21
233.475306
 31
0.0
  0
LINE
  5
2F8
330
2E2
100
AcDbEntity
  8
CSLAYER1
  6
Continuous
 62
     7
100
AcDbLine
 10
403.629704
 20
213.161139
 30
0.0
 11
407.233975
 21
216.76541
 31
0.0
  0
LINE
  5
2F9
330
2E2
100
AcDbEntity
  8
CSLAYER1
  6
Continuous
 62
     7
100
AcDbLine
 10
409.736397
 20
219.267832
 30
0.0
 11
423.127283
 21
232.658718
 31
0.0
  0
LINE
  5
2FA
330
2E2
100
AcDbEntity
  8
CSLAYER1
  6
Continuous
 62
     7
100
AcDbLine
 10
411.640645
 20
223.2934
 30
0.0
 11
419.101714
 21
230.75447
 31
0.0
  0
LINE
  5
2FB
330
2E2
100
AcDbEntity
  8
CSLAYER1
  6
Continuous
 62
     7
100
AcDbLine
 10
427.290605
 20
190.152993
 30
0.0
 11
453.862384
 21
216.724772
 31
0.0
  0
LINE
  5
2FC
330
2E2
100
AcDbEntity
  8
CSLAYER1
  6
Continuous
 62
     7
100
AcDbLine
 10
429.216398
 20
189.957465
 30
0.0
 11
455.302932
 21
216.043999
 31
0.0
  0
LINE
  5
2FD
330
2E2
100
AcDbEntity
  8
CSLAYER1
  6
Continuous
 62
     7
100
AcDbLine
 10
431.317977
 20
189.937724
 30
0.0
 11
456.398885
 21
215.018632
 31
0.0
  0
LINE
  5
2FE
330
2E2
100
AcDbEntity
  8
CSLAYER1
  6
Continuous
 62
     7
100
AcDbLine
 10
433.654219
 20
190.152645
 30
0.0
 11
457.161618
 21
213.660045
 31
0.0
  0
LINE
  5
2FF
330
2E2
100
AcDbEntity
  8
CSLAYER1
  6
Continuous
 62
     7
100
AcDbLine
 10
436.341355
 20
190.718461
 30
0.0
 11
451.676653
 21
206.053759
 31
0.0
  0
LINE
  5
300
330
2E2
100
AcDbEntity
  8
CSLAYER1
  6
Continuous
 62
     7
100
AcDbLine
 10
452.544917
 20
206.922023
 30
0.0
 11
457.473092
 21
211.850198
 31
0.0
  0
LINE
  5
301
330
2E2
100
AcDbEntity
  8
CSLAYER1
  6
Continuous
 62
     7
100
AcDbLine
 10
439.688688
 20
191.944473
 30
0.0
 11
450.450641
 21
202.706427
 31
0.0
  0
ENDBLK
  5
302
330
2E2
100
AcDbEntity
  8
0
100
AcDbBlockEnd
  0
BLOCK
  5
303
330
304
100
AcDbEntity
  8
CSLAYER1
100
AcDbBlockBegin
  2
BLKF0004
 70
     0
 10
0.0
 20
0.0
 30
0.0
  3
BLKF0004
  1

  0
LINE
  5
305
330
304
100
AcDbEntity
  8
CSLAYER1
  6
Continuous
 62
     7
100
AcDbLine
 10
429.352703
 20
279.958508
 30
0.0
 11
447.436607
 21
298.042412
 31
0.0
  0
LINE
  5
306
330
304
100
AcDbEntity
  8
CSLAYER1
  6
Continuous
 62
     7
100
AcDbLine
 10
427.463078
 20
280.190204
 30
0.0
 11
447.204911
 21
299.932036
 31
0.0
  0
LINE
  5
307
330
304
100
AcDbEntity
  8
CSLAYER1
  6
Continuous
 62
     7
100
AcDbLine
 10
425.744181
 20
280.592626
 30
0.0
 11
446.802489
 21
301.650934
 31
0.0
  0
LINE
  5
308
330
304
100
AcDbEntity
  8
CSLAYER1
  6
Continuous
 62
     7
100
AcDbLine
 10
424.16545
 20
281.135215
 30
0.0
 11
446.259899
 21
303.229665
 31
0.0
  0
LINE
  5
309
330
304
100
AcDbEntity
  8
CSLAYER1
  6
Continuous
 62
     7
100
AcDbLine
 10
422.707834
 20
281.79892
 30
0.0
 11
445.596195
 21
304.687281
 31
0.0
  0
LINE
  5
30A
330
304
100
AcDbEntity
  8
CSLAYER1
  6
Continuous
 62
     7
100
AcDbLine
 10
421.359033
 20
282.571439
 30
0.0
 11
444.823675
 21
306.036082
 31
0.0
  0
LINE
  5
30B
330
304
100
AcDbEntity
  8
CSLAYER1
  6
Continuous
 62
     7
100
AcDbLine
 10
420.111153
 20
283.44488
 30
0.0
 11
443.950235
 21
307.283962
 31
0.0
  0
LINE
  5
30C
330
304
100
AcDbEntity
  8
CSLAYER1
  6
Continuous
 62
     7
100
AcDbLine
 10
418.959474
 20
284.414521
 30
0.0
 11
442.980594
 21
308.435641
 31
0.0
  0
LINE
  5
30D
330
304
100
AcDbEntity
  8
CSLAYER1
  6
Continuous
 62
     7
100
AcDbLine
 10
417.901807
 20
285.478175
 30
0.0
 11
441.91694
 21
309.493307
 31
0.0
  0
LINE
  5
30E
330
304
100
AcDbEntity
  8
CSLAYER1
  6
Continuous
 62
     7
100
AcDbLine
 10
416.938225
 20
286.635913
 30
0.0
 11
440.759202
 21
310.45689
 31
0.0
  0
LINE
  5
30F
330
304
100
AcDbEntity
  8
CSLAYER1
  6
Continuous
 62
     7
100
AcDbLine
 10
416.071064
 20
287.890072
 30
0.0
 11
439.505042
 21
311.324051
 31
0.0
  0
LINE
  5
310
330
304
100
AcDbEntity
  8
CSLAYER1
  6
Continuous
 62
     7
100
AcDbLine
 10
415.305225
 20
289.245553
 30
0.0
 11
438.149561
 21
312.08989
 31
0.0
  0
LINE
  5
311
330
304
100
AcDbEntity
  8
CSLAYER1
  6
Continuous
 62
     7
100
AcDbLine
 10
414.648837
 20
290.710486
 30
0.0
 11
436.684629
 21
312.746277
 31
0.0
  0
LINE
  5
312
330
304
100
AcDbEntity
  8
CSLAYER1
  6
Continuous
 62
     7
100
AcDbLine
 10
414.114547
 20
292.297516
 30
0.0
 11
435.097599
 21
313.280568
 31
0.0
  0
LINE
  5
313
330
304
100
AcDbEntity
  8
CSLAYER1
  6
Continuous
 62
     7
100
AcDbLine
 10
413.72196
 20
294.02625
 30
0.0
 11
433.368865
 21
313.673154
 31
0.0
  0
LINE
  5
314
330
304
100
AcDbEntity
  8
CSLAYER1
  6
Continuous
 62
     7
100
AcDbLine
 10
413.502642
 20
295.928252
 30
0.0
 11
431.466863
 21
313.892473
 31
0.0
  0
LINE
  5
315
330
304
100
AcDbEntity
  8
CSLAYER1
  6
Continuous
 62
     7
100
AcDbLine
 10
413.511671
 20
298.058602
 30
0.0
 11
429.336513
 21
313.883443
 31
0.0
  0
LINE
  5
316
330
304
100
AcDbEntity
  8
CSLAYER1
  6
Continuous
 62
     7
100
AcDbLine
 10
413.860779
 20
300.52903
 30
0.0
 11
426.866085
 21
313.534336
 31
0.0
  0
LINE
  5
317
330
304
100
AcDbEntity
  8
CSLAYER1
  6
Continuous
 62
     7
100
AcDbLine
 10
414.862886
 20
303.652457
 30
0.0
 11
423.742658
 21
312.532229
 31
0.0
  0
LINE
  5
318
330
304
100
AcDbEntity
  8
CSLAYER1
  6
Continuous
 62
     7
100
AcDbLine
 10
431.466022
 20
279.950507
 30
0.0
 11
447.444608
 21
295.929092
 31
0.0
  0
LINE
  5
319
330
304
100
AcDbEntity
  8
CSLAYER1
  6
Continuous
 62
     7
100
AcDbLine
 10
433.909107
 20
280.272271
 30
0.0
 11
447.122843
 21
293.486007
 31
0.0
  0
LINE
  5
31A
330
304
100
AcDbEntity
  8
CSLAYER1
  6
Continuous
 62
     7
100
AcDbLine
 10
436.969835
 20
281.211679
 30
0.0
 11
446.183436
 21
290.42528
 31
0.0
  0
ENDBLK
  5
31B
330
304
100
AcDbEntity
  8
0
100
AcDbBlockEnd
  0
BLOCK
  5
6F0
330
6C1
100
AcDbEntity
  8
0
100
AcDbBlockBegin
  2
A7800C8
 70
     0
 10
0.0
 20
0.0
 30
0.0
  3
A7800C8
  1

  0
LINE
  5
6E7
330
6C1
100
AcDbEntity
  8
CSLAYER10
  6
Continuous
 62
     7
100
AcDbLine
 10
0.0
 20
11.70291660957
 30
0.0
 11
0.0
 21
0.0
 31
0.0
  0
LINE
  5
6E8
330
6C1
100
AcDbEntity
  8
CSLAYER10
  6
Continuous
 62
     7
100
AcDbLine
 10
0.0
 20
7.730082
 30
0.0
 11
17.0
 21
7.730082
 31
0.0
  0
LINE
  5
6E9
330
6C1
100
AcDbEntity
  8
CSLAYER10
  6
Continuous
 62
     7
100
AcDbLine
 10
0.0
 20
7.730082
 30
0.0
 11
1.982889
 21
7.991134
 31
0.0
  0
LINE
  5
6EA
330
6C1
100
AcDbEntity
  8
CSLAYER10
  6
Continuous
 62
     7
100
AcDbLine
 10
0.0
 20
7.730082
 30
0.0
 11
1.982889
 21
7.46903
 31
0.0
  0
LINE
  5
6EB
330
6C1
100
AcDbEntity
  8
CSLAYER10
  6
Continuous
 62
     7
100
AcDbLine
 10
17.0
 20
7.730082
 30
0.0
 11
15.01711
 21
7.991134
 31
0.0
  0
LINE
  5
6EC
330
6C1
100
AcDbEntity
  8
CSLAYER10
  6
Continuous
 62
     7
100
AcDbLine
 10
17.0
 20
7.730082
 30
0.0
 11
15.01711
 21
7.46903
 31
0.0
  0
LINE
  5
6ED
330
6C1
100
AcDbEntity
  8
CSLAYER10
  6
Continuous
 62
     7
100
AcDbLine
 10
17.0
 20
11.70291660957
 30
0.0
 11
17.0
 21
0.0
 31
0.0
  0
ENDBLK
  5
6F1
330
6C1
100
AcDbEntity
  8
0
100
AcDbBlockEnd
  0
BLOCK
  5
71B
330
6F3
100
AcDbEntity
  8
0
100
AcDbBlockBegin
  2
A780158
 70
     0
 10
0.0
 20
0.0
 30
0.0
  3
A780158
  1

  0
TEXT
  5
71A
330
6F3
100
AcDbEntity
  8
CSLAYER10
 62
     7
100
AcDbText
 10
-0.909090909091
 20
0.0
 30
0.0
 40
4.0
  1
17
 41
0.681818181818
  7
FX_FONT
 72
     5
 11
4.090909090909
 21
0.0
 31
0.0
100
AcDbText
  0
ENDBLK
  5
71C
330
6F3
100
AcDbEntity
  8
0
100
AcDbBlockEnd
  0
BLOCK
  5
75E
330
72F
100
AcDbEntity
  8
0
100
AcDbBlockBegin
  2
A780108
 70
     0
 10
0.0
 20
0.0
 30
0.0
  3
A780108
  1

  0
LINE
  5
756
330
72F
100
AcDbEntity
  8
CSLAYER10
  6
Continuous
 62
     7
100
AcDbLine
 10
18.267291887466
 20
5.711550498375
 30
0.0
 11
3.101984887466
 21
5.711550498375
 31
0.0
  0
TEXT
  5
757
330
72F
100
AcDbEntity
  8
CSLAYER10
 62
     7
100
AcDbText
 10
4.0
 20
9.220255902035
 30
0.0
 40
4.0
  1
2
 50
90.0
 41
0.75
  7
FX_FONT
 72
     5
 11
4.0
 21
11.720255902035
 31
0.0
100
AcDbText
  0
LINE
  5
758
330
72F
100
AcDbEntity
  8
CSLAYER10
  6
Continuous
 62
     7
100
AcDbLine
 10
18.267291887466
 20
7.711550498375
 30
0.0
 11
3.267291887466
 21
7.711550498375
 31
0.0
  0
LINE
  5
759
330
72F
100
AcDbEntity
  8
CSLAYER10
  6
Continuous
 62
     7
100
AcDbLine
 10
5.191432251156
 20
0.0
 30
0.0
 11
5.191432251156
 21
13.423100996751
 31
0.0
  0
LINE
  5
75A
330
72F
100
AcDbEntity
  8
CSLAYER10
  6
Continuous
 62
     7
100
AcDbLine
 10
5.191432251156
 20
7.711550498375
 30
0.0
 11
4.930380251156
 21
9.694440498375
 31
0.0
  0
LINE
  5
75B
330
72F
100
AcDbEntity
  8
CSLAYER10
  6
Continuous
 62
     7
100
AcDbLine
 10
5.191432251156
 20
7.711550498375
 30
0.0
 11
5.452485251156
 21
9.694440498375
 31
0.0
  0
LINE
  5
75C
330
72F
100
AcDbEntity
  8
CSLAYER10
  6
Continuous
 62
     7
100
AcDbLine
 10
5.191432251156
 20
5.711550498375
 30
0.0
 11
4.930380251156
 21
3.728661498375
 31
0.0
  0
LINE
  5
75D
330
72F
100
AcDbEntity
  8
CSLAYER10
  6
Continuous
 62
     7
100
AcDbLine
 10
5.191432251156
 20
5.711550498375
 30
0.0
 11
5.452485251156
 21
3.728661498375
 31
0.0
  0
ENDBLK
  5
75F
330
72F
100
AcDbEntity
  8
0
100
AcDbBlockEnd
  0
BLOCK
  5
792
330
769
100
AcDbEntity
  8
0
100
AcDbBlockBegin
  2
A780168
 70
     0
 10
0.0
 20
0.0
 30
0.0
  3
A780168
  1

  0
TEXT
  5
790
330
769
100
AcDbEntity
  8
CSLAYER10
 62
     7
100
AcDbText
 10
-0.326086956522
 20
0.0
 30
0.0
 40
4.0
  1
X・NXキーシリンダー
 41
0.489130434783
  7
FX_FONT
 72
     5
 11
23.673913043478
 21
0.0
 31
0.0
100
AcDbText
  0
TEXT
  5
791
330
769
100
AcDbEntity
  8
CSLAYER10
 62
     7
100
AcDbText
 10
38.173913043478
 20
0.0
 30
0.0
 40
4.0
  1
ピンシリンダー及びサムターン
 41
0.40991902834
  7
FX_FONT
 72
     5
 11
65.173913043478
 21
0.0
 31
0.0
100
AcDbText
  0
ENDBLK
  5
793
330
769
100
AcDbEntity
  8
0
100
AcDbBlockEnd
  0
BLOCK
  5
7BF
330
795
100
AcDbEntity
  8
0
100
AcDbBlockBegin
  2
A7801A8
 70
     0
 10
0.0
 20
0.0
 30
0.0
  3
A7801A8
  1

  0
TEXT
  5
7BD
330
795
100
AcDbEntity
  8
CSLAYER1
100
AcDbText
 10
0.0
 20
0.0
 30
0.0
 40
4.0
  1
高さ（H)
 41
0.6
  7
FX_FONT
100
AcDbText
  0
TEXT
  5
7BE
330
795
100
AcDbEntity
  8
CSLAYER1
100
AcDbText
 10
14.758595566247
 20
0.130772365777
 30
0.0
 40
4.0
  1
直径（D)
 41
0.6
  7
FX_FONT
100
AcDbText
  0
ENDBLK
  5
7C0
330
795
100
AcDbEntity
  8
0
100
AcDbBlockEnd
  0
BLOCK
  5
827
330
7C3
100
AcDbEntity
  8
0
100
AcDbBlockBegin
  2
A780128
 70
     0
 10
0.0
 20
0.0
 30
0.0
  3
A780128
  1

  0
LINE
  5
7EB
330
7C3
100
AcDbEntity
  8
CSLAYER1
  6
Continuous
 62
     3
100
AcDbLine
 10
0.0
 20
57.0
 30
0.0
 11
100.0
 21
57.0
 31
0.0
  0
LINE
  5
7EC
330
7C3
100
AcDbEntity
  8
CSLAYER1
  6
Continuous
 62
     3
100
AcDbLine
 10
100.0
 20
57.0
 30
0.0
 11
100.0
 21
0.0
 31
0.0
  0
LINE
  5
7ED
330
7C3
100
AcDbEntity
  8
CSLAYER1
  6
Continuous
 62
     3
100
AcDbLine
 10
100.0
 20
0.0
 30
0.0
 11
0.0
 21
0.0
 31
0.0
  0
LINE
  5
7EE
330
7C3
100
AcDbEntity
  8
CSLAYER1
  6
Continuous
 62
     3
100
AcDbLine
 10
0.0
 20
0.0
 30
0.0
 11
0.0
 21
57.0
 31
0.0
  0
TEXT
  5
7EF
330
7C3
100
AcDbEntity
  8
CSLAYER1
 62
     7
100
AcDbText
 10
3.999999
 20
41.999985
 30
0.0
 40
5.0
  1
扉　厚
 41
0.72
  7
FX_FONT
 72
     5
 11
15.999999
 21
41.999985
 31
0.0
100
AcDbText
  0
TEXT
  5
7F0
330
7C3
100
AcDbEntity
  8
CSLAYER1
 62
     7
100
AcDbText
 10
2.499999
 20
18.000001
 30
0.0
 40
4.0
  1
38~42
 41
0.775862068966
  7
FX_FONT
 72
     5
 11
17.499999
 21
18.000001
 31
0.0
100
AcDbText
  0
TEXT
  5
7F1
330
7C3
100
AcDbEntity
  8
CSLAYER1
 62
     7
100
AcDbText
 10
2.499999
 20
10.000001
 30
0.0
 40
4.0
  1
43~47
 41
0.775862068966
  7
FX_FONT
 72
     5
 11
17.499999
 21
10.000001
 31
0.0
100
AcDbText
  0
TEXT
  5
7F2
330
7C3
100
AcDbEntity
  8
CSLAYER1
 62
     7
100
AcDbText
 10
2.499999
 20
2.000003
 30
0.0
 40
4.0
  1
48~50
 41
0.784655623365
  7
FX_FONT
 72
     5
 11
17.499999
 21
2.000003
 31
0.0
100
AcDbText
  0
TEXT
  5
7F3
330
7C3
100
AcDbEntity
  8
CSLAYER1
 62
     7
100
AcDbText
 10
53.500007
 20
34.999993
 30
0.0
 40
4.0
  1
A
 41
0.9
  7
FX_FONT
 72
     5
 11
56.500007
 21
34.999993
 31
0.0
100
AcDbText
  0
TEXT
  5
7F4
330
7C3
100
AcDbEntity
  8
CSLAYER1
 62
     7
100
AcDbText
 10
2.499999
 20
26.000001
 30
0.0
 40
4.0
  1
35~37
 41
0.77474892396
  7
FX_FONT
 72
     5
 11
17.499999
 21
26.000001
 31
0.0
100
AcDbText
  0
TEXT
  5
7F5
330
7C3
100
AcDbEntity
  8
CSLAYER1
 62
     7
100
AcDbText
 10
21.500007
 20
26.000001
 30
0.0
 40
4.0
  1
22.5
 41
0.782608695652
  7
FX_FONT
 72
     5
 11
33.500007
 21
26.000001
 31
0.0
100
AcDbText
  0
TEXT
  5
7F6
330
7C3
100
AcDbEntity
  8
CSLAYER1
 62
     7
100
AcDbText
 10
36.500007
 20
26.000001
 30
0.0
 40
4.0
  1
%%C50.5
 41
0.619621342513
  7
FX_FONT
 72
     5
 11
48.500007
 21
26.000001
 31
0.0
100
AcDbText
  0
TEXT
  5
7F7
330
7C3
100
AcDbEntity
  8
CSLAYER1
 62
     7
100
AcDbText
 10
21.500007
 20
18.000001
 30
0.0
 40
4.0
  1
21.0
 41
0.79528718704
  7
FX_FONT
 72
     5
 11
33.500007
 21
18.000001
 31
0.0
100
AcDbText
  0
TEXT
  5
7F8
330
7C3
100
AcDbEntity
  8
CSLAYER1
 62
     7
100
AcDbText
 10
36.500007
 20
18.000001
 30
0.0
 40
4.0
  1
48.5
 41
0.782608695652
  7
FX_FONT
 72
     5
 11
48.500007
 21
18.000001
 31
0.0
100
AcDbText
  0
TEXT
  5
7F9
330
7C3
100
AcDbEntity
  8
CSLAYER1
 62
     7
100
AcDbText
 10
21.500007
 20
10.000001
 30
0.0
 40
4.0
  1
18.5
 41
0.782608695652
  7
FX_FONT
 72
     5
 11
33.500007
 21
10.000001
 31
0.0
100
AcDbText
  0
TEXT
  5
7FA
330
7C3
100
AcDbEntity
  8
CSLAYER1
 62
     7
100
AcDbText
 10
36.500007
 20
10.000001
 30
0.0
 40
4.0
  1
47.5
 41
0.782608695652
  7
FX_FONT
 72
     5
 11
48.500007
 21
10.000001
 31
0.0
100
AcDbText
  0
TEXT
  5
7FB
330
7C3
100
AcDbEntity
  8
CSLAYER1
 62
     7
100
AcDbText
 10
21.500007
 20
2.000003
 30
0.0
 40
4.0
  1
16.0
 41
0.793825799338
  7
FX_FONT
 72
     5
 11
33.500007
 21
2.000003
 31
0.0
100
AcDbText
  0
TEXT
  5
7FC
330
7C3
100
AcDbEntity
  8
CSLAYER1
 62
     7
100
AcDbText
 10
36.500007
 20
2.000003
 30
0.0
 40
4.0
  1
46.5
 41
0.781193490054
  7
FX_FONT
 72
     5
 11
48.500007
 21
2.000003
 31
0.0
100
AcDbText
  0
TEXT
  5
7FD
330
7C3
100
AcDbEntity
  8
CSLAYER1
 62
     7
100
AcDbText
 10
61.500007
 20
26.000001
 30
0.0
 40
4.0
  1
21.0
 41
0.79528718704
  7
FX_FONT
 72
     5
 11
73.500007
 21
26.000001
 31
0.0
100
AcDbText
  0
TEXT
  5
7FE
330
7C3
100
AcDbEntity
  8
CSLAYER1
 62
     7
100
AcDbText
 10
76.500007
 20
26.000001
 30
0.0
 40
4.0
  1
%%C48.5
 41
0.620689655172
  7
FX_FONT
 72
     5
 11
88.500007
 21
26.000001
 31
0.0
100
AcDbText
  0
TEXT
  5
7FF
330
7C3
100
AcDbEntity
  8
CSLAYER1
 62
     7
100
AcDbText
 10
61.500007
 20
18.000001
 30
0.0
 40
4.0
  1
18.5
 41
0.782608695652
  7
FX_FONT
 72
     5
 11
73.500007
 21
18.000001
 31
0.0
100
AcDbText
  0
TEXT
  5
800
330
7C3
100
AcDbEntity
  8
CSLAYER1
 62
     7
100
AcDbText
 10
76.500007
 20
18.000001
 30
0.0
 40
4.0
  1
%%C47.5
 41
0.620689655172
  7
FX_FONT
 72
     5
 11
88.500007
 21
18.000001
 31
0.0
100
AcDbText
  0
TEXT
  5
801
330
7C3
100
AcDbEntity
  8
CSLAYER1
 62
     7
100
AcDbText
 10
61.500007
 20
10.000001
 30
0.0
 40
4.0
  1
16.0
 41
0.793825799338
  7
FX_FONT
 72
     5
 11
73.500007
 21
10.000001
 31
0.0
100
AcDbText
  0
TEXT
  5
802
330
7C3
100
AcDbEntity
  8
CSLAYER1
 62
     7
100
AcDbText
 10
76.500007
 20
10.000001
 30
0.0
 40
4.0
  1
%%C46.5
 41
0.619799139168
  7
FX_FONT
 72
     5
 11
88.500007
 21
10.000001
 31
0.0
100
AcDbText
  0
TEXT
  5
803
330
7C3
100
AcDbEntity
  8
CSLAYER1
 62
     7
100
AcDbText
 10
61.500007
 20
2.000003
 30
0.0
 40
4.0
  1
13.5
 41
0.782608695652
  7
FX_FONT
 72
     5
 11
73.500007
 21
2.000003
 31
0.0
100
AcDbText
  0
TEXT
  5
804
330
7C3
100
AcDbEntity
  8
CSLAYER1
 62
     7
100
AcDbText
 10
76.500007
 20
2.000003
 30
0.0
 40
4.0
  1
%%C45.5
 41
0.619799139168
  7
FX_FONT
 72
     5
 11
88.500007
 21
2.000003
 31
0.0
100
AcDbText
  0
TEXT
  5
805
330
7C3
100
AcDbEntity
  8
CSLAYER1
 62
     7
100
AcDbText
 10
93.500007
 20
34.999993
 30
0.0
 40
4.0
  1
A
 41
0.9
  7
FX_FONT
 72
     5
 11
96.500007
 21
34.999993
 31
0.0
100
AcDbText
  0
TEXT
  5
806
330
7C3
100
AcDbEntity
  8
CSLAYER1
 62
     7
100
AcDbText
 10
52.000007
 20
14.000001
 30
0.0
 40
4.0
  1
41
 41
0.9
  7
FX_FONT
 72
     5
 11
58.000007
 21
14.000001
 31
0.0
100
AcDbText
  0
TEXT
  5
807
330
7C3
100
AcDbEntity
  8
CSLAYER1
 62
     7
100
AcDbText
 10
92.000007
 20
14.000001
 30
0.0
 40
4.0
  1
38
 41
0.818181818182
  7
FX_FONT
 72
     5
 11
98.000007
 21
14.000001
 31
0.0
100
AcDbText
  0
LINE
  5
808
330
7C3
100
AcDbEntity
  8
CSLAYER1
  6
Continuous
 62
     7
100
AcDbLine
 10
0.0
 20
32.0
 30
0.0
 11
100.0
 21
32.0
 31
0.0
  0
LINE
  5
809
330
7C3
100
AcDbEntity
  8
CSLAYER1
  6
Continuous
 62
     7
100
AcDbLine
 10
100.0
 20
42.0
 30
0.0
 11
20.0
 21
42.0
 31
0.0
  0
LINE
  5
80A
330
7C3
100
AcDbEntity
  8
CSLAYER1
  6
Continuous
 62
     7
100
AcDbLine
 10
35.0
 20
42.0
 30
0.0
 11
35.0
 21
0.0
 31
0.0
  0
LINE
  5
80B
330
7C3
100
AcDbEntity
  8
CSLAYER1
  6
Continuous
 62
     7
100
AcDbLine
 10
20.0
 20
0.0
 30
0.0
 11
20.0
 21
57.0
 31
0.0
  0
LINE
  5
80C
330
7C3
100
AcDbEntity
  8
CSLAYER1
  6
Continuous
 62
     7
100
AcDbLine
 10
90.0
 20
16.0
 30
0.0
 11
60.0
 21
16.0
 31
0.0
  0
LINE
  5
80D
330
7C3
100
AcDbEntity
  8
CSLAYER1
  6
Continuous
 62
     7
100
AcDbLine
 10
60.0
 20
24.0
 30
0.0
 11
90.0
 21
24.0
 31
0.0
  0
LINE
  5
80E
330
7C3
100
AcDbEntity
  8
CSLAYER1
  6
Continuous
 62
     7
100
AcDbLine
 10
90.0
 20
8.0
 30
0.0
 11
60.0
 21
8.0
 31
0.0
  0
LINE
  5
80F
330
7C3
100
AcDbEntity
  8
CSLAYER1
  6
Continuous
 62
     7
100
AcDbLine
 10
60.0
 20
0.0
 30
0.0
 11
60.0
 21
57.0
 31
0.0
  0
LINE
  5
810
330
7C3
100
AcDbEntity
  8
CSLAYER1
  6
Continuous
 62
     7
100
AcDbLine
 10
50.0
 20
42.0
 30
0.0
 11
50.0
 21
0.0
 31
0.0
  0
LINE
  5
811
330
7C3
100
AcDbEntity
  8
CSLAYER1
  6
Continuous
 62
     7
100
AcDbLine
 10
50.0
 20
8.0
 30
0.0
 11
0.0
 21
8.0
 31
0.0
  0
LINE
  5
812
330
7C3
100
AcDbEntity
  8
CSLAYER1
  6
Continuous
 62
     7
100
AcDbLine
 10
0.0
 20
16.0
 30
0.0
 11
50.0
 21
16.0
 31
0.0
  0
LINE
  5
813
330
7C3
100
AcDbEntity
  8
CSLAYER1
  6
Continuous
 62
     7
100
AcDbLine
 10
50.0
 20
24.0
 30
0.0
 11
0.0
 21
24.0
 31
0.0
  0
LINE
  5
814
330
7C3
100
AcDbEntity
  8
CSLAYER1
  6
Continuous
 62
     7
100
AcDbLine
 10
75.0
 20
42.0
 30
0.0
 11
75.0
 21
0.0
 31
0.0
  0
LINE
  5
815
330
7C3
100
AcDbEntity
  8
CSLAYER1
  6
Continuous
 62
     7
100
AcDbLine
 10
90.0
 20
0.0
 30
0.0
 11
90.0
 21
42.0
 31
0.0
  0
INSERT
  5
816
330
7C3
100
AcDbEntity
  8
CSLAYER1
100
AcDbBlockReference
  2
A780168
 10
27.225338591422
 20
46.956035966634
 30
0.0
  0
INSERT
  5
81E
330
7C3
100
AcDbEntity
  8
CSLAYER1
100
AcDbBlockReference
  2
A7801A8
 10
21.547772714491
 20
34.318081220039
 30
0.0
  0
INSERT
  5
826
330
7C3
100
AcDbEntity
  8
CSLAYER1
100
AcDbBlockReference
  2
A7801A8
 10
61.467931056156
 20
34.256917426032
 30
0.0
  0
ENDBLK
  5
828
330
7C3
100
AcDbEntity
  8
0
100
AcDbBlockEnd
  0
BLOCK
  5
88E
330
82A
100
AcDbEntity
  8
0
100
AcDbBlockBegin
  2
A780118
 70
     0
 10
0.0
 20
0.0
 30
0.0
  3
A780118
  1

  0
LINE
  5
852
330
82A
100
AcDbEntity
  8
CSLAYER1
  6
Continuous
 62
     3
100
AcDbLine
 10
0.0
 20
57.0
 30
0.0
 11
79.375658
 21
57.0
 31
0.0
  0
LINE
  5
853
330
82A
100
AcDbEntity
  8
CSLAYER1
  6
Continuous
 62
     3
100
AcDbLine
 10
100.0
 20
57.0
 30
0.0
 11
100.0
 21
0.0
 31
0.0
  0
LINE
  5
854
330
82A
100
AcDbEntity
  8
CSLAYER1
  6
Continuous
 62
     3
100
AcDbLine
 10
0.0
 20
0.0
 30
0.0
 11
79.375658
 21
0.0
 31
0.0
  0
LINE
  5
855
330
82A
100
AcDbEntity
  8
CSLAYER1
  6
Continuous
 62
     3
100
AcDbLine
 10
0.0
 20
0.0
 30
0.0
 11
0.0
 21
57.0
 31
0.0
  0
TEXT
  5
856
330
82A
100
AcDbEntity
  8
CSLAYER10
 62
     7
100
AcDbText
 10
4.137488162858
 20
42.137474162858
 30
0.0
 40
5.0
  1
扉　厚
 41
0.72
  7
FX_FONT
 72
     5
 11
16.137488162858
 21
42.137474162858
 31
0.0
100
AcDbText
  0
TEXT
  5
857
330
82A
100
AcDbEntity
  8
CSLAYER10
 62
     7
100
AcDbText
 10
2.637488162858
 20
18.137490162858
 30
0.0
 40
4.0
  1
37~42未満
 41
0.525700934579
  7
FX_FONT
 72
     5
 11
17.637488162858
 21
18.137490162858
 31
0.0
100
AcDbText
  0
TEXT
  5
858
330
82A
100
AcDbEntity
  8
CSLAYER10
 62
     7
100
AcDbText
 10
2.637488162858
 20
10.137490162858
 30
0.0
 40
4.0
  1
42~47未満
 41
0.525700934579
  7
FX_FONT
 72
     5
 11
17.637488162858
 21
10.137490162858
 31
0.0
100
AcDbText
  0
TEXT
  5
859
330
82A
100
AcDbEntity
  8
CSLAYER10
 62
     7
100
AcDbText
 10
2.637488162858
 20
2.137492162858
 30
0.0
 40
4.0
  1
47~50未満
 41
0.525087514586
  7
FX_FONT
 72
     5
 11
17.637488162858
 21
2.137492162858
 31
0.0
100
AcDbText
  0
TEXT
  5
85A
330
82A
100
AcDbEntity
  8
CSLAYER10
 62
     7
100
AcDbText
 10
28.000007
 20
47.499985
 30
0.0
 40
4.0
  1
X・NXキーシリンダー
 41
0.489130434783
  7
FX_FONT
 72
     5
 11
52.000007
 21
47.499985
 31
0.0
100
AcDbText
  0
TEXT
  5
85B
330
82A
100
AcDbEntity
  8
CSLAYER10
 62
     7
100
AcDbText
 10
66.500007
 20
47.499985
 30
0.0
 40
4.0
  1
ピンシリンダー及びサムターン
 41
0.40991902834
  7
FX_FONT
 72
     5
 11
93.500007
 21
47.499985
 31
0.0
100
AcDbText
  0
TEXT
  5
85C
330
82A
100
AcDbEntity
  8
CSLAYER10
 62
     7
100
AcDbText
 10
53.500007
 20
34.999993
 30
0.0
 40
4.0
  1
A
 41
0.9
  7
FX_FONT
 72
     5
 11
56.500007
 21
34.999993
 31
0.0
100
AcDbText
  0
TEXT
  5
85D
330
82A
100
AcDbEntity
  8
CSLAYER10
 62
     7
100
AcDbText
 10
2.637488162858
 20
26.137490162858
 30
0.0
 40
4.0
  1
35~37未満
 41
0.525189651819
  7
FX_FONT
 72
     5
 11
17.637488162858
 21
26.137490162858
 31
0.0
100
AcDbText
  0
TEXT
  5
85E
330
82A
100
AcDbEntity
  8
CSLAYER10
 62
     7
100
AcDbText
 10
21.500007
 20
26.000001
 30
0.0
 40
4.0
  1
26.5
 41
0.781193490054
  7
FX_FONT
 72
     5
 11
33.500007
 21
26.000001
 31
0.0
100
AcDbText
  0
TEXT
  5
85F
330
82A
100
AcDbEntity
  8
CSLAYER10
 62
     7
100
AcDbText
 10
36.500007
 20
26.000001
 30
0.0
 40
4.0
  1
%%c50.5
 41
0.619621342513
  7
FX_FONT
 72
     5
 11
48.500007
 21
26.000001
 31
0.0
100
AcDbText
  0
TEXT
  5
860
330
82A
100
AcDbEntity
  8
CSLAYER10
 62
     7
100
AcDbText
 10
21.500007
 20
18.000001
 30
0.0
 40
4.0
  1
23.5
 41
0.782608695652
  7
FX_FONT
 72
     5
 11
33.500007
 21
18.000001
 31
0.0
100
AcDbText
  0
TEXT
  5
861
330
82A
100
AcDbEntity
  8
CSLAYER10
 62
     7
100
AcDbText
 10
36.500007
 20
18.000001
 30
0.0
 40
4.0
  1
%%C49.5
 41
0.620630207834
  7
FX_FONT
 72
     5
 11
48.500007
 21
18.000001
 31
0.0
100
AcDbText
  0
TEXT
  5
862
330
82A
100
AcDbEntity
  8
CSLAYER10
 62
     7
100
AcDbText
 10
21.500007
 20
10.000001
 30
0.0
 40
4.0
  1
21.0
 41
0.79528718704
  7
FX_FONT
 72
     5
 11
33.500007
 21
10.000001
 31
0.0
100
AcDbText
  0
TEXT
  5
863
330
82A
100
AcDbEntity
  8
CSLAYER10
 62
     7
100
AcDbText
 10
36.500007
 20
10.000001
 30
0.0
 40
4.0
  1
%%C48.5
 41
0.620689655172
  7
FX_FONT
 72
     5
 11
48.500007
 21
10.000001
 31
0.0
100
AcDbText
  0
TEXT
  5
864
330
82A
100
AcDbEntity
  8
CSLAYER10
 62
     7
100
AcDbText
 10
21.500007
 20
2.000003
 30
0.0
 40
4.0
  1
18.5
 41
0.782608695652
  7
FX_FONT
 72
     5
 11
33.500007
 21
2.000003
 31
0.0
100
AcDbText
  0
TEXT
  5
865
330
82A
100
AcDbEntity
  8
CSLAYER10
 62
     7
100
AcDbText
 10
36.500007
 20
2.000003
 30
0.0
 40
4.0
  1
%%C47.5
 41
0.620689655172
  7
FX_FONT
 72
     5
 11
48.500007
 21
2.000003
 31
0.0
100
AcDbText
  0
TEXT
  5
866
330
82A
100
AcDbEntity
  8
CSLAYER10
 62
     7
100
AcDbText
 10
61.500007
 20
26.000001
 30
0.0
 40
4.0
  1
21.0
 41
0.79528718704
  7
FX_FONT
 72
     5
 11
73.500007
 21
26.000001
 31
0.0
100
AcDbText
  0
TEXT
  5
867
330
82A
100
AcDbEntity
  8
CSLAYER10
 62
     7
100
AcDbText
 10
76.500007
 20
26.000001
 30
0.0
 40
4.0
  1
%%C48.5
 41
0.620689655172
  7
FX_FONT
 72
     5
 11
88.500007
 21
26.000001
 31
0.0
100
AcDbText
  0
TEXT
  5
868
330
82A
100
AcDbEntity
  8
CSLAYER10
 62
     7
100
AcDbText
 10
61.500007
 20
18.000001
 30
0.0
 40
4.0
  1
18.5
 41
0.782608695652
  7
FX_FONT
 72
     5
 11
73.500007
 21
18.000001
 31
0.0
100
AcDbText
  0
TEXT
  5
869
330
82A
100
AcDbEntity
  8
CSLAYER10
 62
     7
100
AcDbText
 10
76.500007
 20
18.000001
 30
0.0
 40
4.0
  1
%%C47.5
 41
0.620689655172
  7
FX_FONT
 72
     5
 11
88.500007
 21
18.000001
 31
0.0
100
AcDbText
  0
TEXT
  5
86A
330
82A
100
AcDbEntity
  8
CSLAYER10
 62
     7
100
AcDbText
 10
61.500007
 20
10.000001
 30
0.0
 40
4.0
  1
16.0
 41
0.793825799338
  7
FX_FONT
 72
     5
 11
73.500007
 21
10.000001
 31
0.0
100
AcDbText
  0
TEXT
  5
86B
330
82A
100
AcDbEntity
  8
CSLAYER10
 62
     7
100
AcDbText
 10
76.500007
 20
10.000001
 30
0.0
 40
4.0
  1
%%C46.5
 41
0.619799139168
  7
FX_FONT
 72
     5
 11
88.500007
 21
10.000001
 31
0.0
100
AcDbText
  0
TEXT
  5
86C
330
82A
100
AcDbEntity
  8
CSLAYER10
 62
     7
100
AcDbText
 10
61.500007
 20
2.000003
 30
0.0
 40
4.0
  1
13.5
 41
0.782608695652
  7
FX_FONT
 72
     5
 11
73.500007
 21
2.000003
 31
0.0
100
AcDbText
  0
TEXT
  5
86D
330
82A
100
AcDbEntity
  8
CSLAYER10
 62
     7
100
AcDbText
 10
76.500007
 20
2.000003
 30
0.0
 40
4.0
  1
%%C45.5
 41
0.619799139168
  7
FX_FONT
 72
     5
 11
88.500007
 21
2.000003
 31
0.0
100
AcDbText
  0
TEXT
  5
86E
330
82A
100
AcDbEntity
  8
CSLAYER10
 62
     7
100
AcDbText
 10
93.500007
 20
34.999993
 30
0.0
 40
4.0
  1
A
 41
0.9
  7
FX_FONT
 72
     5
 11
96.500007
 21
34.999993
 31
0.0
100
AcDbText
  0
TEXT
  5
86F
330
82A
100
AcDbEntity
  8
CSLAYER10
 62
     7
100
AcDbText
 10
92.000007
 20
14.000001
 30
0.0
 40
4.0
  1
38
 41
0.818181818182
  7
FX_FONT
 72
     5
 11
98.000007
 21
14.000001
 31
0.0
100
AcDbText
  0
LINE
  5
870
330
82A
100
AcDbEntity
  8
CSLAYER10
  6
Continuous
 62
     7
100
AcDbLine
 10
0.0
 20
32.0
 30
0.0
 11
79.375658
 21
32.0
 31
0.0
  0
LINE
  5
871
330
82A
100
AcDbEntity
  8
CSLAYER10
  6
Continuous
 62
     7
100
AcDbLine
 10
20.0
 20
42.0
 30
0.0
 11
79.375658
 21
42.0
 31
0.0
  0
LINE
  5
872
330
82A
100
AcDbEntity
  8
CSLAYER10
  6
Continuous
 62
     7
100
AcDbLine
 10
35.0
 20
42.0
 30
0.0
 11
35.0
 21
0.0
 31
0.0
  0
LINE
  5
873
330
82A
100
AcDbEntity
  8
CSLAYER10
  6
Continuous
 62
     7
100
AcDbLine
 10
20.0
 20
0.0
 30
0.0
 11
20.0
 21
57.0
 31
0.0
  0
LINE
  5
874
330
82A
100
AcDbEntity
  8
CSLAYER10
  6
Continuous
 62
     7
100
AcDbLine
 10
60.0
 20
16.0
 30
0.0
 11
79.375658
 21
16.0
 31
0.0
  0
LINE
  5
875
330
82A
100
AcDbEntity
  8
CSLAYER10
  6
Continuous
 62
     7
100
AcDbLine
 10
60.0
 20
24.0
 30
0.0
 11
79.375658
 21
24.0
 31
0.0
  0
LINE
  5
876
330
82A
100
AcDbEntity
  8
CSLAYER10
  6
Continuous
 62
     7
100
AcDbLine
 10
60.0
 20
8.0
 30
0.0
 11
79.375658
 21
8.0
 31
0.0
  0
LINE
  5
877
330
82A
100
AcDbEntity
  8
CSLAYER10
  6
Continuous
 62
     7
100
AcDbLine
 10
60.0
 20
0.0
 30
0.0
 11
60.0
 21
57.0
 31
0.0
  0
LINE
  5
878
330
82A
100
AcDbEntity
  8
CSLAYER10
  6
Continuous
 62
     7
100
AcDbLine
 10
50.0
 20
42.0
 30
0.0
 11
50.0
 21
0.0
 31
0.0
  0
LINE
  5
879
330
82A
100
AcDbEntity
  8
CSLAYER10
  6
Continuous
 62
     7
100
AcDbLine
 10
50.0
 20
8.0
 30
0.0
 11
0.0
 21
8.0
 31
0.0
  0
LINE
  5
87A
330
82A
100
AcDbEntity
  8
CSLAYER10
  6
Continuous
 62
     7
100
AcDbLine
 10
0.0
 20
16.0
 30
0.0
 11
50.0
 21
16.0
 31
0.0
  0
LINE
  5
87B
330
82A
100
AcDbEntity
  8
CSLAYER10
  6
Continuous
 62
     7
100
AcDbLine
 10
50.0
 20
24.0
 30
0.0
 11
0.0
 21
24.0
 31
0.0
  0
LINE
  5
87C
330
82A
100
AcDbEntity
  8
CSLAYER10
  6
Continuous
 62
     7
100
AcDbLine
 10
75.0
 20
42.0
 30
0.0
 11
75.0
 21
0.0
 31
0.0
  0
LINE
  5
87D
330
82A
100
AcDbEntity
  8
CSLAYER10
  6
Continuous
 62
     7
100
AcDbLine
 10
90.0
 20
0.0
 30
0.0
 11
90.0
 21
42.0
 31
0.0
  0
LINE
  5
87E
330
82A
100
AcDbEntity
  8
CSLAYER1
  6
Continuous
 62
     3
100
AcDbLine
 10
79.375658
 20
57.0
 30
0.0
 11
100.0
 21
57.0
 31
0.0
  0
LINE
  5
87F
330
82A
100
AcDbEntity
  8
CSLAYER1
  6
Continuous
 62
     3
100
AcDbLine
 10
79.375658
 20
0.0
 30
0.0
 11
100.0
 21
0.0
 31
0.0
  0
LINE
  5
880
330
82A
100
AcDbEntity
  8
CSLAYER10
  6
Continuous
 62
     7
100
AcDbLine
 10
79.375658
 20
32.0
 30
0.0
 11
100.0
 21
32.0
 31
0.0
  0
LINE
  5
881
330
82A
100
AcDbEntity
  8
CSLAYER10
  6
Continuous
 62
     7
100
AcDbLine
 10
79.375658
 20
42.0
 30
0.0
 11
100.0
 21
42.0
 31
0.0
  0
LINE
  5
882
330
82A
100
AcDbEntity
  8
CSLAYER10
  6
Continuous
 62
     7
100
AcDbLine
 10
79.375658
 20
16.0
 30
0.0
 11
90.0
 21
16.0
 31
0.0
  0
LINE
  5
883
330
82A
100
AcDbEntity
  8
CSLAYER10
  6
Continuous
 62
     7
100
AcDbLine
 10
79.375658
 20
24.0
 30
0.0
 11
90.0
 21
24.0
 31
0.0
  0
LINE
  5
884
330
82A
100
AcDbEntity
  8
CSLAYER10
  6
Continuous
 62
     7
100
AcDbLine
 10
79.375658
 20
8.0
 30
0.0
 11
90.0
 21
8.0
 31
0.0
  0
TEXT
  5
885
330
82A
100
AcDbEntity
  8
CSLAYER1
100
AcDbText
 10
50.906792402842
 20
13.615143425519
 30
0.0
 40
4.0
  1
43.5
 41
0.7
100
AcDbText
  0
TEXT
  5
886
330
82A
100
AcDbEntity
  8
CSLAYER1
100
AcDbText
 10
21.673169768416
 20
34.734647696297
 30
0.0
 40
4.0
  1
高さ（H)
 41
0.6
  7
FX_FONT
100
AcDbText
  0
TEXT
  5
887
330
82A
100
AcDbEntity
  8
CSLAYER1
100
AcDbText
 10
36.431765334664
 20
34.865420062074
 30
0.0
 40
4.0
  1
直径（D)
 41
0.6
  7
FX_FONT
100
AcDbText
  0
INSERT
  5
888
330
82A
100
AcDbEntity
  8
CSLAYER1
100
AcDbBlockReference
  2
A780188
 10
61.185105999573
 20
34.772011229376
 30
0.0
  0
ENDBLK
  5
88F
330
82A
100
AcDbEntity
  8
0
100
AcDbBlockEnd
  0
BLOCK
  5
890
330
889
100
AcDbEntity
  8
0
100
AcDbBlockBegin
  2
A780188
 70
     0
 10
0.0
 20
0.0
 30
0.0
  3
A780188
  1

  0
TEXT
  5
88B
330
889
100
AcDbEntity
  8
CSLAYER1
100
AcDbText
 10
0.0
 20
0.0
 30
0.0
 40
4.0
  1
高さ（H)
 41
0.6
  7
FX_FONT
100
AcDbText
  0
TEXT
  5
88C
330
889
100
AcDbEntity
  8
CSLAYER1
100
AcDbText
 10
14.758595566247
 20
0.130772365777
 30
0.0
 40
4.0
  1
直径（D)
 41
0.6
  7
FX_FONT
100
AcDbText
  0
ENDBLK
  5
891
330
889
100
AcDbEntity
  8
0
100
AcDbBlockEnd
  0
BLOCK
  5
8FD
330
893
100
AcDbEntity
  8
0
100
AcDbBlockBegin
  2
14F00190
 70
     0
 10
0.0
 20
0.0
 30
0.0
  3
14F00190
  1

  0
INSERT
  5
8BB
330
893
100
AcDbEntity
  8
CSLAYER1
100
AcDbBlockReference
  2
A780118
 10
0.0
 20
0.0
 30
0.0
  0
ENDBLK
  5
8FE
330
893
100
AcDbEntity
  8
0
100
AcDbBlockEnd
  0
BLOCK
  5
963
330
93B
100
AcDbEntity
  8
0
100
AcDbBlockBegin
  2
14F002B0
 70
     0
 10
0.0
 20
0.0
 30
0.0
  3
14F002B0
  1

  0
TEXT
  5
962
330
93B
100
AcDbEntity
  8
CSLAYER10
 62
     7
100
AcDbText
 10
-0.238534734372
 20
0.0
 30
0.0
 40
4.0
  1
●カラー寸法
 41
0.894505253897
  7
FX_FONT
 72
     5
 11
24.569077640364
 21
0.0
 31
0.0
100
AcDbText
  0
ENDBLK
  5
964
330
93B
100
AcDbEntity
  8
0
100
AcDbBlockEnd
  0
BLOCK
  5
9CA
330
9A3
100
AcDbEntity
  8
0
100
AcDbBlockBegin
  2
A7800E8
 70
     0
 10
0.0
 20
0.0
 30
0.0
  3
A7800E8
  1

  0
TEXT
  5
9C9
330
9A3
100
AcDbEntity
  8
CSLAYER1
100
AcDbText
 10
0.0
 20
0.0
 30
0.0
 40
4.0
  1
A=38
100
AcDbText
  0
ENDBLK
  5
9CB
330
9A3
100
AcDbEntity
  8
0
100
AcDbBlockEnd
  0
BLOCK
  5
9FA
330
9CE
100
AcDbEntity
  8
0
100
AcDbBlockBegin
  2
A780198
 70
     0
 10
0.0
 20
0.0
 30
0.0
  3
A780198
  1

  0
LEADER
  5
9F6
330
9CE
100
AcDbEntity
  8
CSLAYER1
100
AcDbLeader
  3
Standard
 71
     0
 76
     3
 10
15.097177621666
 20
0.0
 30
0.0
 10
0.0
 20
21.507815274412
 30
0.0
 10
20.275856952566
 20
21.507815274412
 30
0.0
213
-12.32608816418036
223
0.0
233
0.0
1001
ACAD
1000
DSTYLE
1002
{
1070
   341
1005
0
1070
     5
1000

1070
   279
1070
     2
1002
}
  0
TEXT
  5
9F9
330
9CE
100
AcDbEntity
  8
CSLAYER10
 62
     7
100
AcDbText
 10
2.093258044511
 20
23.289793588023
 30
0.0
 40
4.0
  1
L=100
 41
0.851107708156
  7
FX_FONT
 72
     5
 11
18.344686894135
 21
23.289793588023
 31
0.0
100
AcDbText
  0
ENDBLK
  5
9FB
330
9CE
100
AcDbEntity
  8
0
100
AcDbBlockEnd
  0
BLOCK
  5
C43
330
C1B
100
AcDbEntity
  8
0
100
AcDbBlockBegin
  2
14F00250
 70
     0
 10
0.0
 20
0.0
 30
0.0
  3
14F00250
  1

  0
TEXT
  5
C42
330
C1B
100
AcDbEntity
  8
CSLAYER10
 62
     7
100
AcDbText
 10
0.0
 20
0.0
 30
0.0
 40
4.0
  1
取付扉厚
 41
0.689338235294
  7
FX_FONT
 72
     5
 11
12.5
 21
0.0
 31
0.0
100
AcDbText
  0
ENDBLK
  5
C44
330
C1B
100
AcDbEntity
  8
0
100
AcDbBlockEnd
  0
ENDSEC
  0
SECTION
  2
ENTITIES
  0
TEXT
  5
31D
330
1D
100
AcDbEntity
  8
CSLAYER1
100
AcDbText
 10
216.165663
 20
312.125008
 30
0.0
 40
2.797103
  1
SHOWA
 41
1.110856729143
  7
FX_FONT
 72
     5
 11
231.183703
 21
312.125008
 31
0.0
100
AcDbText
  0
TEXT
  5
31E
330
1D
100
AcDbEntity
  8
CSLAYER1
100
AcDbText
 10
219.83075
 20
306.550171
 30
0.0
 40
4.0
  1
ECH
 41
0.661764705882
  7
FX_FONT
 72
     5
 11
227.33075
 21
306.550171
 31
0.0
100
AcDbText
  0
LINE
  5
36B
330
1D
100
AcDbEntity
  8
CSLAYER1
  6
Continuous
100
AcDbLine
 10
88.318299
 20
132.721514
 30
0.0
 11
65.320433
 21
132.721514
 31
0.0
  0
LINE
  5
36C
330
1D
100
AcDbEntity
  8
CSLAYER1
  6
Continuous
100
AcDbLine
 10
64.820433
 20
133.221514
 30
0.0
 11
64.820433
 21
150.721514
 31
0.0
  0
LINE
  5
36D
330
1D
100
AcDbEntity
  8
CSLAYER1
  6
Continuous
100
AcDbLine
 10
64.820433
 20
150.221514
 30
0.0
 11
88.820433
 21
150.221514
 31
0.0
  0
LINE
  5
36E
330
1D
100
AcDbEntity
  8
CSLAYER1
  6
Continuous
100
AcDbLine
 10
88.820433
 20
150.721514
 30
0.0
 11
88.818299
 21
133.183702
 31
0.0
  0
ARC
  5
36F
330
1D
100
AcDbEntity
  8
CSLAYER1
  6
Continuous
100
AcDbCircle
 10
88.318299
 20
133.221514
 30
0.0
 40
0.5
100
AcDbArc
 50
270.0
 51
0.0
  0
LINE
  5
370
330
1D
100
AcDbEntity
  8
CSLAYER1
  6
Continuous
100
AcDbLine
 10
80.320433
 20
150.221514
 30
0.0
 11
80.320433
 21
150.721514
 31
0.0
  0
LINE
  5
371
330
1D
100
AcDbEntity
  8
CSLAYER1
  6
Continuous
100
AcDbLine
 10
73.320433
 20
150.721514
 30
0.0
 11
73.320433
 21
150.221514
 31
0.0
  0
LINE
  5
372
330
1D
100
AcDbEntity
  8
CSLAYER1
  6
Continuous
100
AcDbLine
 10
63.093886
 20
150.721514
 30
0.0
 11
63.093886
 21
152.721514
 31
0.0
  0
LINE
  5
373
330
1D
100
AcDbEntity
  8
CSLAYER1
  6
Continuous
100
AcDbLine
 10
63.093886
 20
152.721514
 30
0.0
 11
100.320433
 21
152.721514
 31
0.0
  0
LINE
  5
374
330
1D
100
AcDbEntity
  8
CSLAYER1
  6
Continuous
100
AcDbLine
 10
102.320433
 20
150.721514
 30
0.0
 11
63.093886
 21
150.721514
 31
0.0
  0
ARC
  5
375
330
1D
100
AcDbEntity
  8
CSLAYER1
  6
Continuous
100
AcDbCircle
 10
65.320433
 20
133.221514
 30
0.0
 40
0.5
100
AcDbArc
 50
180.0
 51
270.0
  0
ARC
  5
376
330
1D
100
AcDbEntity
  8
CSLAYER1
  6
Continuous
100
AcDbCircle
 10
100.320433
 20
150.721514
 30
0.0
 40
2.0
100
AcDbArc
 50
0.0
 51
90.0
  0
LINE
  5
377
330
1D
100
AcDbEntity
  8
CSLAYER1
  6
Continuous
100
AcDbLine
 10
100.320433
 20
190.221514
 30
0.0
 11
63.820433
 21
190.221514
 31
0.0
  0
LINE
  5
378
330
1D
100
AcDbEntity
  8
CSLAYER1
  6
Continuous
100
AcDbLine
 10
62.820433
 20
191.221514
 30
0.0
 11
62.820433
 21
314.221514
 31
0.0
  0
LINE
  5
379
330
1D
100
AcDbEntity
  8
CSLAYER1
  6
Continuous
100
AcDbLine
 10
63.820433
 20
315.221514
 30
0.0
 11
100.320433
 21
315.221514
 31
0.0
  0
LINE
  5
37A
330
1D
100
AcDbEntity
  8
CSLAYER1
  6
Continuous
100
AcDbLine
 10
102.320433
 20
313.221514
 30
0.0
 11
102.320433
 21
192.221514
 31
0.0
  0
ARC
  5
37B
330
1D
100
AcDbEntity
  8
CSLAYER1
  6
Continuous
100
AcDbCircle
 10
100.320433
 20
192.221514
 30
0.0
 40
2.0
100
AcDbArc
 50
270.0
 51
0.0
  0
CIRCLE
  5
37C
330
1D
100
AcDbEntity
  8
CSLAYER1
  6
Continuous
100
AcDbCircle
 10
76.820433
 20
200.221514
 30
0.0
 40
4.1
  0
CIRCLE
  5
37D
330
1D
100
AcDbEntity
  8
CSLAYER1
  6
Continuous
100
AcDbCircle
 10
76.820433
 20
200.221514
 30
0.0
 40
2.75
  0
LINE
  5
37E
330
1D
100
AcDbEntity
  8
CSLAYER1
  6
Continuous
100
AcDbLine
 10
85.320433
 20
211.721514
 30
0.0
 11
68.320433
 21
211.721514
 31
0.0
  0
LINE
  5
37F
330
1D
100
AcDbEntity
  8
CSLAYER1
  6
Continuous
100
AcDbLine
 10
67.320433
 20
212.721514
 30
0.0
 11
67.320433
 21
248.721514
 31
0.0
  0
LINE
  5
380
330
1D
100
AcDbEntity
  8
CSLAYER1
  6
Continuous
100
AcDbLine
 10
68.320433
 20
249.721514
 30
0.0
 11
85.320433
 21
249.721514
 31
0.0
  0
LINE
  5
381
330
1D
100
AcDbEntity
  8
CSLAYER1
  6
Continuous
100
AcDbLine
 10
87.320433
 20
247.721514
 30
0.0
 11
87.320433
 21
246.721514
 31
0.0
  0
ARC
  5
382
330
1D
100
AcDbEntity
  8
CSLAYER1
  6
Continuous
100
AcDbCircle
 10
85.320433
 20
247.721514
 30
0.0
 40
2.0
100
AcDbArc
 50
0.0
 51
90.0
  0
LINE
  5
383
330
1D
100
AcDbEntity
  8
CSLAYER1
  6
Continuous
100
AcDbLine
 10
85.320433
 20
244.721514
 30
0.0
 11
85.320433
 21
216.721514
 31
0.0
  0
LINE
  5
384
330
1D
100
AcDbEntity
  8
CSLAYER1
  6
Continuous
100
AcDbLine
 10
87.320433
 20
214.721514
 30
0.0
 11
87.320433
 21
213.721514
 31
0.0
  0
ARC
  5
385
330
1D
100
AcDbEntity
  8
CSLAYER1
  6
Continuous
100
AcDbCircle
 10
85.320433
 20
214.721514
 30
0.0
 40
2.0
100
AcDbArc
 50
0.0
 51
90.0
  0
ARC
  5
386
330
1D
100
AcDbEntity
  8
CSLAYER1
  6
Continuous
100
AcDbCircle
 10
85.320433
 20
213.721514
 30
0.0
 40
2.0
100
AcDbArc
 50
270.0
 51
0.0
  0
ARC
  5
387
330
1D
100
AcDbEntity
  8
CSLAYER1
  6
Continuous
100
AcDbCircle
 10
68.320433
 20
212.721514
 30
0.0
 40
1.0
100
AcDbArc
 50
180.0
 51
270.0
  0
ARC
  5
388
330
1D
100
AcDbEntity
  8
CSLAYER1
  6
Continuous
100
AcDbCircle
 10
63.820433
 20
191.221514
 30
0.0
 40
1.0
100
AcDbArc
 50
180.0
 51
270.0
  0
LINE
  5
389
330
1D
100
AcDbEntity
  8
CSLAYER1
  6
Continuous
100
AcDbLine
 10
40.4525
 20
190.221514
 30
0.0
 11
38.4525
 21
190.221514
 31
0.0
  0
LINE
  5
38A
330
1D
100
AcDbEntity
  8
CSLAYER1
  6
Continuous
100
AcDbLine
 10
38.4525
 20
190.221514
 30
0.0
 11
38.4525
 21
315.221514
 31
0.0
  0
LINE
  5
38B
330
1D
100
AcDbEntity
  8
CSLAYER1
  6
Continuous
100
AcDbLine
 10
38.4525
 20
315.221514
 30
0.0
 11
40.4525
 21
315.221514
 31
0.0
  0
LINE
  5
38C
330
1D
100
AcDbEntity
  8
CSLAYER1
  6
Continuous
100
AcDbLine
 10
40.4525
 20
315.221514
 30
0.0
 11
40.4525
 21
190.221514
 31
0.0
  0
LINE
  5
38D
330
1D
100
AcDbEntity
  8
CSLAYER1
  6
Continuous
100
AcDbLine
 10
38.4525
 20
191.221514
 30
0.0
 11
37.9525
 21
191.221514
 31
0.0
  0
LINE
  5
38E
330
1D
100
AcDbEntity
  8
CSLAYER1
  6
Continuous
100
AcDbLine
 10
37.9525
 20
191.221514
 30
0.0
 11
37.9525
 21
210.221514
 31
0.0
  0
LINE
  5
38F
330
1D
100
AcDbEntity
  8
CSLAYER1
  6
Continuous
100
AcDbLine
 10
37.9525
 20
210.221514
 30
0.0
 11
20.9525
 21
210.221514
 31
0.0
  0
LINE
  5
390
330
1D
100
AcDbEntity
  8
CSLAYER1
  6
Continuous
100
AcDbLine
 10
20.4525
 20
210.721514
 30
0.0
 11
38.4525
 21
210.721514
 31
0.0
  0
LINE
  5
391
330
1D
100
AcDbEntity
  8
CSLAYER1
  6
Continuous
100
AcDbLine
 10
20.4525
 20
210.721514
 30
0.0
 11
20.4525
 21
294.721514
 31
0.0
  0
LINE
  5
392
330
1D
100
AcDbEntity
  8
CSLAYER1
  6
Continuous
100
AcDbLine
 10
20.4525
 20
294.721514
 30
0.0
 11
38.4525
 21
294.721514
 31
0.0
  0
LINE
  5
393
330
1D
100
AcDbEntity
  8
CSLAYER1
  6
Continuous
100
AcDbLine
 10
37.9525
 20
295.221514
 30
0.0
 11
37.9525
 21
314.221514
 31
0.0
  0
LINE
  5
394
330
1D
100
AcDbEntity
  8
CSLAYER1
  6
Continuous
100
AcDbLine
 10
37.9525
 20
314.221514
 30
0.0
 11
38.4525
 21
314.221514
 31
0.0
  0
LINE
  5
395
330
1D
100
AcDbEntity
  8
CSLAYER1
  6
Continuous
100
AcDbLine
 10
37.9525
 20
295.221514
 30
0.0
 11
20.9525
 21
295.221514
 31
0.0
  0
ARC
  5
396
330
1D
100
AcDbEntity
  8
CSLAYER1
  6
Continuous
100
AcDbCircle
 10
20.9525
 20
294.721514
 30
0.0
 40
0.5
100
AcDbArc
 50
90.0
 51
180.0
  0
LINE
  5
397
330
1D
100
AcDbEntity
  8
CSLAYER1
  6
Continuous
100
AcDbLine
 10
546.999055718843
 20
297.16578
 30
0.0
 11
546.999055718843
 21
306.86578
 31
0.0
  0
LINE
  5
398
330
1D
100
AcDbEntity
  8
CSLAYER1
  6
Continuous
100
AcDbLine
 10
546.999055718843
 20
306.86578
 30
0.0
 11
540.999055718843
 21
306.86578
 31
0.0
  0
LINE
  5
399
330
1D
100
AcDbEntity
  8
CSLAYER1
  6
Continuous
100
AcDbLine
 10
540.999055718843
 20
306.86578
 30
0.0
 11
540.999055718843
 21
299.16578
 31
0.0
  0
LINE
  5
39A
330
1D
100
AcDbEntity
  8
CSLAYER1
  6
Continuous
100
AcDbLine
 10
540.999055718843
 20
299.16578
 30
0.0
 11
537.999055718843
 21
299.16578
 31
0.0
  0
LINE
  5
39B
330
1D
100
AcDbEntity
  8
CSLAYER1
  6
Continuous
100
AcDbLine
 10
537.999055718843
 20
299.16578
 30
0.0
 11
537.999055718843
 21
306.86578
 31
0.0
  0
LINE
  5
39C
330
1D
100
AcDbEntity
  8
CSLAYER1
  6
Continuous
100
AcDbLine
 10
537.999055718843
 20
306.86578
 30
0.0
 11
531.999055718843
 21
306.86578
 31
0.0
  0
LINE
  5
39D
330
1D
100
AcDbEntity
  8
CSLAYER1
  6
Continuous
100
AcDbLine
 10
531.999055718843
 20
306.86578
 30
0.0
 11
531.999055718843
 21
297.16578
 31
0.0
  0
LINE
  5
39E
330
1D
100
AcDbEntity
  8
CSLAYER1
  6
Continuous
100
AcDbLine
 10
531.999055718843
 20
297.16578
 30
0.0
 11
546.999055718843
 21
297.16578
 31
0.0
  0
LINE
  5
39F
330
1D
100
AcDbEntity
  8
CSLAYER1
  6
Continuous
100
AcDbLine
 10
545.749055718843
 20
297.16578
 30
0.0
 11
545.749055718843
 21
284.66578
 31
0.0
  0
LINE
  5
3A0
330
1D
100
AcDbEntity
  8
CSLAYER1
  6
Continuous
100
AcDbLine
 10
545.749055718843
 20
284.66578
 30
0.0
 11
533.249055718843
 21
284.66578
 31
0.0
  0
LINE
  5
3A1
330
1D
100
AcDbEntity
  8
CSLAYER1
  6
Continuous
100
AcDbLine
 10
533.249055718843
 20
284.66578
 30
0.0
 11
533.249055718843
 21
297.16578
 31
0.0
  0
LINE
  5
3A2
330
1D
100
AcDbEntity
  8
CSLAYER1
  6
Continuous
100
AcDbLine
 10
537.999055718843
 20
304.86578
 30
0.0
 11
540.999055718843
 21
304.86578
 31
0.0
  0
LINE
  5
3A3
330
1D
100
AcDbEntity
  8
CSLAYER1
  6
Continuous
100
AcDbLine
 10
545.749055718843
 20
306.86578
 30
0.0
 11
545.749055718843
 21
316.36578
 31
0.0
  0
LINE
  5
3A4
330
1D
100
AcDbEntity
  8
CSLAYER1
  6
Continuous
100
AcDbLine
 10
545.749055718843
 20
316.36578
 30
0.0
 11
533.249055718843
 21
316.36578
 31
0.0
  0
LINE
  5
3A5
330
1D
100
AcDbEntity
  8
CSLAYER1
  6
Continuous
100
AcDbLine
 10
533.249055718843
 20
316.36578
 30
0.0
 11
533.249055718843
 21
306.86578
 31
0.0
  0
LINE
  5
3A6
330
1D
100
AcDbEntity
  8
CSLAYER1
  6
Continuous
100
AcDbLine
 10
494.564056718843
 20
310.671514
 30
0.0
 11
470.964056718843
 21
310.671514
 31
0.0
  0
LINE
  5
3A7
330
1D
100
AcDbEntity
  8
CSLAYER1
  6
Continuous
100
AcDbLine
 10
470.964056718843
 20
310.671514
 30
0.0
 11
470.964056718843
 21
257.671514
 31
0.0
  0
LINE
  5
3A8
330
1D
100
AcDbEntity
  8
CSLAYER1
  6
Continuous
100
AcDbLine
 10
470.964056718843
 20
257.671514
 30
0.0
 11
494.564056718843
 21
257.671514
 31
0.0
  0
LINE
  5
3A9
330
1D
100
AcDbEntity
  8
CSLAYER1
  6
Continuous
100
AcDbLine
 10
494.564056718843
 20
241.821514
 30
0.0
 11
494.564056718843
 21
322.921514
 31
0.0
  0
ARC
  5
3AA
330
1D
100
AcDbEntity
  8
CSLAYER1
  6
Continuous
100
AcDbCircle
 10
493.564056718843
 20
322.921514
 30
0.0
 40
1.0
100
AcDbArc
 50
0.0
 51
90.0
  0
LINE
  5
3AB
330
1D
100
AcDbEntity
  8
CSLAYER1
  6
Continuous
100
AcDbLine
 10
493.564056718843
 20
323.921514
 30
0.0
 11
455.564056718843
 21
323.921514
 31
0.0
  0
LINE
  5
3AC
330
1D
100
AcDbEntity
  8
CSLAYER1
  6
Continuous
100
AcDbLine
 10
455.564056718843
 20
323.921514
 30
0.0
 11
455.564056718843
 21
314.921514
 31
0.0
  0
LINE
  5
3AD
330
1D
100
AcDbEntity
  8
CSLAYER1
  6
Continuous
100
AcDbLine
 10
454.564056718843
 20
313.921514
 30
0.0
 11
378.564056718843
 21
313.921514
 31
0.0
  0
LINE
  5
3AE
330
1D
100
AcDbEntity
  8
CSLAYER1
  6
Continuous
100
AcDbLine
 10
383.964056718843
 20
320.421514
 30
0.0
 11
391.564056718843
 21
320.421514
 31
0.0
  0
LINE
  5
3AF
330
1D
100
AcDbEntity
  8
CSLAYER1
  6
Continuous
100
AcDbLine
 10
391.564056718843
 20
320.421514
 30
0.0
 11
391.564056718843
 21
324.521514
 31
0.0
  0
LINE
  5
3B0
330
1D
100
AcDbEntity
  8
CSLAYER1
  6
Continuous
100
AcDbLine
 10
391.564056718843
 20
324.521514
 30
0.0
 11
452.564056718843
 21
324.521514
 31
0.0
  0
LINE
  5
3B1
330
1D
100
AcDbEntity
  8
CSLAYER1
  6
Continuous
100
AcDbLine
 10
452.564056718843
 20
324.521514
 30
0.0
 11
452.564056718843
 21
314.921514
 31
0.0
  0
LINE
  5
3B2
330
1D
100
AcDbEntity
  8
CSLAYER1
  6
Continuous
100
AcDbLine
 10
452.564056718843
 20
315.421514
 30
0.0
 11
454.164056718843
 21
315.421514
 31
0.0
  0
LINE
  5
3B3
330
1D
100
AcDbEntity
  8
CSLAYER1
  6
Continuous
100
AcDbLine
 10
454.164056718843
 20
315.421514
 30
0.0
 11
454.164056718843
 21
322.921514
 31
0.0
  0
ARC
  5
3B4
330
1D
100
AcDbEntity
  8
CSLAYER1
  6
Continuous
100
AcDbCircle
 10
452.564056718843
 20
322.921514
 30
0.0
 40
1.6
100
AcDbArc
 50
0.0
 51
90.0
  0
LINE
  5
3B5
330
1D
100
AcDbEntity
  8
CSLAYER1
  6
Continuous
100
AcDbLine
 10
446.564056718843
 20
325.021514
 30
0.0
 11
438.564056718843
 21
325.021514
 31
0.0
  0
LINE
  5
3B6
330
1D
100
AcDbEntity
  8
CSLAYER1
  6
Continuous
100
AcDbLine
 10
438.564056718843
 20
325.021514
 30
0.0
 11
439.064056718843
 21
324.521514
 31
0.0
  0
LINE
  5
3B7
330
1D
100
AcDbEntity
  8
CSLAYER1
  6
Continuous
100
AcDbLine
 10
439.914056718843
 20
318.921514
 30
0.0
 11
439.914056718843
 21
318.421514
 31
0.0
  0
LINE
  5
3B8
330
1D
100
AcDbEntity
  8
CSLAYER1
  6
Continuous
100
AcDbLine
 10
443.837284718843
 20
318.421514
 30
0.0
 11
422.564056718843
 21
318.421514
 31
0.0
  0
LINE
  5
3B9
330
1D
100
AcDbEntity
  8
CSLAYER1
  6
Continuous
100
AcDbLine
 10
422.564056718843
 20
318.921514
 30
0.0
 11
422.564056718843
 21
316.421514
 31
0.0
  0
LINE
  5
3BA
330
1D
100
AcDbEntity
  8
CSLAYER1
  6
Continuous
100
AcDbLine
 10
422.564056718843
 20
316.421514
 30
0.0
 11
447.564056718843
 21
316.421514
 31
0.0
  0
LINE
  5
3BB
330
1D
100
AcDbEntity
  8
CSLAYER1
  6
Continuous
100
AcDbLine
 10
447.564056718843
 20
316.421514
 30
0.0
 11
447.564056718843
 21
318.921514
 31
0.0
  0
LINE
  5
3BC
330
1D
100
AcDbEntity
  8
CSLAYER1
  6
Continuous
100
AcDbLine
 10
447.564056718843
 20
318.921514
 30
0.0
 11
422.564056718843
 21
318.921514
 31
0.0
  0
LINE
  5
3BD
330
1D
100
AcDbEntity
  8
CSLAYER1
  6
Continuous
100
AcDbLine
 10
443.837284718843
 20
318.421514
 30
0.0
 11
443.837284718843
 21
316.421514
 31
0.0
  0
LINE
  5
3BE
330
1D
100
AcDbEntity
  8
CSLAYER1
  6
Continuous
100
AcDbLine
 10
445.214056718843
 20
316.421514
 30
0.0
 11
445.214056718843
 21
318.921514
 31
0.0
  0
LINE
  5
3BF
330
1D
100
AcDbEntity
  8
CSLAYER1
  6
Continuous
100
AcDbLine
 10
446.064056718843
 20
324.521514
 30
0.0
 11
446.564056718843
 21
325.021514
 31
0.0
  0
ARC
  5
3C0
330
1D
100
AcDbEntity
  8
CSLAYER1
  6
Continuous
100
AcDbCircle
 10
451.564056718843
 20
314.921514
 30
0.0
 40
1.0
100
AcDbArc
 50
270.0
 51
0.0
  0
ARC
  5
3C1
330
1D
100
AcDbEntity
  8
CSLAYER1
  6
Continuous
100
AcDbCircle
 10
454.564056718843
 20
314.921514
 30
0.0
 40
1.0
100
AcDbArc
 50
270.0
 51
0.0
  0
LINE
  5
3C2
330
1D
100
AcDbEntity
  8
CSLAYER1
  6
Continuous
100
AcDbLine
 10
468.064056718843
 20
323.921514
 30
0.0
 11
468.064056718843
 21
324.621514
 31
0.0
  0
LINE
  5
3C3
330
1D
100
AcDbEntity
  8
CSLAYER1
  6
Continuous
100
AcDbLine
 10
468.564056718843
 20
325.121514
 30
0.0
 11
478.564056718843
 21
325.121514
 31
0.0
  0
LINE
  5
3C4
330
1D
100
AcDbEntity
  8
CSLAYER1
  6
Continuous
100
AcDbLine
 10
479.064056718843
 20
324.621514
 30
0.0
 11
479.064056718843
 21
323.921514
 31
0.0
  0
ARC
  5
3C5
330
1D
100
AcDbEntity
  8
CSLAYER1
  6
Continuous
100
AcDbCircle
 10
478.564056718843
 20
324.621514
 30
0.0
 40
0.5
100
AcDbArc
 50
0.0
 51
90.0
  0
ARC
  5
3C6
330
1D
100
AcDbEntity
  8
CSLAYER1
  6
Continuous
100
AcDbCircle
 10
468.564056718843
 20
324.621514
 30
0.0
 40
0.5
100
AcDbArc
 50
90.0
 51
180.0
  0
LINE
  5
3C7
330
1D
100
AcDbEntity
  8
CSLAYER1
  6
Continuous
100
AcDbLine
 10
494.564056718843
 20
321.921514
 30
0.0
 11
496.564056718843
 21
321.921514
 31
0.0
  0
LINE
  5
3C8
330
1D
100
AcDbEntity
  8
CSLAYER1
  6
Continuous
100
AcDbLine
 10
496.564056718843
 20
321.921514
 30
0.0
 11
496.564056718843
 21
190.921514
 31
0.0
  0
LINE
  5
3C9
330
1D
100
AcDbEntity
  8
CSLAYER1
  6
Continuous
100
AcDbLine
 10
495.564056718843
 20
189.921514
 30
0.0
 11
378.564056718843
 21
189.921514
 31
0.0
  0
LINE
  5
3CA
330
1D
100
AcDbEntity
  8
CSLAYER1
  6
Continuous
100
AcDbLine
 10
372.564056718843
 20
219.971514
 30
0.0
 11
359.464056718843
 21
219.971514
 31
0.0
  0
LINE
  5
3CB
330
1D
100
AcDbEntity
  8
CSLAYER1
  6
Continuous
100
AcDbLine
 10
359.464056718843
 20
219.971514
 30
0.0
 11
359.464056718843
 21
228.721514
 31
0.0
  0
LINE
  5
3CC
330
1D
100
AcDbEntity
  8
CSLAYER1
  6
Continuous
100
AcDbLine
 10
359.464056718843
 20
228.721514
 30
0.0
 11
372.564056718843
 21
228.721514
 31
0.0
  0
LINE
  5
3CD
330
1D
100
AcDbEntity
  8
CSLAYER1
  6
Continuous
100
AcDbLine
 10
372.464056718843
 20
228.721514
 30
0.0
 11
372.464056718843
 21
235.121514
 31
0.0
  0
LINE
  5
3CE
330
1D
100
AcDbEntity
  8
CSLAYER1
  6
Continuous
100
AcDbLine
 10
372.564056718843
 20
235.121514
 30
0.0
 11
359.464056718843
 21
235.121514
 31
0.0
  0
LINE
  5
3CF
330
1D
100
AcDbEntity
  8
CSLAYER1
  6
Continuous
100
AcDbLine
 10
359.464056718843
 20
235.121514
 30
0.0
 11
359.464056718843
 21
243.871514
 31
0.0
  0
LINE
  5
3D0
330
1D
100
AcDbEntity
  8
CSLAYER1
  6
Continuous
100
AcDbLine
 10
359.464056718843
 20
243.871514
 30
0.0
 11
372.564056718843
 21
243.871514
 31
0.0
  0
LINE
  5
3D1
330
1D
100
AcDbEntity
  8
CSLAYER1
  6
Continuous
100
AcDbLine
 10
371.464056718843
 20
243.871514
 30
0.0
 11
371.464056718843
 21
235.121514
 31
0.0
  0
LINE
  5
3D2
330
1D
100
AcDbEntity
  8
CSLAYER1
  6
Continuous
100
AcDbLine
 10
372.464056718843
 20
234.971514
 30
0.0
 11
361.804574718843
 21
234.971514
 31
0.0
  0
LINE
  5
3D3
330
1D
100
AcDbEntity
  8
CSLAYER1
  6
Continuous
100
AcDbLine
 10
361.804574718843
 20
234.971514
 30
0.0
 11
361.804574718843
 21
233.971514
 31
0.0
  0
LINE
  5
3D4
330
1D
100
AcDbEntity
  8
CSLAYER1
  6
Continuous
100
AcDbLine
 10
361.638774718843
 20
233.971514
 30
0.0
 11
361.638774718843
 21
229.871514
 31
0.0
  0
LINE
  5
3D5
330
1D
100
AcDbEntity
  8
CSLAYER1
  6
Continuous
100
AcDbLine
 10
361.638774718843
 20
229.871514
 30
0.0
 11
372.464056718843
 21
229.871514
 31
0.0
  0
LINE
  5
3D6
330
1D
100
AcDbEntity
  8
CSLAYER1
  6
Continuous
100
AcDbLine
 10
372.464056718843
 20
228.871514
 30
0.0
 11
361.804574718843
 21
228.871514
 31
0.0
  0
LINE
  5
3D7
330
1D
100
AcDbEntity
  8
CSLAYER1
  6
Continuous
100
AcDbLine
 10
361.804574718843
 20
228.871514
 30
0.0
 11
361.804574718843
 21
229.871514
 31
0.0
  0
LINE
  5
3D8
330
1D
100
AcDbEntity
  8
CSLAYER1
  6
Continuous
100
AcDbLine
 10
361.638774718843
 20
233.971514
 30
0.0
 11
372.464056718843
 21
233.971514
 31
0.0
  0
LINE
  5
3D9
330
1D
100
AcDbEntity
  8
CSLAYER1
  6
Continuous
100
AcDbLine
 10
371.464056718843
 20
228.721514
 30
0.0
 11
371.464056718843
 21
219.971514
 31
0.0
  0
LINE
  5
3DA
330
1D
100
AcDbEntity
  8
CSLAYER1
  6
Continuous
100
AcDbLine
 10
372.564056718843
 20
251.421514
 30
0.0
 11
362.264056718843
 21
251.421514
 31
0.0
  0
LINE
  5
3DB
330
1D
100
AcDbEntity
  8
CSLAYER1
  6
Continuous
100
AcDbLine
 10
362.264056718843
 20
251.421514
 30
0.0
 11
362.264056718843
 21
256.421514
 31
0.0
  0
LINE
  5
3DC
330
1D
100
AcDbEntity
  8
CSLAYER1
  6
Continuous
100
AcDbLine
 10
362.264056718843
 20
256.421514
 30
0.0
 11
372.564056718843
 21
256.421514
 31
0.0
  0
LINE
  5
3DD
330
1D
100
AcDbEntity
  8
CSLAYER1
  6
Continuous
100
AcDbLine
 10
232.080745
 20
251.671514
 30
0.0
 11
232.080745
 21
256.171514
 31
0.0
  0
ARC
  5
3DE
330
1D
100
AcDbEntity
  8
CSLAYER1
  6
Continuous
100
AcDbCircle
 10
231.780745
 20
256.171514
 30
0.0
 40
0.3
100
AcDbArc
 50
0.0
 51
90.0
  0
LINE
  5
3DF
330
1D
100
AcDbEntity
  8
CSLAYER1
  6
Continuous
100
AcDbLine
 10
231.780745
 20
256.471514
 30
0.0
 11
215.380745
 21
256.471514
 31
0.0
  0
ARC
  5
3E0
330
1D
100
AcDbEntity
  8
CSLAYER1
  6
Continuous
100
AcDbCircle
 10
215.380745
 20
256.171514
 30
0.0
 40
0.3
100
AcDbArc
 50
90.0
 51
180.0
  0
LINE
  5
3E1
330
1D
100
AcDbEntity
  8
CSLAYER1
  6
Continuous
100
AcDbLine
 10
215.080745
 20
256.171514
 30
0.0
 11
215.080745
 21
251.671514
 31
0.0
  0
ARC
  5
3E2
330
1D
100
AcDbEntity
  8
CSLAYER1
  6
Continuous
100
AcDbCircle
 10
215.380745
 20
251.671514
 30
0.0
 40
0.3
100
AcDbArc
 50
180.0
 51
270.0
  0
LINE
  5
3E3
330
1D
100
AcDbEntity
  8
CSLAYER1
  6
Continuous
100
AcDbLine
 10
215.380745
 20
251.371514
 30
0.0
 11
231.780745
 21
251.371514
 31
0.0
  0
ARC
  5
3E4
330
1D
100
AcDbEntity
  8
CSLAYER1
  6
Continuous
100
AcDbCircle
 10
231.780745
 20
251.671514
 30
0.0
 40
0.3
100
AcDbArc
 50
270.0
 51
0.0
  0
LINE
  5
3E5
330
1D
100
AcDbEntity
  8
CSLAYER1
  6
Continuous
100
AcDbLine
 10
230.280745
 20
243.921514
 30
0.0
 11
216.880745
 21
243.921514
 31
0.0
  0
ARC
  5
3E6
330
1D
100
AcDbEntity
  8
CSLAYER1
  6
Continuous
100
AcDbCircle
 10
216.880745
 20
243.621514
 30
0.0
 40
0.3
100
AcDbArc
 50
90.0
 51
180.0
  0
LINE
  5
3E7
330
1D
100
AcDbEntity
  8
CSLAYER1
  6
Continuous
100
AcDbLine
 10
216.580745
 20
243.621514
 30
0.0
 11
216.580745
 21
220.221514
 31
0.0
  0
ARC
  5
3E8
330
1D
100
AcDbEntity
  8
CSLAYER1
  6
Continuous
100
AcDbCircle
 10
216.880745
 20
220.221514
 30
0.0
 40
0.3
100
AcDbArc
 50
180.0
 51
270.0
  0
LINE
  5
3E9
330
1D
100
AcDbEntity
  8
CSLAYER1
  6
Continuous
100
AcDbLine
 10
216.880745
 20
219.921514
 30
0.0
 11
230.280745
 21
219.921514
 31
0.0
  0
ARC
  5
3EA
330
1D
100
AcDbEntity
  8
CSLAYER1
  6
Continuous
100
AcDbCircle
 10
230.280745
 20
220.221514
 30
0.0
 40
0.3
100
AcDbArc
 50
270.0
 51
0.0
  0
LINE
  5
3EB
330
1D
100
AcDbEntity
  8
CSLAYER1
  6
Continuous
100
AcDbLine
 10
230.580745
 20
220.221514
 30
0.0
 11
230.580745
 21
228.221514
 31
0.0
  0
ARC
  5
3EC
330
1D
100
AcDbEntity
  8
CSLAYER1
  6
Continuous
100
AcDbCircle
 10
230.880745
 20
228.221514
 30
0.0
 40
0.3
100
AcDbArc
 50
90.0
 51
180.0
  0
LINE
  5
3ED
330
1D
100
AcDbEntity
  8
CSLAYER1
  6
Continuous
100
AcDbLine
 10
230.880745
 20
228.521514
 30
0.0
 11
232.280745
 21
228.521514
 31
0.0
  0
ARC
  5
3EE
330
1D
100
AcDbEntity
  8
CSLAYER1
  6
Continuous
100
AcDbCircle
 10
232.280745
 20
228.821514
 30
0.0
 40
0.3
100
AcDbArc
 50
270.0
 51
0.0
  0
LINE
  5
3EF
330
1D
100
AcDbEntity
  8
CSLAYER1
  6
Continuous
100
AcDbLine
 10
232.580745
 20
228.821514
 30
0.0
 11
232.580745
 21
235.021514
 31
0.0
  0
ARC
  5
3F0
330
1D
100
AcDbEntity
  8
CSLAYER1
  6
Continuous
100
AcDbCircle
 10
232.280745
 20
235.021514
 30
0.0
 40
0.3
100
AcDbArc
 50
0.0
 51
90.0
  0
LINE
  5
3F1
330
1D
100
AcDbEntity
  8
CSLAYER1
  6
Continuous
100
AcDbLine
 10
232.280745
 20
235.321514
 30
0.0
 11
230.880745
 21
235.321514
 31
0.0
  0
ARC
  5
3F2
330
1D
100
AcDbEntity
  8
CSLAYER1
  6
Continuous
100
AcDbCircle
 10
230.880745
 20
235.621514
 30
0.0
 40
0.3
100
AcDbArc
 50
180.0
 51
270.0
  0
LINE
  5
3F3
330
1D
100
AcDbEntity
  8
CSLAYER1
  6
Continuous
100
AcDbLine
 10
230.580745
 20
235.621514
 30
0.0
 11
230.580745
 21
243.621514
 31
0.0
  0
ARC
  5
3F4
330
1D
100
AcDbEntity
  8
CSLAYER1
  6
Continuous
100
AcDbCircle
 10
230.280745
 20
243.621514
 30
0.0
 40
0.3
100
AcDbArc
 50
0.0
 51
90.0
  0
LINE
  5
3F5
330
1D
100
AcDbEntity
  8
CSLAYER1
  6
Continuous
100
AcDbLine
 10
229.173486
 20
235.021514
 30
0.0
 11
229.173486
 21
233.971514
 31
0.0
  0
LINE
  5
3F6
330
1D
100
AcDbEntity
  8
CSLAYER1
  6
Continuous
100
AcDbLine
 10
229.566202
 20
233.971514
 30
0.0
 11
229.566202
 21
229.871514
 31
0.0
  0
LINE
  5
3F7
330
1D
100
AcDbEntity
  8
CSLAYER1
  6
Continuous
100
AcDbLine
 10
229.173486
 20
229.871514
 30
0.0
 11
229.173486
 21
228.821514
 31
0.0
  0
LINE
  5
3F8
330
1D
100
AcDbEntity
  8
CSLAYER1
  6
Continuous
100
AcDbLine
 10
232.580745
 20
228.821514
 30
0.0
 11
219.05459
 21
228.821514
 31
0.0
  0
LINE
  5
3F9
330
1D
100
AcDbEntity
  8
CSLAYER1
  6
Continuous
100
AcDbLine
 10
219.05459
 20
228.871514
 30
0.0
 11
219.05459
 21
229.871514
 31
0.0
  0
LINE
  5
3FA
330
1D
100
AcDbEntity
  8
CSLAYER1
  6
Continuous
100
AcDbLine
 10
218.912083
 20
229.871514
 30
0.0
 11
218.912083
 21
233.971514
 31
0.0
  0
LINE
  5
3FB
330
1D
100
AcDbEntity
  8
CSLAYER1
  6
Continuous
100
AcDbLine
 10
218.912083
 20
233.971514
 30
0.0
 11
232.580745
 21
233.971514
 31
0.0
  0
LINE
  5
3FC
330
1D
100
AcDbEntity
  8
CSLAYER1
  6
Continuous
100
AcDbLine
 10
232.580745
 20
235.021514
 30
0.0
 11
219.05459
 21
235.021514
 31
0.0
  0
LINE
  5
3FD
330
1D
100
AcDbEntity
  8
CSLAYER1
  6
Continuous
100
AcDbLine
 10
219.05459
 20
235.021514
 30
0.0
 11
219.05459
 21
233.971514
 31
0.0
  0
LINE
  5
3FE
330
1D
100
AcDbEntity
  8
CSLAYER1
  6
Continuous
100
AcDbLine
 10
218.380745
 20
235.121514
 30
0.0
 11
218.380745
 21
243.921514
 31
0.0
  0
ARC
  5
3FF
330
1D
100
AcDbEntity
  8
CSLAYER1
  6
Continuous
100
AcDbCircle
 10
216.280745
 20
235.621514
 30
0.0
 40
0.3
100
AcDbArc
 50
270.0
 51
0.0
  0
LINE
  5
400
330
1D
100
AcDbEntity
  8
CSLAYER1
  6
Continuous
100
AcDbLine
 10
216.280745
 20
235.321514
 30
0.0
 11
214.880745
 21
235.321514
 31
0.0
  0
ARC
  5
401
330
1D
100
AcDbEntity
  8
CSLAYER1
  6
Continuous
100
AcDbCircle
 10
214.880745
 20
235.021514
 30
0.0
 40
0.3
100
AcDbArc
 50
90.0
 51
180.0
  0
LINE
  5
402
330
1D
100
AcDbEntity
  8
CSLAYER1
  6
Continuous
100
AcDbLine
 10
214.580745
 20
235.021514
 30
0.0
 11
214.580745
 21
228.821514
 31
0.0
  0
ARC
  5
403
330
1D
100
AcDbEntity
  8
CSLAYER1
  6
Continuous
100
AcDbCircle
 10
214.880745
 20
228.821514
 30
0.0
 40
0.3
100
AcDbArc
 50
180.0
 51
270.0
  0
LINE
  5
404
330
1D
100
AcDbEntity
  8
CSLAYER1
  6
Continuous
100
AcDbLine
 10
214.880745
 20
228.521514
 30
0.0
 11
216.280745
 21
228.521514
 31
0.0
  0
LINE
  5
405
330
1D
100
AcDbEntity
  8
CSLAYER1
  6
Continuous
100
AcDbLine
 10
216.580745
 20
228.721514
 30
0.0
 11
232.580745
 21
228.721514
 31
0.0
  0
LINE
  5
406
330
1D
100
AcDbEntity
  8
CSLAYER1
  6
Continuous
100
AcDbLine
 10
232.580745
 20
229.871514
 30
0.0
 11
218.912083
 21
229.871514
 31
0.0
  0
LINE
  5
407
330
1D
100
AcDbEntity
  8
CSLAYER1
  6
Continuous
100
AcDbLine
 10
218.380745
 20
228.721514
 30
0.0
 11
218.380745
 21
219.921514
 31
0.0
  0
ARC
  5
408
330
1D
100
AcDbEntity
  8
CSLAYER1
  6
Continuous
100
AcDbCircle
 10
216.280745
 20
228.221514
 30
0.0
 40
0.3
100
AcDbArc
 50
0.0
 51
90.0
  0
LINE
  5
409
330
1D
100
AcDbEntity
  8
CSLAYER1
  6
Continuous
100
AcDbLine
 10
216.580745
 20
228.921514
 30
0.0
 11
215.580745
 21
228.921514
 31
0.0
  0
LINE
  5
40A
330
1D
100
AcDbEntity
  8
CSLAYER1
  6
Continuous
100
AcDbLine
 10
215.580745
 20
228.921514
 30
0.0
 11
215.580745
 21
234.921514
 31
0.0
  0
LINE
  5
40B
330
1D
100
AcDbEntity
  8
CSLAYER1
  6
Continuous
100
AcDbLine
 10
215.580745
 20
234.921514
 30
0.0
 11
216.580745
 21
234.921514
 31
0.0
  0
LINE
  5
40C
330
1D
100
AcDbEntity
  8
CSLAYER1
  6
Continuous
100
AcDbLine
 10
216.580745
 20
235.121514
 30
0.0
 11
232.580745
 21
235.121514
 31
0.0
  0
LINE
  5
40D
330
1D
100
AcDbEntity
  8
CSLAYER1
  6
Continuous
100
AcDbLine
 10
223.580745
 20
251.371514
 30
0.0
 11
223.580745
 21
256.471514
 31
0.0
  0
LINE
  5
40E
330
1D
100
AcDbEntity
  8
CSLAYER1
  6
Continuous
100
AcDbLine
 10
205.580745
 20
271.956324
 30
0.0
 11
186.155007
 21
275.503368
 31
0.0
  0
LINE
  5
40F
330
1D
100
AcDbEntity
  8
CSLAYER1
  6
Continuous
100
AcDbLine
 10
185.580745
 20
276.191982
 30
0.0
 11
185.580745
 21
316.608225
 31
0.0
  0
LINE
  5
410
330
1D
100
AcDbEntity
  8
CSLAYER1
  6
Continuous
100
AcDbLine
 10
185.580745
 20
316.608225
 30
0.0
 11
205.580745
 21
320.178546
 31
0.0
  0
LINE
  5
411
330
1D
100
AcDbEntity
  8
CSLAYER1
  6
Continuous
100
AcDbLine
 10
205.580745
 20
320.178546
 30
0.0
 11
205.580745
 21
271.956324
 31
0.0
  0
ARC
  5
412
330
1D
100
AcDbEntity
  8
CSLAYER1
  6
Continuous
100
AcDbCircle
 10
186.280745
 20
276.191982
 30
0.0
 40
0.7
100
AcDbArc
 50
180.0
 51
259.652073
  0
LINE
  5
413
330
1D
100
AcDbEntity
  8
CSLAYER1
  6
Continuous
100
AcDbLine
 10
185.580745
 20
283.121514
 30
0.0
 11
184.080745
 21
284.621514
 31
0.0
  0
LINE
  5
414
330
1D
100
AcDbEntity
  8
CSLAYER1
  6
Continuous
100
AcDbLine
 10
184.080745
 20
284.621514
 30
0.0
 11
184.080745
 21
295.921514
 31
0.0
  0
LINE
  5
415
330
1D
100
AcDbEntity
  8
CSLAYER1
  6
Continuous
100
AcDbLine
 10
184.080745
 20
295.921514
 30
0.0
 11
185.580745
 21
297.421514
 31
0.0
  0
ARC
  5
416
330
1D
100
AcDbEntity
  8
CSLAYER1
  6
Continuous
100
AcDbCircle
 10
186.280745
 20
316.02212
 30
0.0
 40
0.7
100
AcDbArc
 50
100.121598
 51
180.0
  0
LINE
  5
417
330
1D
100
AcDbEntity
  8
CSLAYER1
  6
Continuous
100
AcDbLine
 10
221.380745
 20
330.450926
 30
0.0
 11
222.451333
 21
330.450926
 31
0.0
  0
ARC
  5
418
330
1D
100
AcDbEntity
  8
CSLAYER1
  6
Continuous
100
AcDbCircle
 10
222.451333
 20
329.792103
 30
0.0
 40
0.658824
100
AcDbArc
 50
0.0
 51
90.0
  0
LINE
  5
419
330
1D
100
AcDbEntity
  8
CSLAYER1
  6
Continuous
100
AcDbLine
 10
223.110156
 20
329.792103
 30
0.0
 11
223.110156
 21
328.721514
 31
0.0
  0
LINE
  5
41A
330
1D
100
AcDbEntity
  8
CSLAYER1
  6
Continuous
100
AcDbLine
 10
223.110156
 20
328.721514
 30
0.0
 11
224.051333
 21
328.721514
 31
0.0
  0
LINE
  5
41B
330
1D
100
AcDbEntity
  8
CSLAYER1
  6
Continuous
100
AcDbLine
 10
224.051333
 20
328.721514
 30
0.0
 11
224.051333
 21
329.792103
 31
0.0
  0
LINE
  5
41C
330
1D
100
AcDbEntity
  8
CSLAYER1
  6
Continuous
100
AcDbLine
 10
224.710156
 20
330.450926
 30
0.0
 11
225.780745
 21
330.450926
 31
0.0
  0
LINE
  5
41D
330
1D
100
AcDbEntity
  8
CSLAYER1
  6
Continuous
100
AcDbLine
 10
225.780745
 20
330.450926
 30
0.0
 11
225.780745
 21
331.392103
 31
0.0
  0
LINE
  5
41E
330
1D
100
AcDbEntity
  8
CSLAYER1
  6
Continuous
100
AcDbLine
 10
225.780745
 20
331.392103
 30
0.0
 11
224.710156
 21
331.392103
 31
0.0
  0
LINE
  5
41F
330
1D
100
AcDbEntity
  8
CSLAYER1
  6
Continuous
100
AcDbLine
 10
224.051333
 20
332.050926
 30
0.0
 11
224.051333
 21
333.121514
 31
0.0
  0
LINE
  5
420
330
1D
100
AcDbEntity
  8
CSLAYER1
  6
Continuous
100
AcDbLine
 10
224.051333
 20
333.121514
 30
0.0
 11
223.110156
 21
333.121514
 31
0.0
  0
LINE
  5
421
330
1D
100
AcDbEntity
  8
CSLAYER1
  6
Continuous
100
AcDbLine
 10
223.110156
 20
333.121514
 30
0.0
 11
223.110156
 21
332.050926
 31
0.0
  0
ARC
  5
422
330
1D
100
AcDbEntity
  8
CSLAYER1
  6
Continuous
100
AcDbCircle
 10
222.451333
 20
332.050926
 30
0.0
 40
0.658824
100
AcDbArc
 50
270.0
 51
0.0
  0
LINE
  5
423
330
1D
100
AcDbEntity
  8
CSLAYER1
  6
Continuous
100
AcDbLine
 10
222.451333
 20
331.392103
 30
0.0
 11
221.380745
 21
331.392103
 31
0.0
  0
LINE
  5
424
330
1D
100
AcDbEntity
  8
CSLAYER1
  6
Continuous
100
AcDbLine
 10
221.380745
 20
331.392103
 30
0.0
 11
221.380745
 21
330.450926
 31
0.0
  0
ARC
  5
425
330
1D
100
AcDbEntity
  8
CSLAYER1
  6
Continuous
100
AcDbCircle
 10
224.710156
 20
332.050926
 30
0.0
 40
0.658824
100
AcDbArc
 50
180.0
 51
270.0
  0
ARC
  5
426
330
1D
100
AcDbEntity
  8
CSLAYER1
  6
Continuous
100
AcDbCircle
 10
224.710156
 20
329.792103
 30
0.0
 40
0.658824
100
AcDbArc
 50
90.0
 51
180.0
  0
CIRCLE
  5
427
330
1D
100
AcDbEntity
  8
CSLAYER1
  6
Continuous
100
AcDbCircle
 10
223.580745
 20
330.921514
 30
0.0
 40
4.25
  0
CIRCLE
  5
428
330
1D
100
AcDbEntity
  8
CSLAYER1
  6
Continuous
100
AcDbCircle
 10
223.580745
 20
182.921514
 30
0.0
 40
4.25
  0
LINE
  5
429
330
1D
100
AcDbEntity
  8
CSLAYER1
  6
Continuous
100
AcDbLine
 10
225.780745
 20
182.450926
 30
0.0
 11
224.710156
 21
182.450926
 31
0.0
  0
ARC
  5
42A
330
1D
100
AcDbEntity
  8
CSLAYER1
  6
Continuous
100
AcDbCircle
 10
224.710156
 20
181.792103
 30
0.0
 40
0.658824
100
AcDbArc
 50
90.0
 51
180.0
  0
LINE
  5
42B
330
1D
100
AcDbEntity
  8
CSLAYER1
  6
Continuous
100
AcDbLine
 10
224.051333
 20
181.792103
 30
0.0
 11
224.051333
 21
180.721514
 31
0.0
  0
LINE
  5
42C
330
1D
100
AcDbEntity
  8
CSLAYER1
  6
Continuous
100
AcDbLine
 10
224.051333
 20
180.721514
 30
0.0
 11
223.110156
 21
180.721514
 31
0.0
  0
LINE
  5
42D
330
1D
100
AcDbEntity
  8
CSLAYER1
  6
Continuous
100
AcDbLine
 10
223.110156
 20
180.721514
 30
0.0
 11
223.110156
 21
181.792103
 31
0.0
  0
ARC
  5
42E
330
1D
100
AcDbEntity
  8
CSLAYER1
  6
Continuous
100
AcDbCircle
 10
222.451333
 20
181.792103
 30
0.0
 40
0.658824
100
AcDbArc
 50
0.0
 51
90.0
  0
LINE
  5
42F
330
1D
100
AcDbEntity
  8
CSLAYER1
  6
Continuous
100
AcDbLine
 10
222.451333
 20
182.450926
 30
0.0
 11
221.380745
 21
182.450926
 31
0.0
  0
LINE
  5
430
330
1D
100
AcDbEntity
  8
CSLAYER1
  6
Continuous
100
AcDbLine
 10
221.380745
 20
182.450926
 30
0.0
 11
221.380745
 21
183.392103
 31
0.0
  0
LINE
  5
431
330
1D
100
AcDbEntity
  8
CSLAYER1
  6
Continuous
100
AcDbLine
 10
221.380745
 20
183.392103
 30
0.0
 11
222.451333
 21
183.392103
 31
0.0
  0
ARC
  5
432
330
1D
100
AcDbEntity
  8
CSLAYER1
  6
Continuous
100
AcDbCircle
 10
222.451333
 20
184.050926
 30
0.0
 40
0.658824
100
AcDbArc
 50
270.0
 51
0.0
  0
LINE
  5
433
330
1D
100
AcDbEntity
  8
CSLAYER1
  6
Continuous
100
AcDbLine
 10
223.110156
 20
184.050926
 30
0.0
 11
223.110156
 21
185.121514
 31
0.0
  0
LINE
  5
434
330
1D
100
AcDbEntity
  8
CSLAYER1
  6
Continuous
100
AcDbLine
 10
223.110156
 20
185.121514
 30
0.0
 11
224.051333
 21
185.121514
 31
0.0
  0
LINE
  5
435
330
1D
100
AcDbEntity
  8
CSLAYER1
  6
Continuous
100
AcDbLine
 10
224.051333
 20
185.121514
 30
0.0
 11
224.051333
 21
184.050926
 31
0.0
  0
ARC
  5
436
330
1D
100
AcDbEntity
  8
CSLAYER1
  6
Continuous
100
AcDbCircle
 10
224.710156
 20
184.050926
 30
0.0
 40
0.658824
100
AcDbArc
 50
180.0
 51
270.0
  0
LINE
  5
437
330
1D
100
AcDbEntity
  8
CSLAYER1
  6
Continuous
100
AcDbLine
 10
224.710156
 20
183.392103
 30
0.0
 11
225.780745
 21
183.392103
 31
0.0
  0
LINE
  5
438
330
1D
100
AcDbEntity
  8
CSLAYER1
  6
Continuous
100
AcDbLine
 10
225.780745
 20
183.392103
 30
0.0
 11
225.780745
 21
182.450926
 31
0.0
  0
LINE
  5
439
330
1D
100
AcDbEntity
  8
CSLAYER1
  6
Continuous
100
AcDbLine
 10
210.780745
 20
158.621514
 30
0.0
 11
210.780745
 21
355.221514
 31
0.0
  0
LINE
  5
43A
330
1D
100
AcDbEntity
  8
CSLAYER1
  6
Continuous
100
AcDbLine
 10
210.780745
 20
355.221514
 30
0.0
 11
236.380745
 21
355.221514
 31
0.0
  0
LINE
  5
43B
330
1D
100
AcDbEntity
  8
CSLAYER1
  6
Continuous
100
AcDbLine
 10
236.380745
 20
355.221514
 30
0.0
 11
236.380745
 21
158.621514
 31
0.0
  0
LINE
  5
43C
330
1D
100
AcDbEntity
  8
CSLAYER1
  6
Continuous
100
AcDbLine
 10
236.380745
 20
158.621514
 30
0.0
 11
210.780745
 21
158.621514
 31
0.0
  0
LINE
  5
43D
102
{ACAD_REACTORS
330
EEF
102
}
330
1D
100
AcDbEntity
  8
CSLAYER1
  6
Continuous
100
AcDbLine
 10
372.564056718843
 20
158.621514
 30
0.0
 11
372.564056718843
 21
355.221514
 31
0.0
  0
LINE
  5
43E
102
{ACAD_REACTORS
330
EEF
102
}
330
1D
100
AcDbEntity
  8
CSLAYER1
  6
Continuous
100
AcDbLine
 10
372.564056718843
 20
355.221514
 30
0.0
 11
374.564056718843
 21
355.221514
 31
0.0
  0
LINE
  5
43F
102
{ACAD_REACTORS
330
DBE
330
EEF
102
}
330
1D
100
AcDbEntity
  8
CSLAYER1
  6
Continuous
100
AcDbLine
 10
374.564056718843
 20
355.421514
 30
0.0
 11
374.564056718843
 21
158.421514
 31
0.0
  0
LINE
  5
440
330
1D
100
AcDbEntity
  8
CSLAYER1
  6
Continuous
100
AcDbLine
 10
374.564056718843
 20
158.421514
 30
0.0
 11
378.564056718843
 21
158.421514
 31
0.0
  0
LINE
  5
441
330
1D
100
AcDbEntity
  8
CSLAYER1
  6
Continuous
100
AcDbLine
 10
378.564056718843
 20
158.421514
 30
0.0
 11
378.564056718843
 21
355.421514
 31
0.0
  0
LINE
  5
442
102
{ACAD_REACTORS
330
DBE
102
}
330
1D
100
AcDbEntity
  8
CSLAYER1
  6
Continuous
100
AcDbLine
 10
378.564056718843
 20
355.421514
 30
0.0
 11
374.564056718843
 21
355.421514
 31
0.0
  0
LINE
  5
443
102
{ACAD_REACTORS
330
DBE
102
}
330
1D
100
AcDbEntity
  8
CSLAYER1
  6
Continuous
100
AcDbLine
 10
376.564056718843
 20
355.421514
 30
0.0
 11
376.564056718843
 21
348.249941
 31
0.0
  0
LINE
  5
444
102
{ACAD_REACTORS
330
DBE
102
}
330
1D
100
AcDbEntity
  8
CSLAYER1
  6
Continuous
100
AcDbLine
 10
376.564056718843
 20
348.249941
 30
0.0
 11
377.978270718843
 21
346.835728
 31
0.0
  0
LINE
  5
445
102
{ACAD_REACTORS
330
DBE
102
}
330
1D
100
AcDbEntity
  8
CSLAYER1
  6
Continuous
100
AcDbLine
 10
377.978270718843
 20
346.835728
 30
0.0
 11
376.564056718843
 21
345.421514
 31
0.0
  0
LINE
  5
446
330
1D
100
AcDbEntity
  8
CSLAYER1
  6
Continuous
100
AcDbLine
 10
376.564056718843
 20
345.421514
 30
0.0
 11
376.564056718843
 21
340.421514
 31
0.0
  0
LINE
  5
447
102
{ACAD_REACTORS
330
DBE
102
}
330
1D
100
AcDbEntity
  8
CSLAYER1
  6
Continuous
100
AcDbLine
 10
376.564056718843
 20
340.421514
 30
0.0
 11
377.978270718843
 21
339.007301
 31
0.0
  0
LINE
  5
448
330
1D
100
AcDbEntity
  8
CSLAYER1
  6
Continuous
100
AcDbLine
 10
377.978270718843
 20
339.007301
 30
0.0
 11
377.978270718843
 21
346.835728
 31
0.0
  0
ARC
  5
44A
102
{ACAD_REACTORS
330
DBE
102
}
330
1D
100
AcDbEntity
  8
CSLAYER1
  6
Continuous
100
AcDbCircle
 10
376.564056718843
 20
348.249941
 30
0.0
 40
2.0
100
AcDbArc
 50
180.0
 51
225.0
  0
LINE
  5
44B
102
{ACAD_REACTORS
330
DBE
102
}
330
1D
100
AcDbEntity
  8
CSLAYER1
  6
Continuous
100
AcDbLine
 10
376.564056718843
 20
340.421514
 30
0.0
 11
375.149843718843
 21
339.007301
 31
0.0
  0
ARC
  5
44C
102
{ACAD_REACTORS
330
DBE
102
}
330
1D
100
AcDbEntity
  8
CSLAYER1
  6
Continuous
100
AcDbCircle
 10
376.564056718843
 20
337.593087
 30
0.0
 40
2.0
100
AcDbArc
 50
135.0
 51
180.0
  0
LINE
  5
44D
102
{ACAD_REACTORS
330
DBE
102
}
330
1D
100
AcDbEntity
  8
CSLAYER1
  6
Continuous
100
AcDbLine
 10
376.564056718843
 20
337.593087
 30
0.0
 11
377.978270718843
 21
339.007301
 31
0.0
  0
LINE
  5
44E
102
{ACAD_REACTORS
330
DBE
102
}
330
1D
100
AcDbEntity
  8
CSLAYER1
  6
Continuous
100
AcDbLine
 10
376.564056718843
 20
337.593087
 30
0.0
 11
376.564056718843
 21
335.978697
 31
0.0
  0
LINE
  5
44F
330
1D
100
AcDbEntity
  8
CSLAYER1
  6
Continuous
100
AcDbLine
 10
378.564056718843
 20
324.521514
 30
0.0
 11
383.964056718843
 21
324.521514
 31
0.0
  0
LINE
  5
450
330
1D
100
AcDbEntity
  8
CSLAYER1
  6
Continuous
100
AcDbLine
 10
383.964056718843
 20
324.521514
 30
0.0
 11
383.964056718843
 21
320.421514
 31
0.0
  0
ARC
  5
452
330
1D
100
AcDbEntity
  8
CSLAYER1
  6
Continuous
100
AcDbCircle
 10
383.964056718843
 20
322.921514
 30
0.0
 40
1.6
100
AcDbArc
 50
0.0
 51
90.0
  0
LINE
  5
453
330
1D
100
AcDbEntity
  8
CSLAYER1
  6
Continuous
100
AcDbLine
 10
494.564056718843
 20
241.821514
 30
0.0
 11
495.564056718843
 21
241.821514
 31
0.0
  0
ARC
  5
454
330
1D
100
AcDbEntity
  8
CSLAYER1
  6
Continuous
100
AcDbCircle
 10
495.564056718843
 20
240.821514
 30
0.0
 40
1.0
100
AcDbArc
 50
0.0
 51
90.0
  0
ARC
  5
455
330
1D
100
AcDbEntity
  8
CSLAYER1
  6
Continuous
100
AcDbCircle
 10
495.564056718843
 20
190.921514
 30
0.0
 40
1.0
100
AcDbArc
 50
270.0
 51
0.0
  0
ARC
  5
456
330
1D
100
AcDbEntity
  8
CSLAYER1
  6
Continuous
100
AcDbCircle
 10
20.9525
 20
210.721514
 30
0.0
 40
0.5
100
AcDbArc
 50
180.0
 51
270.0
  0
ARC
  5
457
330
1D
100
AcDbEntity
  8
CSLAYER1
  6
Continuous
100
AcDbCircle
 10
68.320433
 20
248.721514
 30
0.0
 40
1.0
100
AcDbArc
 50
90.0
 51
180.0
  0
ARC
  5
458
330
1D
100
AcDbEntity
  8
CSLAYER1
  6
Continuous
100
AcDbCircle
 10
85.320433
 20
246.721514
 30
0.0
 40
2.0
100
AcDbArc
 50
270.0
 51
0.0
  0
CIRCLE
  5
459
330
1D
100
AcDbEntity
  8
CSLAYER1
  6
Continuous
100
AcDbCircle
 10
76.820433
 20
305.221514
 30
0.0
 40
4.1
  0
CIRCLE
  5
45A
330
1D
100
AcDbEntity
  8
CSLAYER1
  6
Continuous
100
AcDbCircle
 10
76.820433
 20
305.221514
 30
0.0
 40
2.75
  0
ARC
  5
45B
330
1D
100
AcDbEntity
  8
CSLAYER1
  6
Continuous
100
AcDbCircle
 10
63.820433
 20
314.221514
 30
0.0
 40
1.0
100
AcDbArc
 50
90.0
 51
180.0
  0
ARC
  5
45C
330
1D
100
AcDbEntity
  8
CSLAYER1
  6
Continuous
100
AcDbCircle
 10
100.320433
 20
313.221514
 30
0.0
 40
2.0
100
AcDbArc
 50
0.0
 51
90.0
  0
LINE
  5
45D
330
1D
100
AcDbEntity
  8
CSLAYER1
  6
Continuous
100
AcDbLine
 10
372.564056718843
 20
158.621514
 30
0.0
 11
374.564056718843
 21
158.621514
 31
0.0
  0
LINE
  5
45E
330
1D
100
AcDbEntity
  8
CSLAYER1
  6
Continuous
100
AcDbLine
 10
374.564056718843
 20
108.650284
 30
0.0
 11
374.564056718843
 21
82.650284
 31
0.0
  0
LINE
  5
45F
330
1D
100
AcDbEntity
  8
CSLAYER1
  6
Continuous
100
AcDbLine
 10
374.564056718843
 20
82.650284
 30
0.0
 11
372.564056718843
 21
82.650284
 31
0.0
  0
LINE
  5
460
330
1D
100
AcDbEntity
  8
CSLAYER1
  6
Continuous
100
AcDbLine
 10
372.564056718843
 20
82.650284
 30
0.0
 11
372.564056718843
 21
108.650284
 31
0.0
  0
LINE
  5
461
330
1D
100
AcDbEntity
  8
CSLAYER1
  6
Continuous
100
AcDbLine
 10
372.564056718843
 20
108.650284
 30
0.0
 11
374.564056718843
 21
108.650284
 31
0.0
  0
LINE
  5
462
330
1D
100
AcDbEntity
  8
CSLAYER1
  6
Continuous
100
AcDbLine
 10
376.564056718843
 20
108.650284
 30
0.0
 11
378.564056718843
 21
108.650284
 31
0.0
  0
LINE
  5
463
330
1D
100
AcDbEntity
  8
CSLAYER1
  6
Continuous
100
AcDbLine
 10
378.564056718843
 20
108.650284
 30
0.0
 11
378.564056718843
 21
82.650284
 31
0.0
  0
LINE
  5
464
330
1D
100
AcDbEntity
  8
CSLAYER1
  6
Continuous
100
AcDbLine
 10
378.564056718843
 20
82.650284
 30
0.0
 11
376.564056718843
 21
82.650284
 31
0.0
  0
LINE
  5
465
330
1D
100
AcDbEntity
  8
CSLAYER1
  6
Continuous
100
AcDbLine
 10
376.564056718843
 20
85.150284
 30
0.0
 11
494.564056718843
 21
85.150284
 31
0.0
  0
LINE
  5
466
330
1D
100
AcDbEntity
  8
CSLAYER1
  6
Continuous
100
AcDbLine
 10
494.564056718843
 20
85.150284
 30
0.0
 11
494.564056718843
 21
83.650284
 31
0.0
  0
LINE
  5
467
330
1D
100
AcDbEntity
  8
CSLAYER1
  6
Continuous
100
AcDbLine
 10
494.564056718843
 20
83.650284
 30
0.0
 11
472.464056718843
 21
83.650284
 31
0.0
  0
ARC
  5
468
330
1D
100
AcDbEntity
  8
CSLAYER1
  6
Continuous
100
AcDbCircle
 10
472.464056718843
 20
85.150284
 30
0.0
 40
1.5
100
AcDbArc
 50
180.0
 51
270.0
  0
ARC
  5
469
330
1D
100
AcDbEntity
  8
CSLAYER1
  6
Continuous
100
AcDbCircle
 10
494.564056718843
 20
87.150284
 30
0.0
 40
2.0
100
AcDbArc
 50
270.0
 51
0.0
  0
LINE
  5
46A
330
1D
100
AcDbEntity
  8
CSLAYER1
  6
Continuous
100
AcDbLine
 10
496.564056718843
 20
87.150284
 30
0.0
 11
496.564056718843
 21
106.150284
 31
0.0
  0
LINE
  5
46B
330
1D
100
AcDbEntity
  8
CSLAYER1
  6
Continuous
100
AcDbLine
 10
496.564056718843
 20
106.150284
 30
0.0
 11
376.564056718843
 21
106.150284
 31
0.0
  0
LINE
  5
46C
330
1D
100
AcDbEntity
  8
CSLAYER1
  6
Continuous
100
AcDbLine
 10
376.564056718843
 20
106.150284
 30
0.0
 11
376.564056718843
 21
85.150284
 31
0.0
  0
ARC
  5
46D
330
1D
100
AcDbEntity
  8
CSLAYER1
  6
Continuous
100
AcDbCircle
 10
376.564056718843
 20
84.650284
 30
0.0
 40
2.0
100
AcDbArc
 50
180.0
 51
270.0
  0
LINE
  5
46E
330
1D
100
AcDbEntity
  8
CSLAYER1
  6
Continuous
100
AcDbLine
 10
372.564056718843
 20
88.650284
 30
0.0
 11
359.564056718843
 21
88.650284
 31
0.0
  0
LINE
  5
46F
330
1D
100
AcDbEntity
  8
CSLAYER1
  6
Continuous
100
AcDbLine
 10
359.564056718843
 20
88.650284
 30
0.0
 11
359.564056718843
 21
90.450284
 31
0.0
  0
LINE
  5
470
330
1D
100
AcDbEntity
  8
CSLAYER1
  6
Continuous
100
AcDbLine
 10
359.564056718843
 20
90.450284
 30
0.0
 11
371.564056718843
 21
102.650284
 31
0.0
  0
LINE
  5
471
330
1D
100
AcDbEntity
  8
CSLAYER1
  6
Continuous
100
AcDbLine
 10
371.564056718843
 20
102.650284
 30
0.0
 11
372.564056718843
 21
102.650284
 31
0.0
  0
LINE
  5
472
330
1D
100
AcDbEntity
  8
CSLAYER1
  6
Continuous
100
AcDbLine
 10
372.564056718843
 20
103.294255
 30
0.0
 11
362.564056718843
 21
101.650284
 31
0.0
  0
ARC
  5
473
330
1D
100
AcDbEntity
  8
CSLAYER1
  6
Continuous
100
AcDbCircle
 10
362.564056718843
 20
100.650284
 30
0.0
 40
1.0
100
AcDbArc
 50
90.0
 51
210.156129999999
  0
ARC
  5
474
330
1D
100
AcDbEntity
  8
CSLAYER1
  6
Continuous
100
AcDbCircle
 10
376.564056718843
 20
104.650284
 30
0.0
 40
15.531559
100
AcDbArc
 50
196.85104
 51
217.471354
  0
ARC
  5
475
330
1D
100
AcDbEntity
  8
CSLAYER1
  6
Continuous
100
AcDbCircle
 10
362.564056718843
 20
100.650284
 30
0.0
 40
1.0
100
AcDbArc
 50
219.771658999999
 51
220.107626
  0
ARC
  5
476
330
1D
100
AcDbEntity
  8
CSLAYER1
  6
Continuous
100
AcDbCircle
 10
362.564056718843
 20
100.650284
 30
0.0
 40
1.0
100
AcDbArc
 50
74.818397000001
 51
75.377040999998
  0
ARC
  5
477
330
1D
100
AcDbEntity
  8
CSLAYER1
  6
Continuous
100
AcDbCircle
 10
376.564056718843
 20
106.650284
 30
0.0
 40
2.0
100
AcDbArc
 50
90.0
 51
180.0
  0
ARC
  5
480
330
1D
100
AcDbEntity
  8
CSLAYER1
  6
Continuous
100
AcDbCircle
 10
472.464056718843
 20
106.150284
 30
0.0
 40
1.5
100
AcDbArc
 50
90.0
 51
180.0
  0
LINE
  5
481
330
1D
100
AcDbEntity
  8
CSLAYER1
  6
Continuous
100
AcDbLine
 10
472.464056718843
 20
107.650284
 30
0.0
 11
494.564056718843
 21
107.650284
 31
0.0
  0
LINE
  5
482
330
1D
100
AcDbEntity
  8
CSLAYER1
  6
Continuous
100
AcDbLine
 10
494.564056718843
 20
107.650284
 30
0.0
 11
494.564056718843
 21
106.150284
 31
0.0
  0
LINE
  5
487
330
1D
100
AcDbEntity
  8
CSLAYER1
  6
Continuous
100
AcDbLine
 10
389.564056718843
 20
320.421514
 30
0.0
 11
389.564056718843
 21
320.821514
 31
0.0
  0
ARC
  5
488
330
1D
100
AcDbEntity
  8
CSLAYER1
  6
Continuous
100
AcDbCircle
 10
391.564056718843
 20
320.821514
 30
0.0
 40
2.0
100
AcDbArc
 50
90.0
 51
180.0
  0
TEXT
  5
496
330
1D
100
AcDbEntity
  8
CSLAYER10
100
AcDbText
 10
509.15
 20
13.781873
 30
0.0
 40
2.7
  1
 
 41
1.666666666667
  7
FX_FONT
 72
     5
 11
511.85
 21
13.781873
 31
0.0
100
AcDbText
  0
TEXT
  5
508
330
1D
100
AcDbEntity
  8
CSLAYER10
100
AcDbText
 10
123.363716
 20
248.470886
 30
0.0
 40
4.0
  1
125
 50
90.0
 41
0.794117647059
  7
FX_FONT
 72
     5
 11
123.363716
 21
257.470886
 31
0.0
100
AcDbText
  0
TEXT
  5
509
330
1D
100
AcDbEntity
  8
CSLAYER10
100
AcDbText
 10
114.090622
 20
248.627686
 30
0.0
 40
4.0
  1
105
 50
90.0
 41
0.793728564429
  7
FX_FONT
 72
     5
 11
114.090622
 21
257.627686
 31
0.0
100
AcDbText
  0
TEXT
  5
50A
330
1D
100
AcDbEntity
  8
CSLAYER10
100
AcDbText
 10
51.866821
 20
229.543198
 30
0.0
 40
4.0
  1
38
 50
90.0
 41
0.818181818182
  7
FX_FONT
 72
     5
 11
51.866821
 21
235.543198
 31
0.0
100
AcDbText
  0
LINE
  5
534
330
1D
100
AcDbEntity
  8
CSLAYER10
  6
Continuous
100
AcDbLine
 10
102.320365
 20
106.803155
 30
0.0
 11
102.320365
 21
150.09255
 31
0.0
  0
LINE
  5
535
330
1D
100
AcDbEntity
  8
CSLAYER10
  6
Continuous
100
AcDbLine
 10
88.818299
 20
132.00146
 30
0.0
 11
88.818299
 21
116.817866
 31
0.0
  0
LINE
  5
536
330
1D
100
AcDbEntity
  8
CSLAYER10
  6
Continuous
100
AcDbLine
 10
76.820433
 20
116.158047
 30
0.0
 11
76.820433
 21
106.721514
 31
0.0
  0
LINE
  5
537
330
1D
100
AcDbEntity
  8
CSLAYER10
  6
Continuous
 48
0.5
100
AcDbLine
 10
76.820433
 20
123.405435
 30
0.0
 11
76.820433
 21
154.154523
 31
0.0
  0
LINE
  5
538
330
1D
100
AcDbEntity
  8
CSLAYER10
  6
Continuous
 48
0.5
100
AcDbLine
 10
76.820433
 20
174.221514
 30
0.0
 11
76.820433
 21
225.783072
 31
0.0
  0
LINE
  5
539
330
1D
100
AcDbEntity
  8
CSLAYER10
  6
Continuous
 48
0.5
100
AcDbLine
 10
76.820433
 20
233.218002
 30
0.0
 11
76.820433
 21
275.982709
 31
0.0
  0
LINE
  5
53A
330
1D
100
AcDbEntity
  8
CSLAYER10
  6
Continuous
 48
0.3
100
AcDbLine
 10
69.650236
 20
305.221514
 30
0.0
 11
83.99063
 21
305.221514
 31
0.0
  0
LINE
  5
53B
330
1D
100
AcDbEntity
  8
CSLAYER10
  6
Continuous
 48
0.3
100
AcDbLine
 10
45.634799
 20
305.221514
 30
0.0
 11
32.146627
 21
305.221514
 31
0.0
  0
LINE
  5
53C
330
1D
100
AcDbEntity
  8
CSLAYER10
  6
Continuous
 48
0.3
100
AcDbLine
 10
43.182087
 20
252.721514
 30
0.0
 11
18.598553
 21
252.721514
 31
0.0
  0
LINE
  5
53D
330
1D
100
AcDbEntity
  8
CSLAYER10
  6
Continuous
 48
0.5
100
AcDbLine
 10
59.460174
 20
252.721514
 30
0.0
 11
105.994365
 21
252.721514
 31
0.0
  0
LINE
  5
53E
330
1D
100
AcDbEntity
  8
CSLAYER10
  6
Continuous
 48
0.5
100
AcDbLine
 10
223.580745
 20
148.514394
 30
0.0
 11
223.580745
 21
205.141425
 31
0.0
  0
LINE
  5
540
330
1D
100
AcDbEntity
  8
CSLAYER10
  6
Continuous
 48
0.5
100
AcDbLine
 10
223.580745
 20
210.71442080579
 30
0.0
 11
223.580745
 21
362.046959
 31
0.0
  0
LINE
  5
541
330
1D
100
AcDbEntity
  8
CSLAYER10
  6
Continuous
100
AcDbLine
 10
185.580745
 20
380.283526
 30
0.0
 11
185.580745
 21
317.528204
 31
0.0
  0
LINE
  5
552
330
1D
100
AcDbEntity
  8
CSLAYER10
  6
Continuous
100
AcDbLine
 10
347.537608718843
 20
95.650284
 30
0.0
 11
498.998475718843
 21
95.650284
 31
0.0
  0
LINE
  5
57E
330
1D
100
AcDbEntity
  8
CSLAYER10
  6
PHANTOM
100
AcDbLine
 10
443.215244718843
 20
71.984671
 30
0.0
 11
437.564056718843
 21
81.650284
 31
0.0
  0
LINE
  5
57F
330
1D
100
AcDbEntity
  8
CSLAYER10
  6
PHANTOM
100
AcDbLine
 10
437.564056718843
 20
81.650284
 30
0.0
 11
432.948872718843
 21
85.111672
 31
0.0
  0
LINE
  5
580
330
1D
100
AcDbEntity
  8
CSLAYER10
  6
Continuous
 48
0.5
100
AcDbLine
 10
442.564056718843
 20
80.951379
 30
0.0
 11
442.564056718843
 21
110.349189
 31
0.0
  0
LINE
  5
581
330
1D
100
AcDbEntity
  8
CSLAYER10
  6
PHANTOM
100
AcDbLine
 10
437.564056718843
 20
109.650284
 30
0.0
 11
443.215244718843
 21
119.315897
 31
0.0
  0
ARC
  5
582
330
1D
100
AcDbEntity
  8
CSLAYER10
  6
PHANTOM
100
AcDbCircle
 10
446.064056718843
 20
117.650284
 30
0.0
 40
3.3
100
AcDbArc
 50
356.171622
 51
149.686484
  0
LINE
  5
583
330
1D
100
AcDbEntity
  8
CSLAYER10
  6
PHANTOM
100
AcDbLine
 10
437.564056718843
 20
109.650284
 30
0.0
 11
433.031181718843
 21
106.250627
 31
0.0
  0
ARC
  5
584
330
1D
100
AcDbEntity
  8
CSLAYER10
  6
PHANTOM
100
AcDbCircle
 10
419.423637718843
 20
119.432992
 30
0.0
 40
30.0
100
AcDbArc
 50
333.745573
 51
356.171622
  0
ARC
  5
585
330
1D
100
AcDbEntity
  8
CSLAYER10
  6
PHANTOM
100
AcDbCircle
 10
419.423637718843
 20
71.867576
 30
0.0
 40
30.0
100
AcDbArc
 50
3.828378
 51
26.363401
  0
ARC
  5
586
330
1D
100
AcDbEntity
  8
CSLAYER10
  6
PHANTOM
100
AcDbCircle
 10
446.064056718843
 20
73.650284
 30
0.0
 40
3.3
100
AcDbArc
 50
210.313516
 51
3.828378
  0
ARC
  5
587
102
{ACAD_REACTORS
330
DB4
102
}
330
1D
100
AcDbEntity
  8
CSLAYER10
  6
PHANTOM
100
AcDbCircle
 10
464.564056718843
 20
211.921514
 30
0.0
 40
5.0
100
AcDbArc
 50
263.475021
 51
96.524979
  0
ARC
  5
588
102
{ACAD_REACTORS
330
DB4
102
}
330
1D
100
AcDbEntity
  8
CSLAYER10
  6
PHANTOM
100
AcDbCircle
 10
442.564056718843
 20
211.921514
 30
0.0
 40
22.0
100
AcDbArc
 50
13.049958
 51
166.950042
  0
ARC
  5
589
102
{ACAD_REACTORS
330
DB4
102
}
330
1D
100
AcDbEntity
  8
CSLAYER10
  6
PHANTOM
100
AcDbCircle
 10
420.564056718843
 20
211.921514
 30
0.0
 40
5.0
100
AcDbArc
 50
83.475021
 51
276.524979
  0
ARC
  5
58A
102
{ACAD_REACTORS
330
DB4
102
}
330
1D
100
AcDbEntity
  8
CSLAYER10
  6
PHANTOM
100
AcDbCircle
 10
442.564056718843
 20
211.921514
 30
0.0
 40
22.0
100
AcDbArc
 50
193.049958
 51
346.950042
  0
LINE
  5
58B
330
1D
100
AcDbEntity
  8
CSLAYER1
  6
Continuous
100
AcDbLine
 10
537.599055718843
 20
249.66578
 30
0.0
 11
537.599055718843
 21
254.66578
 31
0.0
  0
LINE
  5
58C
330
1D
100
AcDbEntity
  8
CSLAYER1
  6
Continuous
100
AcDbLine
 10
537.249055718843
 20
254.66578
 30
0.0
 11
537.249055718843
 21
284.66578
 31
0.0
  0
LINE
  5
58D
330
1D
100
AcDbEntity
  8
CSLAYER1
  6
Continuous
100
AcDbLine
 10
538.749055718843
 20
284.66578
 30
0.0
 11
538.749055718843
 21
254.66578
 31
0.0
  0
LINE
  5
58E
330
1D
100
AcDbEntity
  8
CSLAYER1
  6
Continuous
100
AcDbLine
 10
538.399055718843
 20
254.66578
 30
0.0
 11
538.399055718843
 21
249.66578
 31
0.0
  0
LINE
  5
58F
330
1D
100
AcDbEntity
  8
CSLAYER1
  6
Continuous
100
AcDbLine
 10
538.399055718843
 20
249.66578
 30
0.0
 11
537.599055718843
 21
249.66578
 31
0.0
  0
LINE
  5
590
330
1D
100
AcDbEntity
  8
CSLAYER1
  6
Continuous
100
AcDbLine
 10
539.099055718843
 20
249.66578
 30
0.0
 11
539.099055718843
 21
254.66578
 31
0.0
  0
LINE
  5
591
330
1D
100
AcDbEntity
  8
CSLAYER1
  6
Continuous
100
AcDbLine
 10
539.899055718843
 20
254.66578
 30
0.0
 11
539.899055718843
 21
249.66578
 31
0.0
  0
LINE
  5
592
330
1D
100
AcDbEntity
  8
CSLAYER1
  6
Continuous
100
AcDbLine
 10
539.899055718843
 20
249.66578
 30
0.0
 11
539.099055718843
 21
249.66578
 31
0.0
  0
LINE
  5
593
330
1D
100
AcDbEntity
  8
CSLAYER1
  6
Continuous
100
AcDbLine
 10
540.249055718843
 20
254.66578
 30
0.0
 11
540.249055718843
 21
284.66578
 31
0.0
  0
LINE
  5
594
330
1D
100
AcDbEntity
  8
CSLAYER1
  6
Continuous
100
AcDbLine
 10
541.749055718843
 20
284.66578
 30
0.0
 11
541.749055718843
 21
262.66578
 31
0.0
  0
ARC
  5
595
330
1D
100
AcDbEntity
  8
CSLAYER1
  6
Continuous
100
AcDbCircle
 10
544.749055718843
 20
262.66578
 30
0.0
 40
3.0
100
AcDbArc
 50
180.0
 51
270.0
  0
LINE
  5
596
330
1D
100
AcDbEntity
  8
CSLAYER1
  6
Continuous
100
AcDbLine
 10
544.749055718843
 20
259.66578
 30
0.0
 11
545.749055718843
 21
259.66578
 31
0.0
  0
LINE
  5
597
330
1D
100
AcDbEntity
  8
CSLAYER1
  6
Continuous
100
AcDbLine
 10
545.749055718843
 20
259.66578
 30
0.0
 11
545.749055718843
 21
258.16578
 31
0.0
  0
LINE
  5
598
330
1D
100
AcDbEntity
  8
CSLAYER1
  6
Continuous
100
AcDbLine
 10
545.749055718843
 20
258.16578
 30
0.0
 11
544.749055718843
 21
258.16578
 31
0.0
  0
LINE
  5
599
330
1D
100
AcDbEntity
  8
CSLAYER1
  6
Continuous
100
AcDbLine
 10
545.749055718843
 20
258.51578
 30
0.0
 11
550.749055718843
 21
258.51578
 31
0.0
  0
LINE
  5
59A
330
1D
100
AcDbEntity
  8
CSLAYER1
  6
Continuous
100
AcDbLine
 10
550.749055718843
 20
258.51578
 30
0.0
 11
550.749055718843
 21
259.31578
 31
0.0
  0
LINE
  5
59B
330
1D
100
AcDbEntity
  8
CSLAYER1
  6
Continuous
100
AcDbLine
 10
550.749055718843
 20
259.31578
 30
0.0
 11
545.749055718843
 21
259.31578
 31
0.0
  0
ARC
  5
59C
330
1D
100
AcDbEntity
  8
CSLAYER1
  6
Continuous
100
AcDbCircle
 10
544.749055718843
 20
262.66578
 30
0.0
 40
4.5
100
AcDbArc
 50
180.0
 51
270.0
  0
LINE
  5
59D
330
1D
100
AcDbEntity
  8
CSLAYER1
  6
Continuous
100
AcDbLine
 10
540.249055718843
 20
254.66578
 30
0.0
 11
537.249055718843
 21
254.66578
 31
0.0
  0
LINE
  5
59E
330
1D
100
AcDbEntity
  8
CSLAYER1
  6
Continuous
100
AcDbLine
 10
537.249055718843
 20
316.36578
 30
0.0
 11
537.249055718843
 21
338.277164
 31
0.0
  0
ARC
  5
59F
330
1D
100
AcDbEntity
  8
CSLAYER1
  6
Continuous
100
AcDbCircle
 10
534.249055718843
 20
338.277164
 30
0.0
 40
3.0
100
AcDbArc
 50
0.0
 51
90.0
  0
LINE
  5
5A0
330
1D
100
AcDbEntity
  8
CSLAYER1
  6
Continuous
100
AcDbLine
 10
534.249055718843
 20
341.277164
 30
0.0
 11
479.064056718843
 21
341.277164
 31
0.0
  0
ARC
  5
5A1
330
1D
100
AcDbEntity
  8
CSLAYER1
  6
Continuous
100
AcDbCircle
 10
479.064056718843
 20
338.277164
 30
0.0
 40
3.0
100
AcDbArc
 50
90.0
 51
180.0
  0
LINE
  5
5A2
330
1D
100
AcDbEntity
  8
CSLAYER1
  6
Continuous
100
AcDbLine
 10
476.064056718843
 20
338.277164
 30
0.0
 11
476.064056718843
 21
325.121514
 31
0.0
  0
LINE
  5
5A3
330
1D
100
AcDbEntity
  8
CSLAYER1
  6
Continuous
100
AcDbLine
 10
474.564056718843
 20
325.121514
 30
0.0
 11
474.564056718843
 21
338.277164
 31
0.0
  0
LINE
  5
5A4
330
1D
100
AcDbEntity
  8
CSLAYER1
  6
Continuous
100
AcDbLine
 10
473.064056718843
 20
338.277164
 30
0.0
 11
473.064056718843
 21
325.121514
 31
0.0
  0
LINE
  5
5A5
330
1D
100
AcDbEntity
  8
CSLAYER1
  6
Continuous
100
AcDbLine
 10
471.564056718843
 20
325.121514
 30
0.0
 11
471.564056718843
 21
338.277164
 31
0.0
  0
LINE
  5
5A6
330
1D
100
AcDbEntity
  8
CSLAYER1
  6
Continuous
100
AcDbLine
 10
479.064056718843
 20
342.777164
 30
0.0
 11
534.249055718843
 21
342.777164
 31
0.0
  0
LINE
  5
5A7
330
1D
100
AcDbEntity
  8
CSLAYER1
  6
Continuous
100
AcDbLine
 10
534.249055718843
 20
344.277164
 30
0.0
 11
479.064056718843
 21
344.277164
 31
0.0
  0
ARC
  5
5A8
330
1D
100
AcDbEntity
  8
CSLAYER1
  6
Continuous
100
AcDbCircle
 10
479.064056718843
 20
338.277164
 30
0.0
 40
6.0
100
AcDbArc
 50
90.0
 51
180.0
  0
ARC
  5
5A9
330
1D
100
AcDbEntity
  8
CSLAYER1
  6
Continuous
100
AcDbCircle
 10
479.064056718843
 20
338.277164
 30
0.0
 40
4.5
100
AcDbArc
 50
90.0
 51
180.0
  0
LINE
  5
5AA
330
1D
100
AcDbEntity
  8
CSLAYER1
  6
Continuous
100
AcDbLine
 10
479.064056718843
 20
345.777164
 30
0.0
 11
534.249055718843
 21
345.777164
 31
0.0
  0
LINE
  5
5AB
330
1D
100
AcDbEntity
  8
CSLAYER1
  6
Continuous
100
AcDbLine
 10
538.749055718843
 20
338.277164
 30
0.0
 11
538.749055718843
 21
316.36578
 31
0.0
  0
LINE
  5
5AC
330
1D
100
AcDbEntity
  8
CSLAYER1
  6
Continuous
100
AcDbLine
 10
540.249055718843
 20
316.36578
 30
0.0
 11
540.249055718843
 21
338.277164
 31
0.0
  0
ARC
  5
5AD
330
1D
100
AcDbEntity
  8
CSLAYER1
  6
Continuous
100
AcDbCircle
 10
534.249055718843
 20
338.277164
 30
0.0
 40
6.0
100
AcDbArc
 50
0.0
 51
90.0
  0
ARC
  5
5AE
330
1D
100
AcDbEntity
  8
CSLAYER1
  6
Continuous
100
AcDbCircle
 10
534.249055718843
 20
338.277164
 30
0.0
 40
4.5
100
AcDbArc
 50
0.0
 51
90.0
  0
LINE
  5
5AF
330
1D
100
AcDbEntity
  8
CSLAYER1
  6
Continuous
100
AcDbLine
 10
541.749055718843
 20
338.277164
 30
0.0
 11
541.749055718843
 21
316.36578
 31
0.0
  0
LINE
  5
5B0
330
1D
100
AcDbEntity
  8
CSLAYER10
  6
Continuous
100
AcDbLine
 10
545.749055718843
 20
316.36578
 30
0.0
 11
549.893319718843
 21
316.36578
 31
0.0
  0
ARC
  5
5B1
330
1D
100
AcDbEntity
  8
CSLAYER1
  6
Continuous
100
AcDbCircle
 10
534.249055718843
 20
338.277164
 30
0.0
 40
7.5
100
AcDbArc
 50
0.0
 51
90.0
  0
ARC
  5
5B2
330
1D
100
AcDbEntity
  8
CSLAYER1
  6
Continuous
100
AcDbCircle
 10
479.064056718843
 20
338.277164
 30
0.0
 40
7.5
100
AcDbArc
 50
90.0
 51
180.0
  0
CIRCLE
  5
5B3
102
{ACAD_REACTORS
330
DB9
102
}
330
1D
100
AcDbEntity
  8
CSLAYER10
  6
PHANTOM
100
AcDbCircle
 10
442.564056718843
 20
296.921514
 30
0.0
 40
17.0
  0
LINE
  5
5B5
330
1D
100
AcDbEntity
  8
CSLAYER1
  6
Continuous
100
AcDbLine
 10
387.564056718843
 20
320.421514
 30
0.0
 11
387.564056718843
 21
321.421514
 31
0.0
  0
LINE
  5
5B6
330
1D
100
AcDbEntity
  8
CSLAYER1
  6
Continuous
100
AcDbLine
 10
387.564056718843
 20
321.421514
 30
0.0
 11
385.564056718843
 21
321.421514
 31
0.0
  0
LINE
  5
5B7
330
1D
100
AcDbEntity
  8
CSLAYER1
  6
Continuous
100
AcDbLine
 10
385.564056718843
 20
322.921514
 30
0.0
 11
385.564056718843
 21
320.421514
 31
0.0
  0
LINE
  5
5B8
330
1D
100
AcDbEntity
  8
CSLAYER10
  6
Continuous
 48
0.3
100
AcDbLine
 10
83.99063
 20
200.221514
 30
0.0
 11
69.650236
 21
200.221514
 31
0.0
  0
LINE
  5
5B9
330
1D
100
AcDbEntity
  8
CSLAYER10
  6
Continuous
 48
0.3
100
AcDbLine
 10
48.332433
 20
200.221514
 30
0.0
 11
33.495444
 21
200.221514
 31
0.0
  0
LINE
  5
5BC
330
1D
100
AcDbEntity
  8
CSLAYER1
  6
Continuous
100
AcDbLine
 10
85.320433
 20
293.721514
 30
0.0
 11
68.320433
 21
293.721514
 31
0.0
  0
LINE
  5
5BD
330
1D
100
AcDbEntity
  8
CSLAYER1
  6
Continuous
100
AcDbLine
 10
67.320433
 20
292.721514
 30
0.0
 11
67.320433
 21
256.721514
 31
0.0
  0
LINE
  5
5BE
330
1D
100
AcDbEntity
  8
CSLAYER1
  6
Continuous
100
AcDbLine
 10
68.320433
 20
255.721514
 30
0.0
 11
85.320433
 21
255.721514
 31
0.0
  0
LINE
  5
5BF
330
1D
100
AcDbEntity
  8
CSLAYER1
  6
Continuous
100
AcDbLine
 10
87.320433
 20
257.721514
 30
0.0
 11
87.320433
 21
258.721514
 31
0.0
  0
ARC
  5
5C0
330
1D
100
AcDbEntity
  8
CSLAYER1
  6
Continuous
100
AcDbCircle
 10
85.320433
 20
257.721514
 30
0.0
 40
2.0
100
AcDbArc
 50
270.0
 51
0.0
  0
LINE
  5
5C1
330
1D
100
AcDbEntity
  8
CSLAYER1
  6
Continuous
100
AcDbLine
 10
85.320433
 20
260.721514
 30
0.0
 11
85.320433
 21
288.721514
 31
0.0
  0
LINE
  5
5C2
330
1D
100
AcDbEntity
  8
CSLAYER1
  6
Continuous
100
AcDbLine
 10
87.320433
 20
290.721514
 30
0.0
 11
87.320433
 21
291.721514
 31
0.0
  0
ARC
  5
5C3
330
1D
100
AcDbEntity
  8
CSLAYER1
  6
Continuous
100
AcDbCircle
 10
85.320433
 20
290.721514
 30
0.0
 40
2.0
100
AcDbArc
 50
270.0
 51
0.0
  0
ARC
  5
5C4
330
1D
100
AcDbEntity
  8
CSLAYER1
  6
Continuous
100
AcDbCircle
 10
85.320433
 20
291.721514
 30
0.0
 40
2.0
100
AcDbArc
 50
0.0
 51
90.0
  0
ARC
  5
5C5
330
1D
100
AcDbEntity
  8
CSLAYER1
  6
Continuous
100
AcDbCircle
 10
68.320433
 20
292.721514
 30
0.0
 40
1.0
100
AcDbArc
 50
90.0
 51
180.0
  0
ARC
  5
5C6
330
1D
100
AcDbEntity
  8
CSLAYER1
  6
Continuous
100
AcDbCircle
 10
68.320433
 20
256.721514
 30
0.0
 40
1.0
100
AcDbArc
 50
180.0
 51
270.0
  0
ARC
  5
5C7
330
1D
100
AcDbEntity
  8
CSLAYER1
  6
Continuous
100
AcDbCircle
 10
85.320433
 20
258.721514
 30
0.0
 40
2.0
100
AcDbArc
 50
0.0
 51
90.0
  0
LINE
  5
5CB
330
1D
100
AcDbEntity
  8
CSLAYER10
  6
Continuous
 48
0.5
100
AcDbLine
 10
76.820433
 20
283.742775
 30
0.0
 11
76.820433
 21
319.203673
 31
0.0
  0
ARC
  5
5CC
330
1D
100
AcDbEntity
  8
CSLAYER1
  6
Continuous
100
AcDbCircle
 10
199.080745
 20
241.871514
 30
0.0
 40
1.5
100
AcDbArc
 50
90.0
 51
180.0
  0
ARC
  5
5CD
330
1D
100
AcDbEntity
  8
CSLAYER1
  6
Continuous
100
AcDbCircle
 10
190.080745
 20
226.421514
 30
0.0
 40
1.5
100
AcDbArc
 50
125.207244
 51
180.0
  0
ARC
  5
5CE
330
1D
100
AcDbEntity
  8
CSLAYER1
  6
Continuous
100
AcDbCircle
 10
190.080745
 20
197.421514
 30
0.0
 40
1.5
100
AcDbArc
 50
180.0
 51
234.792756
  0
LINE
  5
5CF
330
1D
100
AcDbEntity
  8
CSLAYER1
  6
Continuous
100
AcDbLine
 10
205.580745
 20
243.371514
 30
0.0
 11
199.080745
 21
243.371514
 31
0.0
  0
LINE
  5
5D0
330
1D
100
AcDbEntity
  8
CSLAYER1
  6
Continuous
100
AcDbLine
 10
188.580745
 20
226.421514
 30
0.0
 11
188.580745
 21
197.421514
 31
0.0
  0
LINE
  5
5D1
330
1D
100
AcDbEntity
  8
CSLAYER1
  6
Continuous
100
AcDbLine
 10
205.580745
 20
180.471514
 30
0.0
 11
199.080745
 21
180.471514
 31
0.0
  0
ARC
  5
5D2
330
1D
100
AcDbEntity
  8
CSLAYER1
  6
Continuous
100
AcDbCircle
 10
177.685229
 20
243.988562
 30
0.0
 40
20.0
100
AcDbArc
 50
305.207244
 51
354.349079
  0
ARC
  5
5D3
330
1D
100
AcDbEntity
  8
CSLAYER1
  6
Continuous
100
AcDbCircle
 10
199.080745
 20
181.971514
 30
0.0
 40
1.5
100
AcDbArc
 50
180.0
 51
270.0
  0
LINE
  5
5D4
330
1D
100
AcDbEntity
  8
CSLAYER1
  6
Continuous
100
AcDbLine
 10
205.580745
 20
243.371514
 30
0.0
 11
205.580745
 21
180.471514
 31
0.0
  0
ARC
  5
5D5
330
1D
100
AcDbEntity
  8
CSLAYER1
  6
Continuous
100
AcDbCircle
 10
177.685229
 20
179.854466
 30
0.0
 40
20.0
100
AcDbArc
 50
5.650921
 51
54.792756
  0
LINE
  5
5D6
330
1D
100
AcDbEntity
  8
CSLAYER1
  6
Continuous
100
AcDbLine
 10
187.580745
 20
222.921514
 30
0.0
 11
187.580745
 21
200.921514
 31
0.0
  0
LINE
  5
5D7
330
1D
100
AcDbEntity
  8
CSLAYER1
  6
Continuous
100
AcDbLine
 10
187.580745
 20
200.921514
 30
0.0
 11
143.580745
 21
200.921514
 31
0.0
  0
ARC
  5
5D8
330
1D
100
AcDbEntity
  8
CSLAYER1
  6
Continuous
100
AcDbCircle
 10
143.580745
 20
211.921514
 30
0.0
 40
11.0
100
AcDbArc
 50
90.0
 51
270.0
  0
LINE
  5
5D9
330
1D
100
AcDbEntity
  8
CSLAYER1
  6
Continuous
100
AcDbLine
 10
143.580745
 20
222.921514
 30
0.0
 11
187.580745
 21
222.921514
 31
0.0
  0
LINE
  5
5DA
330
1D
100
AcDbEntity
  8
CSLAYER1
  6
Continuous
100
AcDbLine
 10
187.580745
 20
222.421514
 30
0.0
 11
188.580745
 21
222.421514
 31
0.0
  0
LINE
  5
5DB
330
1D
100
AcDbEntity
  8
CSLAYER1
  6
Continuous
100
AcDbLine
 10
181.879783
 20
212.671514
 30
0.0
 11
180.580745
 21
213.421514
 31
0.0
  0
LINE
  5
5DC
330
1D
100
AcDbEntity
  8
CSLAYER1
  6
Continuous
100
AcDbLine
 10
180.580745
 20
213.421514
 30
0.0
 11
179.281706
 21
212.671514
 31
0.0
  0
LINE
  5
5DD
330
1D
100
AcDbEntity
  8
CSLAYER1
  6
Continuous
100
AcDbLine
 10
179.281706
 20
212.671514
 30
0.0
 11
179.281706
 21
211.171514
 31
0.0
  0
LINE
  5
5DE
330
1D
100
AcDbEntity
  8
CSLAYER1
  6
Continuous
100
AcDbLine
 10
179.281706
 20
211.171514
 30
0.0
 11
180.580745
 21
210.421514
 31
0.0
  0
LINE
  5
5DF
330
1D
100
AcDbEntity
  8
CSLAYER1
  6
Continuous
100
AcDbLine
 10
180.580745
 20
210.421514
 30
0.0
 11
181.879783
 21
211.171514
 31
0.0
  0
LINE
  5
5E0
330
1D
100
AcDbEntity
  8
CSLAYER1
  6
Continuous
100
AcDbLine
 10
181.879783
 20
211.171514
 30
0.0
 11
181.879783
 21
212.671514
 31
0.0
  0
CIRCLE
  5
5E1
330
1D
100
AcDbEntity
  8
CSLAYER1
  6
Continuous
100
AcDbCircle
 10
180.580745
 20
211.921514
 30
0.0
 40
2.1
  0
LINE
  5
5E2
330
1D
100
AcDbEntity
  8
CSLAYER1
  6
Continuous
100
AcDbLine
 10
187.580745
 20
201.421514
 30
0.0
 11
188.580745
 21
201.421514
 31
0.0
  0
ARC
  5
5E3
330
1D
100
AcDbEntity
  8
CSLAYER10
  6
DASHED
100
AcDbCircle
 10
143.580745
 20
211.921514
 30
0.0
 40
11.0
100
AcDbArc
 50
270.0
 51
90.0
  0
LINE
  5
5E4
330
1D
100
AcDbEntity
  8
CSLAYER10
  6
Continuous
 48
0.3
100
AcDbLine
 10
143.580745
 20
226.221514
 30
0.0
 11
143.580745
 21
197.621514
 31
0.0
  0
LINE
  5
5E5
330
1D
100
AcDbEntity
  8
CSLAYER10
  6
Continuous
 48
0.1
100
AcDbLine
 10
180.580745
 20
209.191514
 30
0.0
 11
180.580745
 21
214.651514
 31
0.0
  0
LINE
  5
5E7
330
1D
100
AcDbEntity
  8
CSLAYER1
  6
Continuous
100
AcDbLine
 10
198.080745
 20
181.921514
 30
0.0
 11
198.080745
 21
241.921514
 31
0.0
  0
LINE
  5
5E8
330
1D
100
AcDbEntity
  8
CSLAYER10
  6
Continuous
 48
0.5
100
AcDbLine
 10
129.559955
 20
211.921514
 30
0.0
 11
269.690433
 21
211.921514
 31
0.0
  0
ARC
  5
5E9
330
1D
100
AcDbEntity
  8
CSLAYER1
  6
Continuous
100
AcDbCircle
 10
248.080745
 20
241.871514
 30
0.0
 40
1.5
100
AcDbArc
 50
0.0
 51
90.0
  0
ARC
  5
5EA
330
1D
100
AcDbEntity
  8
CSLAYER1
  6
Continuous
100
AcDbCircle
 10
257.080745
 20
226.421514
 30
0.0
 40
1.5
100
AcDbArc
 50
0.0
 51
54.792756
  0
ARC
  5
5EB
330
1D
100
AcDbEntity
  8
CSLAYER1
  6
Continuous
100
AcDbCircle
 10
257.080745
 20
197.421514
 30
0.0
 40
1.5
100
AcDbArc
 50
305.207244
 51
0.0
  0
LINE
  5
5EC
330
1D
100
AcDbEntity
  8
CSLAYER1
  6
Continuous
100
AcDbLine
 10
241.580745
 20
243.371514
 30
0.0
 11
248.080745
 21
243.371514
 31
0.0
  0
LINE
  5
5ED
330
1D
100
AcDbEntity
  8
CSLAYER1
  6
Continuous
100
AcDbLine
 10
258.580745
 20
226.421514
 30
0.0
 11
258.580745
 21
197.421514
 31
0.0
  0
LINE
  5
5EE
330
1D
100
AcDbEntity
  8
CSLAYER1
  6
Continuous
100
AcDbLine
 10
241.580745
 20
180.471514
 30
0.0
 11
248.080745
 21
180.471514
 31
0.0
  0
ARC
  5
5EF
330
1D
100
AcDbEntity
  8
CSLAYER1
  6
Continuous
100
AcDbCircle
 10
269.476261
 20
243.988562
 30
0.0
 40
20.0
100
AcDbArc
 50
185.650921
 51
234.792756
  0
ARC
  5
5F0
330
1D
100
AcDbEntity
  8
CSLAYER1
  6
Continuous
100
AcDbCircle
 10
248.080745
 20
181.971514
 30
0.0
 40
1.5
100
AcDbArc
 50
270.0
 51
0.0
  0
LINE
  5
5F1
330
1D
100
AcDbEntity
  8
CSLAYER1
  6
Continuous
100
AcDbLine
 10
241.580745
 20
243.371514
 30
0.0
 11
241.580745
 21
180.471514
 31
0.0
  0
ARC
  5
5F2
330
1D
100
AcDbEntity
  8
CSLAYER1
  6
Continuous
100
AcDbCircle
 10
269.476261
 20
179.854466
 30
0.0
 40
20.0
100
AcDbArc
 50
125.207244
 51
174.349079
  0
LINE
  5
5F3
330
1D
100
AcDbEntity
  8
CSLAYER1
  6
Continuous
100
AcDbLine
 10
259.580745
 20
222.921514
 30
0.0
 11
259.580745
 21
200.921514
 31
0.0
  0
LINE
  5
5F4
330
1D
100
AcDbEntity
  8
CSLAYER1
  6
Continuous
100
AcDbLine
 10
259.580745
 20
200.921514
 30
0.0
 11
303.580745
 21
200.921514
 31
0.0
  0
ARC
  5
5F5
330
1D
100
AcDbEntity
  8
CSLAYER1
  6
Continuous
100
AcDbCircle
 10
303.580745
 20
211.921514
 30
0.0
 40
11.0
100
AcDbArc
 50
270.0
 51
90.0
  0
LINE
  5
5F6
330
1D
100
AcDbEntity
  8
CSLAYER1
  6
Continuous
100
AcDbLine
 10
303.580745
 20
222.921514
 30
0.0
 11
259.580745
 21
222.921514
 31
0.0
  0
LINE
  5
5F7
330
1D
100
AcDbEntity
  8
CSLAYER1
  6
Continuous
100
AcDbLine
 10
259.580745
 20
222.421514
 30
0.0
 11
258.580745
 21
222.421514
 31
0.0
  0
LINE
  5
5F8
330
1D
100
AcDbEntity
  8
CSLAYER1
  6
Continuous
100
AcDbLine
 10
265.281706
 20
212.671514
 30
0.0
 11
266.580745
 21
213.421514
 31
0.0
  0
LINE
  5
5F9
330
1D
100
AcDbEntity
  8
CSLAYER1
  6
Continuous
100
AcDbLine
 10
266.580745
 20
213.421514
 30
0.0
 11
267.879783
 21
212.671514
 31
0.0
  0
LINE
  5
5FA
330
1D
100
AcDbEntity
  8
CSLAYER1
  6
Continuous
100
AcDbLine
 10
267.879783
 20
212.671514
 30
0.0
 11
267.879783
 21
211.171514
 31
0.0
  0
LINE
  5
5FB
330
1D
100
AcDbEntity
  8
CSLAYER1
  6
Continuous
100
AcDbLine
 10
267.879783
 20
211.171514
 30
0.0
 11
266.580745
 21
210.421514
 31
0.0
  0
LINE
  5
5FC
330
1D
100
AcDbEntity
  8
CSLAYER1
  6
Continuous
100
AcDbLine
 10
266.580745
 20
210.421514
 30
0.0
 11
265.281706
 21
211.171514
 31
0.0
  0
LINE
  5
5FD
330
1D
100
AcDbEntity
  8
CSLAYER1
  6
Continuous
100
AcDbLine
 10
265.281706
 20
211.171514
 30
0.0
 11
265.281706
 21
212.671514
 31
0.0
  0
CIRCLE
  5
5FE
330
1D
100
AcDbEntity
  8
CSLAYER1
  6
Continuous
100
AcDbCircle
 10
266.580745
 20
211.921514
 30
0.0
 40
2.1
  0
LINE
  5
5FF
330
1D
100
AcDbEntity
  8
CSLAYER1
  6
Continuous
100
AcDbLine
 10
259.580745
 20
201.421514
 30
0.0
 11
258.580745
 21
201.421514
 31
0.0
  0
ARC
  5
600
330
1D
100
AcDbEntity
  8
CSLAYER10
  6
DASHED
100
AcDbCircle
 10
303.580745
 20
211.921514
 30
0.0
 40
11.0
100
AcDbArc
 50
90.0
 51
270.0
  0
LINE
  5
601
330
1D
100
AcDbEntity
  8
CSLAYER10
  6
Continuous
 48
0.3
100
AcDbLine
 10
303.580745
 20
226.221514
 30
0.0
 11
303.580745
 21
197.621514
 31
0.0
  0
LINE
  5
602
330
1D
100
AcDbEntity
  8
CSLAYER10
  6
Continuous
 48
0.1
100
AcDbLine
 10
266.580745
 20
209.191514
 30
0.0
 11
266.580745
 21
214.651514
 31
0.0
  0
LINE
  5
605
330
1D
100
AcDbEntity
  8
CSLAYER10
  6
Continuous
 48
0.5
100
AcDbLine
 10
277.353818
 20
211.921514
 30
0.0
 11
315.670746
 21
211.921514
 31
0.0
  0
LINE
  5
606
330
1D
100
AcDbEntity
  8
CSLAYER1
  6
Continuous
100
AcDbLine
 10
249.080745
 20
241.921514
 30
0.0
 11
249.080745
 21
181.921514
 31
0.0
  0
LINE
  5
62F
330
1D
100
AcDbEntity
  8
CSLAYER1
  6
DOT
100
AcDbLine
 10
238.234388
 20
211.921514
 30
0.0
 11
239.246571
 21
211.921514
 31
0.0
  0
LINE
  5
63A
330
1D
100
AcDbEntity
  8
CSLAYER1
  6
DOT
100
AcDbLine
 10
312.123719
 20
211.921514
 30
0.0
 11
314.148084
 21
211.921514
 31
0.0
  0
TEXT
  5
71E
330
1D
100
AcDbEntity
  8
CSLAYER10
100
AcDbText
 10
405.064058718843
 20
140.921753
 30
0.0
 40
4.0
  1
70
 41
0.705329153605
  7
FX_FONT
 72
     5
 11
410.064058718843
 21
140.921753
 31
0.0
100
AcDbText
  0
LINE
  5
71F
102
{ACAD_REACTORS
330
DB4
330
DB9
102
}
330
1D
100
AcDbEntity
  8
CSLAYER10
  6
Continuous
100
AcDbLine
 10
442.564056718843
 20
316.421514
 30
0.0
 11
442.564056718843
 21
176.111977
 31
0.0
  0
LINE
  5
720
330
1D
100
AcDbEntity
  8
CSLAYER10
  6
Continuous
100
AcDbLine
 10
372.564056718843
 20
139.921757
 30
0.0
 11
442.564056718843
 21
139.921757
 31
0.0
  0
LINE
  5
721
330
1D
100
AcDbEntity
  8
CSLAYER10
  6
Continuous
100
AcDbLine
 10
372.564056718843
 20
139.921757
 30
0.0
 11
374.546946718843
 21
140.18281
 31
0.0
  0
LINE
  5
722
330
1D
100
AcDbEntity
  8
CSLAYER10
  6
Continuous
100
AcDbLine
 10
372.564056718843
 20
139.921757
 30
0.0
 11
374.546946718843
 21
139.660705
 31
0.0
  0
LINE
  5
723
330
1D
100
AcDbEntity
  8
CSLAYER10
  6
Continuous
100
AcDbLine
 10
442.564056718843
 20
139.921757
 30
0.0
 11
440.581167718843
 21
140.18281
 31
0.0
  0
LINE
  5
724
330
1D
100
AcDbEntity
  8
CSLAYER10
  6
Continuous
100
AcDbLine
 10
442.564056718843
 20
139.921757
 30
0.0
 11
440.581167718843
 21
139.660705
 31
0.0
  0
LINE
  5
725
330
1D
100
AcDbEntity
  8
CSLAYER10
  6
Continuous
100
AcDbLine
 10
442.564056718843
 20
171.180765
 30
0.0
 11
442.564056718843
 21
138.921757
 31
0.0
  0
LINE
  5
726
330
1D
100
AcDbEntity
  8
CSLAYER10
  6
Continuous
100
AcDbLine
 10
215.102507191167
 20
270.005180607643
 30
0.0
 11
215.102507191167
 21
258.302263998073
 31
0.0
  0
LINE
  5
727
330
1D
100
AcDbEntity
  8
CSLAYER10
  6
Continuous
100
AcDbLine
 10
215.102507191167
 20
266.032345998073
 30
0.0
 11
232.102507191167
 21
266.032345998073
 31
0.0
  0
LINE
  5
728
330
1D
100
AcDbEntity
  8
CSLAYER10
  6
Continuous
100
AcDbLine
 10
215.102507191167
 20
266.032345998073
 30
0.0
 11
217.085396191167
 21
266.293397998073
 31
0.0
  0
LINE
  5
729
330
1D
100
AcDbEntity
  8
CSLAYER10
  6
Continuous
100
AcDbLine
 10
215.102507191167
 20
266.032345998073
 30
0.0
 11
217.085396191167
 21
265.771293998073
 31
0.0
  0
LINE
  5
72A
330
1D
100
AcDbEntity
  8
CSLAYER10
  6
Continuous
100
AcDbLine
 10
232.102507191167
 20
266.032345998073
 30
0.0
 11
230.119617191167
 21
266.293397998073
 31
0.0
  0
LINE
  5
72B
330
1D
100
AcDbEntity
  8
CSLAYER10
  6
Continuous
100
AcDbLine
 10
232.102507191167
 20
266.032345998073
 30
0.0
 11
230.119617191167
 21
265.771293998073
 31
0.0
  0
LINE
  5
72C
330
1D
100
AcDbEntity
  8
CSLAYER10
  6
Continuous
100
AcDbLine
 10
232.102507191167
 20
270.005180607643
 30
0.0
 11
232.102507191167
 21
258.302263998073
 31
0.0
  0
LINE
  5
761
330
1D
100
AcDbEntity
  8
CSLAYER10
  6
Continuous
100
AcDbLine
 10
61.310906602686
 20
150.721514
 30
0.0
 11
46.145599602686
 21
150.721514
 31
0.0
  0
TEXT
  5
762
330
1D
100
AcDbEntity
  8
CSLAYER10
100
AcDbText
 10
47.04361471522
 20
154.230219403659
 30
0.0
 40
4.0
  1
2
 50
90.0
 41
0.75
  7
FX_FONT
 72
     5
 11
47.04361471522
 21
156.730219403659
 31
0.0
100
AcDbText
  0
LINE
  5
763
330
1D
100
AcDbEntity
  8
CSLAYER10
  6
Continuous
100
AcDbLine
 10
61.310906602686
 20
152.721514
 30
0.0
 11
46.310906602686
 21
152.721514
 31
0.0
  0
LINE
  5
764
330
1D
100
AcDbEntity
  8
CSLAYER10
  6
Continuous
100
AcDbLine
 10
48.235046966375
 20
145.009963501625
 30
0.0
 11
48.235046966375
 21
158.433064498375
 31
0.0
  0
LINE
  5
765
330
1D
100
AcDbEntity
  8
CSLAYER10
  6
Continuous
100
AcDbLine
 10
48.235046966375
 20
152.721514
 30
0.0
 11
47.973994966375
 21
154.704404
 31
0.0
  0
LINE
  5
766
330
1D
100
AcDbEntity
  8
CSLAYER10
  6
Continuous
100
AcDbLine
 10
48.235046966375
 20
152.721514
 30
0.0
 11
48.496099966375
 21
154.704404
 31
0.0
  0
LINE
  5
767
330
1D
100
AcDbEntity
  8
CSLAYER10
  6
Continuous
100
AcDbLine
 10
48.235046966375
 20
150.721514
 30
0.0
 11
47.973994966375
 21
148.738625
 31
0.0
  0
LINE
  5
768
330
1D
100
AcDbEntity
  8
CSLAYER10
  6
Continuous
100
AcDbLine
 10
48.235046966375
 20
150.721514
 30
0.0
 11
48.496099966375
 21
148.738625
 31
0.0
  0
LINE
  5
901
330
1D
100
AcDbEntity
  8
CSLAYER10
  6
Continuous
100
AcDbLine
 10
194.479761840283
 20
75.051019276745
 30
0.0
 11
254.479761840283
 21
75.051019276745
 31
0.0
  0
LINE
  5
903
330
1D
100
AcDbEntity
  8
CSLAYER10
  6
Continuous
100
AcDbLine
 10
194.479761840283
 20
18.051019276745
 30
0.0
 11
254.479761840283
 21
18.051019276745
 31
0.0
  0
TEXT
  5
905
330
1D
100
AcDbEntity
  8
CSLAYER10
  6
Continuous
100
AcDbText
 10
198.617250003141
 20
60.188493439603
 30
0.0
 40
5.0
  1
扉　厚
 41
0.72
  7
FX_FONT
 72
     5
 11
210.617250003141
 21
60.188493439603
 31
0.0
100
AcDbText
  0
TEXT
  5
906
330
1D
100
AcDbEntity
  8
CSLAYER10
  6
Continuous
100
AcDbText
 10
197.117250003141
 20
36.188509439603
 30
0.0
 40
4.0
  1
38~43未満
 41
0.525700934579
  7
FX_FONT
 72
     5
 11
212.117250003141
 21
36.188509439603
 31
0.0
100
AcDbText
  0
TEXT
  5
907
330
1D
100
AcDbEntity
  8
CSLAYER10
  6
Continuous
100
AcDbText
 10
197.117250003141
 20
28.188509439603
 30
0.0
 40
4.0
  1
43~48未満
 41
0.525700934579
  7
FX_FONT
 72
     5
 11
212.117250003141
 21
28.188509439603
 31
0.0
100
AcDbText
  0
TEXT
  5
908
330
1D
100
AcDbEntity
  8
CSLAYER10
  6
Continuous
100
AcDbText
 10
197.117250003141
 20
20.188511439603
 30
0.0
 40
4.0
  1
48~50未満
 41
0.525087514586
  7
FX_FONT
 72
     5
 11
212.117250003141
 21
20.188511439603
 31
0.0
100
AcDbText
  0
TEXT
  5
90A
330
1D
100
AcDbEntity
  8
CSLAYER10
  6
Continuous
100
AcDbText
 10
221.072851915698
 20
69.088161142516
 30
0.0
 40
4.0
  1
ピンシリンダー
 41
0.836776859504
  7
FX_FONT
 72
     5
 11
248.072851915698
 21
69.088161142516
 31
0.0
100
AcDbText
  0
TEXT
  5
90C
330
1D
100
AcDbEntity
  8
CSLAYER10
  6
Continuous
100
AcDbText
 10
197.117250003141
 20
44.188509439603
 30
0.0
 40
4.0
  1
35~38未満
 41
0.525189651819
  7
FX_FONT
 72
     5
 11
212.117250003141
 21
44.188509439603
 31
0.0
100
AcDbText
  0
TEXT
  5
915
330
1D
100
AcDbEntity
  8
CSLAYER10
  6
Continuous
100
AcDbText
 10
218.205926575017
 20
44.051020276745
 30
0.0
 40
4.0
  1
21.0
 41
0.79528718704
  7
FX_FONT
 72
     5
 11
230.205926575017
 21
44.051020276745
 31
0.0
100
AcDbText
  0
TEXT
  5
916
330
1D
100
AcDbEntity
  8
CSLAYER10
  6
Continuous
100
AcDbText
 10
238.841971642084
 20
44.051020276745
 30
0.0
 40
4.0
  1
%%C48.5
 41
0.620689655172
  7
FX_FONT
 72
     5
 11
250.841971642084
 21
44.051020276745
 31
0.0
100
AcDbText
  0
TEXT
  5
917
330
1D
100
AcDbEntity
  8
CSLAYER10
  6
Continuous
100
AcDbText
 10
218.205926575017
 20
36.051020276745
 30
0.0
 40
4.0
  1
18.5
 41
0.782608695652
  7
FX_FONT
 72
     5
 11
230.205926575017
 21
36.051020276745
 31
0.0
100
AcDbText
  0
TEXT
  5
918
330
1D
100
AcDbEntity
  8
CSLAYER10
  6
Continuous
100
AcDbText
 10
238.841971642084
 20
36.051020276745
 30
0.0
 40
4.0
  1
%%C47.5
 41
0.620689655172
  7
FX_FONT
 72
     5
 11
250.841971642084
 21
36.051020276745
 31
0.0
100
AcDbText
  0
TEXT
  5
919
330
1D
100
AcDbEntity
  8
CSLAYER10
  6
Continuous
100
AcDbText
 10
218.205926575017
 20
28.051020276745
 30
0.0
 40
4.0
  1
16.0
 41
0.793825799338
  7
FX_FONT
 72
     5
 11
230.205926575017
 21
28.051020276745
 31
0.0
100
AcDbText
  0
TEXT
  5
91A
330
1D
100
AcDbEntity
  8
CSLAYER10
  6
Continuous
100
AcDbText
 10
238.841971642084
 20
28.051020276745
 30
0.0
 40
4.0
  1
%%C46.5
 41
0.619799139168
  7
FX_FONT
 72
     5
 11
250.841971642084
 21
28.051020276745
 31
0.0
100
AcDbText
  0
TEXT
  5
91B
330
1D
100
AcDbEntity
  8
CSLAYER10
  6
Continuous
100
AcDbText
 10
218.205926575017
 20
20.051022276745
 30
0.0
 40
4.0
  1
13.5
 41
0.782608695652
  7
FX_FONT
 72
     5
 11
230.205926575017
 21
20.051022276745
 31
0.0
100
AcDbText
  0
TEXT
  5
91C
330
1D
100
AcDbEntity
  8
CSLAYER10
  6
Continuous
100
AcDbText
 10
238.841971642084
 20
20.051022276745
 30
0.0
 40
4.0
  1
%%C45.5
 41
0.619799139168
  7
FX_FONT
 72
     5
 11
250.841971642084
 21
20.051022276745
 31
0.0
100
AcDbText
  0
LINE
  5
91F
330
1D
100
AcDbEntity
  8
CSLAYER10
  6
Continuous
100
AcDbLine
 10
194.479761840283
 20
50.051019276745
 30
0.0
 11
254.479761840283
 21
50.051019276745
 31
0.0
  0
LINE
  5
920
330
1D
100
AcDbEntity
  8
CSLAYER10
  6
Continuous
100
AcDbLine
 10
214.479761840283
 20
60.051019276745
 30
0.0
 11
254.479761840283
 21
60.051019276745
 31
0.0
  0
LINE
  5
922
330
1D
100
AcDbEntity
  8
CSLAYER10
  6
Continuous
100
AcDbLine
 10
214.479761840283
 20
18.051019276745
 30
0.0
 11
214.479761840283
 21
75.051019276745
 31
0.0
  0
LINE
  5
928
330
1D
100
AcDbEntity
  8
CSLAYER10
  6
Continuous
100
AcDbLine
 10
254.479761840283
 20
26.051019276745
 30
0.0
 11
194.479761840283
 21
26.051019276745
 31
0.0
  0
LINE
  5
929
330
1D
100
AcDbEntity
  8
CSLAYER10
  6
Continuous
100
AcDbLine
 10
194.479761840283
 20
34.051019276745
 30
0.0
 11
254.479761840283
 21
34.051019276745
 31
0.0
  0
LINE
  5
92A
330
1D
100
AcDbEntity
  8
CSLAYER10
  6
Continuous
100
AcDbLine
 10
254.479761840283
 20
42.051019276745
 30
0.0
 11
194.479761840283
 21
42.051019276745
 31
0.0
  0
LINE
  5
92B
330
1D
100
AcDbEntity
  8
CSLAYER10
  6
Continuous
100
AcDbLine
 10
234.479761840283
 20
60.051019276745
 30
0.0
 11
234.479761840283
 21
18.051019276745
 31
0.0
  0
LINE
  5
966
330
1D
100
AcDbEntity
  8
CSLAYER10
  6
Continuous
100
AcDbLine
 10
120.293191111635
 20
75.051019276745
 30
0.0
 11
180.293191111635
 21
75.051019276745
 31
0.0
  0
LINE
  5
968
330
1D
100
AcDbEntity
  8
CSLAYER10
  6
Continuous
100
AcDbLine
 10
120.293191111635
 20
18.051019276745
 30
0.0
 11
180.293191111635
 21
18.051019276745
 31
0.0
  0
TEXT
  5
96A
330
1D
100
AcDbEntity
  8
CSLAYER10
  6
Continuous
100
AcDbText
 10
124.430679274493
 20
60.188493439603
 30
0.0
 40
5.0
  1
扉　厚
 41
0.72
  7
FX_FONT
 72
     5
 11
136.430679274493
 21
60.188493439603
 31
0.0
100
AcDbText
  0
TEXT
  5
96B
330
1D
100
AcDbEntity
  8
CSLAYER10
  6
Continuous
100
AcDbText
 10
122.930679274493
 20
36.188509439603
 30
0.0
 40
4.0
  1
37~42未満
 41
0.525700934579
  7
FX_FONT
 72
     5
 11
137.930679274493
 21
36.188509439603
 31
0.0
100
AcDbText
  0
TEXT
  5
96C
330
1D
100
AcDbEntity
  8
CSLAYER10
  6
Continuous
100
AcDbText
 10
122.930679274493
 20
28.188509439603
 30
0.0
 40
4.0
  1
42~47未満
 41
0.525700934579
  7
FX_FONT
 72
     5
 11
137.930679274493
 21
28.188509439603
 31
0.0
100
AcDbText
  0
TEXT
  5
96D
330
1D
100
AcDbEntity
  8
CSLAYER10
  6
Continuous
100
AcDbText
 10
122.930679274493
 20
20.188511439603
 30
0.0
 40
4.0
  1
47~50未満
 41
0.525087514586
  7
FX_FONT
 72
     5
 11
137.930679274493
 21
20.188511439603
 31
0.0
100
AcDbText
  0
TEXT
  5
96E
330
1D
100
AcDbEntity
  8
CSLAYER10
  6
Continuous
100
AcDbText
 10
148.196955697635
 20
69.015731180756
 30
0.0
 40
4.0
  1
X・NXキーシリンダー
 41
0.489130434783
  7
FX_FONT
 72
     5
 11
172.196955697635
 21
69.015731180756
 31
0.0
100
AcDbText
  0
TEXT
  5
971
330
1D
100
AcDbEntity
  8
CSLAYER10
  6
Continuous
100
AcDbText
 10
122.930679274493
 20
44.188509439603
 30
0.0
 40
4.0
  1
35~37未満
 41
0.525189651819
  7
FX_FONT
 72
     5
 11
137.930679274493
 21
44.188509439603
 31
0.0
100
AcDbText
  0
TEXT
  5
972
330
1D
100
AcDbEntity
  8
CSLAYER10
  6
Continuous
100
AcDbText
 10
144.027397008071
 20
44.051020276745
 30
0.0
 40
4.0
  1
26.5
 41
0.781193490054
  7
FX_FONT
 72
     5
 11
156.027397008071
 21
44.051020276745
 31
0.0
100
AcDbText
  0
TEXT
  5
973
330
1D
100
AcDbEntity
  8
CSLAYER10
  6
Continuous
100
AcDbText
 10
164.113327734857
 20
44.051020276745
 30
0.0
 40
4.0
  1
%%c50.5
 41
0.619621342513
  7
FX_FONT
 72
     5
 11
176.113327734857
 21
44.051020276745
 31
0.0
100
AcDbText
  0
TEXT
  5
974
330
1D
100
AcDbEntity
  8
CSLAYER10
  6
Continuous
100
AcDbText
 10
144.027397008071
 20
36.051020276745
 30
0.0
 40
4.0
  1
23.5
 41
0.782608695652
  7
FX_FONT
 72
     5
 11
156.027397008071
 21
36.051020276745
 31
0.0
100
AcDbText
  0
TEXT
  5
975
330
1D
100
AcDbEntity
  8
CSLAYER10
  6
Continuous
100
AcDbText
 10
164.113327734857
 20
36.051020276745
 30
0.0
 40
4.0
  1
%%C49.5
 41
0.620630207834
  7
FX_FONT
 72
     5
 11
176.113327734857
 21
36.051020276745
 31
0.0
100
AcDbText
  0
TEXT
  5
976
330
1D
100
AcDbEntity
  8
CSLAYER10
  6
Continuous
100
AcDbText
 10
144.027397008071
 20
28.051020276745
 30
0.0
 40
4.0
  1
21.0
 41
0.79528718704
  7
FX_FONT
 72
     5
 11
156.027397008071
 21
28.051020276745
 31
0.0
100
AcDbText
  0
TEXT
  5
977
330
1D
100
AcDbEntity
  8
CSLAYER10
  6
Continuous
100
AcDbText
 10
164.113327734857
 20
28.051020276745
 30
0.0
 40
4.0
  1
%%C48.5
 41
0.620689655172
  7
FX_FONT
 72
     5
 11
176.113327734857
 21
28.051020276745
 31
0.0
100
AcDbText
  0
TEXT
  5
978
330
1D
100
AcDbEntity
  8
CSLAYER10
  6
Continuous
100
AcDbText
 10
144.027397008071
 20
20.051022276745
 30
0.0
 40
4.0
  1
18.5
 41
0.782608695652
  7
FX_FONT
 72
     5
 11
156.027397008071
 21
20.051022276745
 31
0.0
100
AcDbText
  0
TEXT
  5
979
330
1D
100
AcDbEntity
  8
CSLAYER10
  6
Continuous
100
AcDbText
 10
164.113327734857
 20
20.051022276745
 30
0.0
 40
4.0
  1
%%C47.5
 41
0.620689655172
  7
FX_FONT
 72
     5
 11
176.113327734857
 21
20.051022276745
 31
0.0
100
AcDbText
  0
LINE
  5
984
330
1D
100
AcDbEntity
  8
CSLAYER10
  6
Continuous
100
AcDbLine
 10
120.293191111635
 20
50.051019276745
 30
0.0
 11
180.293191111635
 21
50.051019276745
 31
0.0
  0
LINE
  5
985
330
1D
100
AcDbEntity
  8
CSLAYER10
  6
Continuous
100
AcDbLine
 10
140.293191111635
 20
60.051019276745
 30
0.0
 11
180.293191111635
 21
60.051019276745
 31
0.0
  0
LINE
  5
986
330
1D
100
AcDbEntity
  8
CSLAYER10
  6
Continuous
100
AcDbLine
 10
160.293191111635
 20
60.051019276745
 30
0.0
 11
160.293191111635
 21
18.051019276745
 31
0.0
  0
LINE
  5
987
330
1D
100
AcDbEntity
  8
CSLAYER10
  6
Continuous
100
AcDbLine
 10
140.293191111635
 20
18.051019276745
 30
0.0
 11
140.293191111635
 21
75.051019276745
 31
0.0
  0
LINE
  5
98D
330
1D
100
AcDbEntity
  8
CSLAYER10
  6
Continuous
100
AcDbLine
 10
180.293191111635
 20
26.051019276745
 30
0.0
 11
120.293191111635
 21
26.051019276745
 31
0.0
  0
LINE
  5
98E
330
1D
100
AcDbEntity
  8
CSLAYER10
  6
Continuous
100
AcDbLine
 10
120.293191111635
 20
34.051019276745
 30
0.0
 11
180.293191111635
 21
34.051019276745
 31
0.0
  0
LINE
  5
98F
330
1D
100
AcDbEntity
  8
CSLAYER10
  6
Continuous
100
AcDbLine
 10
180.293191111635
 20
42.051019276745
 30
0.0
 11
120.293191111635
 21
42.051019276745
 31
0.0
  0
TEXT
  5
99A
330
1D
100
AcDbEntity
  8
CSLAYER10
  6
Continuous
100
AcDbText
 10
144.200559776487
 20
52.785666973042
 30
0.0
 40
4.0
  1
高さ（H)
 41
0.6
  7
FX_FONT
100
AcDbText
  0
TEXT
  5
99B
330
1D
100
AcDbEntity
  8
CSLAYER10
  6
Continuous
100
AcDbText
 10
164.045086069521
 20
52.916439338819
 30
0.0
 40
4.0
  1
直径（D)
 41
0.6
  7
FX_FONT
100
AcDbText
  0
TEXT
  5
99D
330
1D
100
AcDbEntity
  8
CSLAYER10
  6
Continuous
100
AcDbText
 10
226.325795242653
 20
61.80045878709
 30
0.0
 40
4.0
  1
A=38
100
AcDbText
  0
LINE
  5
99E
330
1D
100
AcDbEntity
  8
CSLAYER10
  6
Continuous
100
AcDbLine
 10
214.479761840283
 20
67.551019276745
 30
0.0
 11
254.529967093405
 21
67.551019276745
 31
0.0
  0
TEXT
  5
99F
330
1D
100
AcDbEntity
  8
CSLAYER10
  6
Continuous
100
AcDbText
 10
217.89102557459
 20
52.823030506121
 30
0.0
 40
4.0
  1
高さ（H)
 41
0.6
  7
FX_FONT
100
AcDbText
  0
TEXT
  5
9A0
330
1D
100
AcDbEntity
  8
CSLAYER10
  6
Continuous
100
AcDbText
 10
238.285666207905
 20
52.953802871898
 30
0.0
 40
4.0
  1
直径（D)
 41
0.6
  7
FX_FONT
100
AcDbText
  0
LINE
  5
9A2
330
1D
100
AcDbEntity
  8
CSLAYER10
  6
Continuous
100
AcDbLine
 10
140.293191111635
 20
67.551019276745
 30
0.0
 11
180.684656240118
 21
67.551019276745
 31
0.0
  0
TEXT
  5
9CD
330
1D
100
AcDbEntity
  8
CSLAYER10
  6
Continuous
100
AcDbText
 10
150.340797997452
 20
61.953041828836
 30
0.0
 40
4.0
  1
A=43.5
100
AcDbText
  0
LINE
  5
9FD
330
1D
100
AcDbEntity
  8
CSLAYER10
  6
Continuous
100
AcDbLine
 10
538.030084718843
 20
261.919505
 30
0.0
 11
529.951165373604
 21
238.34301909942
 31
0.0
  0
CIRCLE
  5
9FE
330
1D
100
AcDbEntity
  8
CSLAYER10
  6
Continuous
100
AcDbCircle
 10
538.030084718843
 20
261.919505
 30
0.0
 40
0.5
  0
CIRCLE
  5
9FF
330
1D
100
AcDbEntity
  8
CSLAYER10
  6
Continuous
100
AcDbCircle
 10
538.030084718843
 20
261.919505
 30
0.0
 40
0.25
  0
LINE
  5
A00
330
1D
100
AcDbEntity
  8
CSLAYER10
  6
Continuous
100
AcDbLine
 10
569.87047771212
 20
238.34301909942
 30
0.0
 11
529.951165373604
 21
238.34301909942
 31
0.0
  0
TEXT
  5
A01
330
1D
100
AcDbEntity
  8
CSLAYER10
100
AcDbText
 10
535.021891723913
 20
239.47434962685
 30
0.0
 40
4.0
  1
リード線４本・6本　L=180
 41
0.501726418583
  7
FX_FONT
 72
     5
 11
568.294715382968
 21
239.47434962685
 31
0.0
100
AcDbText
  0
LINE
  5
A02
330
1D
100
AcDbEntity
  8
CSLAYER10
  6
Continuous
100
AcDbLine
 10
100.418883
 20
315.221514
 30
0.0
 11
126.320433
 21
315.221514
 31
0.0
  0
LINE
  5
A03
330
1D
100
AcDbEntity
  8
CSLAYER10
  6
Continuous
100
AcDbLine
 10
99.067077
 20
190.221514
 30
0.0
 11
126.320433
 21
190.221514
 31
0.0
  0
LINE
  5
A04
330
1D
100
AcDbEntity
  8
CSLAYER10
  6
Continuous
100
AcDbLine
 10
125.320433
 20
315.221514
 30
0.0
 11
125.320433
 21
190.221514
 31
0.0
  0
LINE
  5
A05
330
1D
100
AcDbEntity
  8
CSLAYER10
  6
Continuous
100
AcDbLine
 10
125.320433
 20
315.221514
 30
0.0
 11
125.059381
 21
313.238625
 31
0.0
  0
LINE
  5
A06
330
1D
100
AcDbEntity
  8
CSLAYER10
  6
Continuous
100
AcDbLine
 10
125.320433
 20
315.221514
 30
0.0
 11
125.581486
 21
313.238625
 31
0.0
  0
LINE
  5
A07
330
1D
100
AcDbEntity
  8
CSLAYER10
  6
Continuous
100
AcDbLine
 10
125.320433
 20
190.221514
 30
0.0
 11
125.059381
 21
192.204404
 31
0.0
  0
LINE
  5
A08
330
1D
100
AcDbEntity
  8
CSLAYER10
  6
Continuous
100
AcDbLine
 10
125.320433
 20
190.221514
 30
0.0
 11
125.581486
 21
192.204404
 31
0.0
  0
LINE
  5
A0A
330
1D
100
AcDbEntity
  8
CSLAYER10
  6
Continuous
100
AcDbLine
 10
67.327357
 20
211.721514
 30
0.0
 11
52.320433
 21
211.721514
 31
0.0
  0
LINE
  5
A0B
330
1D
100
AcDbEntity
  8
CSLAYER10
  6
Continuous
100
AcDbLine
 10
53.320433
 20
293.721514
 30
0.0
 11
53.320433
 21
211.721514
 31
0.0
  0
LINE
  5
A0C
330
1D
100
AcDbEntity
  8
CSLAYER10
  6
Continuous
100
AcDbLine
 10
53.320433
 20
249.721514
 30
0.0
 11
53.059381
 21
247.738625
 31
0.0
  0
LINE
  5
A0D
330
1D
100
AcDbEntity
  8
CSLAYER10
  6
Continuous
100
AcDbLine
 10
53.320433
 20
249.721514
 30
0.0
 11
53.581486
 21
247.738625
 31
0.0
  0
LINE
  5
A0E
330
1D
100
AcDbEntity
  8
CSLAYER10
  6
Continuous
100
AcDbLine
 10
53.320433
 20
211.721514
 30
0.0
 11
53.059381
 21
213.704404
 31
0.0
  0
LINE
  5
A0F
330
1D
100
AcDbEntity
  8
CSLAYER10
  6
Continuous
100
AcDbLine
 10
53.320433
 20
211.721514
 30
0.0
 11
53.581486
 21
213.704404
 31
0.0
  0
TEXT
  5
A10
330
1D
100
AcDbEntity
  8
CSLAYER10
100
AcDbText
 10
41.702503
 20
176.221527
 30
0.0
 40
4.0
  1
2.5
 41
0.661764705882
  7
FX_FONT
 72
     5
 11
49.202503
 21
176.221527
 31
0.0
100
AcDbText
  0
LINE
  5
A11
330
1D
100
AcDbEntity
  8
CSLAYER10
  6
Continuous
100
AcDbLine
 10
37.9525
 20
190.221514
 30
0.0
 11
37.9525
 21
174.221514
 31
0.0
  0
LINE
  5
A12
330
1D
100
AcDbEntity
  8
CSLAYER10
  6
Continuous
100
AcDbLine
 10
40.4525
 20
189.221514
 30
0.0
 11
40.4525
 21
164.221514
 31
0.0
  0
LINE
  5
A13
330
1D
100
AcDbEntity
  8
CSLAYER10
  6
Continuous
100
AcDbLine
 10
50.4525
 20
175.221514
 30
0.0
 11
32.9525
 21
175.221514
 31
0.0
  0
LINE
  5
A14
330
1D
100
AcDbEntity
  8
CSLAYER10
  6
Continuous
100
AcDbLine
 10
37.9525
 20
175.221514
 30
0.0
 11
35.96961
 21
175.482567
 31
0.0
  0
LINE
  5
A15
330
1D
100
AcDbEntity
  8
CSLAYER10
  6
Continuous
100
AcDbLine
 10
37.9525
 20
175.221514
 30
0.0
 11
35.96961
 21
174.960462
 31
0.0
  0
LINE
  5
A17
330
1D
100
AcDbEntity
  8
CSLAYER10
  6
Continuous
100
AcDbLine
 10
40.4525
 20
175.221514
 30
0.0
 11
42.43539
 21
175.482567
 31
0.0
  0
LINE
  5
A18
330
1D
100
AcDbEntity
  8
CSLAYER10
  6
Continuous
100
AcDbLine
 10
40.4525
 20
175.221514
 30
0.0
 11
42.43539
 21
174.960462
 31
0.0
  0
TEXT
  5
A1A
330
1D
100
AcDbEntity
  8
CSLAYER10
100
AcDbText
 10
27.952505
 20
166.221527
 30
0.0
 40
4.0
  1
20
 41
0.705329153605
  7
FX_FONT
 72
     5
 11
32.952505
 21
166.221527
 31
0.0
100
AcDbText
  0
LINE
  5
A1B
330
1D
100
AcDbEntity
  8
CSLAYER10
  6
Continuous
100
AcDbLine
 10
20.4525
 20
209.721514
 30
0.0
 11
20.4525
 21
164.221514
 31
0.0
  0
LINE
  5
A1C
330
1D
100
AcDbEntity
  8
CSLAYER10
  6
Continuous
100
AcDbLine
 10
20.4525
 20
165.221514
 30
0.0
 11
40.4525
 21
165.221514
 31
0.0
  0
LINE
  5
A1D
330
1D
100
AcDbEntity
  8
CSLAYER10
  6
Continuous
100
AcDbLine
 10
20.4525
 20
165.221514
 30
0.0
 11
22.43539
 21
165.482567
 31
0.0
  0
LINE
  5
A1E
330
1D
100
AcDbEntity
  8
CSLAYER10
  6
Continuous
100
AcDbLine
 10
20.4525
 20
165.221514
 30
0.0
 11
22.43539
 21
164.960462
 31
0.0
  0
LINE
  5
A1F
330
1D
100
AcDbEntity
  8
CSLAYER10
  6
Continuous
100
AcDbLine
 10
40.4525
 20
165.221514
 30
0.0
 11
38.46961
 21
165.482567
 31
0.0
  0
LINE
  5
A20
330
1D
100
AcDbEntity
  8
CSLAYER10
  6
Continuous
100
AcDbLine
 10
40.4525
 20
165.221514
 30
0.0
 11
38.46961
 21
164.960462
 31
0.0
  0
LINE
  5
A21
330
1D
100
AcDbEntity
  8
CSLAYER10
  6
Continuous
100
AcDbLine
 10
85.48663
 20
305.221514
 30
0.0
 11
117.017898
 21
305.221514
 31
0.0
  0
LINE
  5
A22
330
1D
100
AcDbEntity
  8
CSLAYER10
  6
Continuous
100
AcDbLine
 10
85.48663
 20
200.221514
 30
0.0
 11
117.017898
 21
200.221514
 31
0.0
  0
LINE
  5
A23
330
1D
100
AcDbEntity
  8
CSLAYER10
  6
Continuous
100
AcDbLine
 10
116.017898
 20
305.221514
 30
0.0
 11
116.017898
 21
200.221514
 31
0.0
  0
LINE
  5
A24
330
1D
100
AcDbEntity
  8
CSLAYER10
  6
Continuous
100
AcDbLine
 10
116.017898
 20
305.221514
 30
0.0
 11
115.756846
 21
303.238625
 31
0.0
  0
LINE
  5
A25
330
1D
100
AcDbEntity
  8
CSLAYER10
  6
Continuous
100
AcDbLine
 10
116.017898
 20
305.221514
 30
0.0
 11
116.278951
 21
303.238625
 31
0.0
  0
LINE
  5
A26
330
1D
100
AcDbEntity
  8
CSLAYER10
  6
Continuous
100
AcDbLine
 10
116.017898
 20
200.221514
 30
0.0
 11
115.756846
 21
202.204404
 31
0.0
  0
LINE
  5
A27
330
1D
100
AcDbEntity
  8
CSLAYER10
  6
Continuous
100
AcDbLine
 10
116.017898
 20
200.221514
 30
0.0
 11
116.278951
 21
202.204404
 31
0.0
  0
TEXT
  5
A28
330
1D
100
AcDbEntity
  8
CSLAYER10
100
AcDbText
 10
73.820442
 20
228.910172
 30
0.0
 40
4.0
  1
18
 41
0.681818181818
  7
FX_FONT
 72
     5
 11
78.820442
 21
228.910172
 31
0.0
100
AcDbText
  0
LINE
  5
A29
330
1D
100
AcDbEntity
  8
CSLAYER10
  6
Continuous
100
AcDbLine
 10
67.320433
 20
227.910172
 30
0.0
 11
85.320433
 21
227.910172
 31
0.0
  0
LINE
  5
A2A
330
1D
100
AcDbEntity
  8
CSLAYER10
  6
Continuous
100
AcDbLine
 10
67.320433
 20
227.910172
 30
0.0
 11
69.303323
 21
228.171225
 31
0.0
  0
LINE
  5
A2B
330
1D
100
AcDbEntity
  8
CSLAYER10
  6
Continuous
100
AcDbLine
 10
67.320433
 20
227.910172
 30
0.0
 11
69.303323
 21
227.64912
 31
0.0
  0
LINE
  5
A2C
330
1D
100
AcDbEntity
  8
CSLAYER10
  6
Continuous
100
AcDbLine
 10
85.320433
 20
227.910172
 30
0.0
 11
83.337544
 21
228.171225
 31
0.0
  0
LINE
  5
A2D
330
1D
100
AcDbEntity
  8
CSLAYER10
  6
Continuous
100
AcDbLine
 10
85.320433
 20
227.910172
 30
0.0
 11
83.337544
 21
227.64912
 31
0.0
  0
TEXT
  5
A2E
330
1D
100
AcDbEntity
  8
CSLAYER10
100
AcDbText
 10
67.320435
 20
176.221512
 30
0.0
 40
4.0
  1
14
 41
0.681818181818
  7
FX_FONT
 72
     5
 11
72.320435
 21
176.221512
 31
0.0
100
AcDbText
  0
LINE
  5
A2F
330
1D
100
AcDbEntity
  8
CSLAYER10
  6
Continuous
100
AcDbLine
 10
62.820433
 20
190.221514
 30
0.0
 11
62.820433
 21
174.28105
 31
0.0
  0
LINE
  5
A30
330
1D
100
AcDbEntity
  8
CSLAYER10
  6
Continuous
100
AcDbLine
 10
62.820433
 20
175.221514
 30
0.0
 11
93.797394736414
 21
175.221514
 31
0.0
  0
LINE
  5
A31
330
1D
100
AcDbEntity
  8
CSLAYER10
  6
Continuous
100
AcDbLine
 10
62.820433
 20
175.221514
 30
0.0
 11
64.803323
 21
175.482567
 31
0.0
  0
LINE
  5
A32
330
1D
100
AcDbEntity
  8
CSLAYER10
  6
Continuous
100
AcDbLine
 10
62.820433
 20
175.221514
 30
0.0
 11
64.803323
 21
174.960462
 31
0.0
  0
LINE
  5
A36
330
1D
100
AcDbEntity
  8
CSLAYER10
  6
Continuous
100
AcDbLine
 10
76.820433
 20
175.221514
 30
0.0
 11
74.837544
 21
175.482567
 31
0.0
  0
LINE
  5
A37
330
1D
100
AcDbEntity
  8
CSLAYER10
  6
Continuous
100
AcDbLine
 10
76.820433
 20
175.221514
 30
0.0
 11
74.837544
 21
174.960462
 31
0.0
  0
TEXT
  5
A38
330
1D
100
AcDbEntity
  8
CSLAYER10
100
AcDbText
 10
85.308262791376
 20
176.049730907712
 30
0.0
 40
4.0
  1
8.5
 41
0.661764705882
  7
FX_FONT
 72
     5
 11
92.808262791376
 21
176.049730907712
 31
0.0
100
AcDbText
  0
LINE
  5
A39
330
1D
100
AcDbEntity
  8
CSLAYER10
  6
Continuous
100
AcDbLine
 10
85.320433
 20
215.721514
 30
0.0
 11
85.320433
 21
174.221514
 31
0.0
  0
LINE
  5
A3D
330
1D
100
AcDbEntity
  8
CSLAYER10
  6
Continuous
100
AcDbLine
 10
85.320433
 20
175.221514
 30
0.0
 11
87.303322
 21
175.482567
 31
0.0
  0
LINE
  5
A3E
330
1D
100
AcDbEntity
  8
CSLAYER10
  6
Continuous
100
AcDbLine
 10
85.320433
 20
175.221514
 30
0.0
 11
87.303322
 21
174.960462
 31
0.0
  0
TEXT
  5
A3F
330
1D
100
AcDbEntity
  8
CSLAYER10
100
AcDbText
 10
74.370903
 20
118.721527
 30
0.0
 40
4.0
  1
24
 41
0.681818181818
  7
FX_FONT
 72
     5
 11
79.370903
 21
118.721527
 31
0.0
100
AcDbText
  0
LINE
  5
A40
330
1D
100
AcDbEntity
  8
CSLAYER10
  6
Continuous
100
AcDbLine
 10
64.923488
 20
131.721514
 30
0.0
 11
64.923488
 21
116.721514
 31
0.0
  0
LINE
  5
A41
330
1D
100
AcDbEntity
  8
CSLAYER10
  6
Continuous
100
AcDbLine
 10
64.923488
 20
117.721514
 30
0.0
 11
88.818299
 21
117.721514
 31
0.0
  0
LINE
  5
A42
330
1D
100
AcDbEntity
  8
CSLAYER10
  6
Continuous
100
AcDbLine
 10
64.923488
 20
117.721514
 30
0.0
 11
66.906378
 21
117.982567
 31
0.0
  0
LINE
  5
A43
330
1D
100
AcDbEntity
  8
CSLAYER10
  6
Continuous
100
AcDbLine
 10
64.923488
 20
117.721514
 30
0.0
 11
66.906378
 21
117.460462
 31
0.0
  0
LINE
  5
A44
330
1D
100
AcDbEntity
  8
CSLAYER10
  6
Continuous
100
AcDbLine
 10
88.818299
 20
117.721514
 30
0.0
 11
86.835409
 21
117.982567
 31
0.0
  0
LINE
  5
A45
330
1D
100
AcDbEntity
  8
CSLAYER10
  6
Continuous
100
AcDbLine
 10
88.818299
 20
117.721514
 30
0.0
 11
86.835409
 21
117.460462
 31
0.0
  0
TEXT
  5
A46
330
1D
100
AcDbEntity
  8
CSLAYER10
100
AcDbText
 10
88.320404
 20
108.721527
 30
0.0
 40
4.0
  1
L
 41
0.75
  7
FX_FONT
 72
     5
 11
90.820404
 21
108.721527
 31
0.0
100
AcDbText
  0
LINE
  5
A47
330
1D
100
AcDbEntity
  8
CSLAYER10
  6
Continuous
100
AcDbLine
 10
76.820433
 20
107.721514
 30
0.0
 11
102.320365
 21
107.721514
 31
0.0
  0
LINE
  5
A48
330
1D
100
AcDbEntity
  8
CSLAYER10
  6
Continuous
100
AcDbLine
 10
76.820433
 20
107.721514
 30
0.0
 11
78.803323
 21
107.982567
 31
0.0
  0
LINE
  5
A49
330
1D
100
AcDbEntity
  8
CSLAYER10
  6
Continuous
100
AcDbLine
 10
76.820433
 20
107.721514
 30
0.0
 11
78.803323
 21
107.460462
 31
0.0
  0
LINE
  5
A4A
330
1D
100
AcDbEntity
  8
CSLAYER10
  6
Continuous
100
AcDbLine
 10
102.320365
 20
107.721514
 30
0.0
 11
100.337476
 21
107.982567
 31
0.0
  0
LINE
  5
A4B
330
1D
100
AcDbEntity
  8
CSLAYER10
  6
Continuous
100
AcDbLine
 10
102.320365
 20
107.721514
 30
0.0
 11
100.337476
 21
107.460462
 31
0.0
  0
LINE
  5
A4C
102
{ACAD_REACTORS
330
EEF
102
}
330
1D
100
AcDbEntity
  8
CSLAYER1
  6
Continuous
100
AcDbLine
 10
372.564056718843
 20
336.421514
 30
0.0
 11
372.642884718843
 21
336.478513
 31
0.0
  0
LINE
  5
A4D
102
{ACAD_REACTORS
330
EEF
102
}
330
1D
100
AcDbEntity
  8
CSLAYER1
  6
Continuous
100
AcDbLine
 10
372.642884718843
 20
336.478513
 30
0.0
 11
372.721704718843
 21
336.535236
 31
0.0
  0
LINE
  5
A4E
102
{ACAD_REACTORS
330
EEF
102
}
330
1D
100
AcDbEntity
  8
CSLAYER1
  6
Continuous
100
AcDbLine
 10
372.721704718843
 20
336.535236
 30
0.0
 11
372.800508718843
 21
336.59141
 31
0.0
  0
LINE
  5
A4F
102
{ACAD_REACTORS
330
EEF
102
}
330
1D
100
AcDbEntity
  8
CSLAYER1
  6
Continuous
100
AcDbLine
 10
372.800508718843
 20
336.59141
 30
0.0
 11
372.879287718843
 21
336.64676
 31
0.0
  0
LINE
  5
A50
102
{ACAD_REACTORS
330
EEF
102
}
330
1D
100
AcDbEntity
  8
CSLAYER1
  6
Continuous
100
AcDbLine
 10
372.879287718843
 20
336.64676
 30
0.0
 11
372.958033718843
 21
336.70101
 31
0.0
  0
LINE
  5
A51
102
{ACAD_REACTORS
330
EEF
102
}
330
1D
100
AcDbEntity
  8
CSLAYER1
  6
Continuous
100
AcDbLine
 10
372.958033718843
 20
336.70101
 30
0.0
 11
373.036739718843
 21
336.753887
 31
0.0
  0
LINE
  5
A52
102
{ACAD_REACTORS
330
EEF
102
}
330
1D
100
AcDbEntity
  8
CSLAYER1
  6
Continuous
100
AcDbLine
 10
373.036739718843
 20
336.753887
 30
0.0
 11
373.115396718843
 21
336.805116
 31
0.0
  0
LINE
  5
A53
102
{ACAD_REACTORS
330
EEF
102
}
330
1D
100
AcDbEntity
  8
CSLAYER1
  6
Continuous
100
AcDbLine
 10
373.115396718843
 20
336.805116
 30
0.0
 11
373.193997718843
 21
336.854421
 31
0.0
  0
LINE
  5
A54
102
{ACAD_REACTORS
330
EEF
102
}
330
1D
100
AcDbEntity
  8
CSLAYER1
  6
Continuous
100
AcDbLine
 10
373.193997718843
 20
336.854421
 30
0.0
 11
373.272532718843
 21
336.901528
 31
0.0
  0
LINE
  5
A55
102
{ACAD_REACTORS
330
EEF
102
}
330
1D
100
AcDbEntity
  8
CSLAYER1
  6
Continuous
100
AcDbLine
 10
373.272532718843
 20
336.901528
 30
0.0
 11
373.350994718843
 21
336.946162
 31
0.0
  0
LINE
  5
A56
102
{ACAD_REACTORS
330
EEF
102
}
330
1D
100
AcDbEntity
  8
CSLAYER1
  6
Continuous
100
AcDbLine
 10
373.350994718843
 20
336.946162
 30
0.0
 11
373.429375718843
 21
336.988049
 31
0.0
  0
LINE
  5
A57
102
{ACAD_REACTORS
330
EEF
102
}
330
1D
100
AcDbEntity
  8
CSLAYER1
  6
Continuous
100
AcDbLine
 10
373.429375718843
 20
336.988049
 30
0.0
 11
373.507667718843
 21
337.026914
 31
0.0
  0
LINE
  5
A58
102
{ACAD_REACTORS
330
EEF
102
}
330
1D
100
AcDbEntity
  8
CSLAYER1
  6
Continuous
100
AcDbLine
 10
373.507667718843
 20
337.026914
 30
0.0
 11
373.585861718843
 21
337.062481
 31
0.0
  0
LINE
  5
A59
102
{ACAD_REACTORS
330
EEF
102
}
330
1D
100
AcDbEntity
  8
CSLAYER1
  6
Continuous
100
AcDbLine
 10
373.585861718843
 20
337.062481
 30
0.0
 11
373.663949718843
 21
337.094477
 31
0.0
  0
LINE
  5
A5A
102
{ACAD_REACTORS
330
EEF
102
}
330
1D
100
AcDbEntity
  8
CSLAYER1
  6
Continuous
100
AcDbLine
 10
373.663949718843
 20
337.094477
 30
0.0
 11
373.741924718843
 21
337.122627
 31
0.0
  0
LINE
  5
A5B
102
{ACAD_REACTORS
330
EEF
102
}
330
1D
100
AcDbEntity
  8
CSLAYER1
  6
Continuous
100
AcDbLine
 10
373.741924718843
 20
337.122627
 30
0.0
 11
373.819776718843
 21
337.146655
 31
0.0
  0
LINE
  5
A5C
102
{ACAD_REACTORS
330
EEF
102
}
330
1D
100
AcDbEntity
  8
CSLAYER1
  6
Continuous
100
AcDbLine
 10
373.819776718843
 20
337.146655
 30
0.0
 11
373.897499718843
 21
337.166287
 31
0.0
  0
LINE
  5
A5D
102
{ACAD_REACTORS
330
EEF
102
}
330
1D
100
AcDbEntity
  8
CSLAYER1
  6
Continuous
100
AcDbLine
 10
373.897499718843
 20
337.166287
 30
0.0
 11
373.975083718843
 21
337.181248
 31
0.0
  0
LINE
  5
A5E
102
{ACAD_REACTORS
330
EEF
102
}
330
1D
100
AcDbEntity
  8
CSLAYER1
  6
Continuous
100
AcDbLine
 10
373.975083718843
 20
337.181248
 30
0.0
 11
374.052522718843
 21
337.191264
 31
0.0
  0
LINE
  5
A5F
102
{ACAD_REACTORS
330
EEF
102
}
330
1D
100
AcDbEntity
  8
CSLAYER1
  6
Continuous
100
AcDbLine
 10
374.052522718843
 20
337.191264
 30
0.0
 11
374.129805718843
 21
337.196059
 31
0.0
  0
LINE
  5
A60
102
{ACAD_REACTORS
330
EEF
102
}
330
1D
100
AcDbEntity
  8
CSLAYER1
  6
Continuous
100
AcDbLine
 10
374.129805718843
 20
337.196059
 30
0.0
 11
374.206926718843
 21
337.19536
 31
0.0
  0
LINE
  5
A61
102
{ACAD_REACTORS
330
EEF
102
}
330
1D
100
AcDbEntity
  8
CSLAYER1
  6
Continuous
100
AcDbLine
 10
374.206926718843
 20
337.19536
 30
0.0
 11
374.325876718843
 21
337.183192
 31
0.0
  0
LINE
  5
A62
102
{ACAD_REACTORS
330
EEF
102
}
330
1D
100
AcDbEntity
  8
CSLAYER1
  6
Continuous
100
AcDbLine
 10
374.325876718843
 20
337.183192
 30
0.0
 11
374.444483718843
 21
337.158456
 31
0.0
  0
LINE
  5
A63
102
{ACAD_REACTORS
330
EEF
102
}
330
1D
100
AcDbEntity
  8
CSLAYER1
  6
Continuous
100
AcDbLine
 10
374.444483718843
 20
337.158456
 30
0.0
 11
374.562810718843
 21
337.122384
 31
0.0
  0
LINE
  5
A64
102
{ACAD_REACTORS
330
DBE
330
EEF
102
}
330
1D
100
AcDbEntity
  8
CSLAYER1
  6
Continuous
100
AcDbLine
 10
374.562810718843
 20
337.122384
 30
0.0
 11
374.680924718843
 21
337.076208
 31
0.0
  0
LINE
  5
A65
102
{ACAD_REACTORS
330
DBE
102
}
330
1D
100
AcDbEntity
  8
CSLAYER1
  6
Continuous
100
AcDbLine
 10
374.680924718843
 20
337.076208
 30
0.0
 11
374.798889718843
 21
337.021161
 31
0.0
  0
LINE
  5
A66
102
{ACAD_REACTORS
330
DBE
102
}
330
1D
100
AcDbEntity
  8
CSLAYER1
  6
Continuous
100
AcDbLine
 10
374.798889718843
 20
337.021161
 30
0.0
 11
374.916770718843
 21
336.958474
 31
0.0
  0
LINE
  5
A67
102
{ACAD_REACTORS
330
DBE
102
}
330
1D
100
AcDbEntity
  8
CSLAYER1
  6
Continuous
100
AcDbLine
 10
374.916770718843
 20
336.958474
 30
0.0
 11
375.034632718843
 21
336.88938
 31
0.0
  0
LINE
  5
A68
102
{ACAD_REACTORS
330
DBE
102
}
330
1D
100
AcDbEntity
  8
CSLAYER1
  6
Continuous
100
AcDbLine
 10
375.034632718843
 20
336.88938
 30
0.0
 11
375.152540718843
 21
336.81511
 31
0.0
  0
LINE
  5
A69
102
{ACAD_REACTORS
330
DBE
102
}
330
1D
100
AcDbEntity
  8
CSLAYER1
  6
Continuous
100
AcDbLine
 10
375.152540718843
 20
336.81511
 30
0.0
 11
375.270557718843
 21
336.736898
 31
0.0
  0
LINE
  5
A6A
102
{ACAD_REACTORS
330
DBE
102
}
330
1D
100
AcDbEntity
  8
CSLAYER1
  6
Continuous
100
AcDbLine
 10
375.270557718843
 20
336.736898
 30
0.0
 11
375.388750718843
 21
336.655975
 31
0.0
  0
LINE
  5
A6B
102
{ACAD_REACTORS
330
DBE
102
}
330
1D
100
AcDbEntity
  8
CSLAYER1
  6
Continuous
100
AcDbLine
 10
375.388750718843
 20
336.655975
 30
0.0
 11
375.507184718843
 21
336.573574
 31
0.0
  0
LINE
  5
A6C
102
{ACAD_REACTORS
330
DBE
102
}
330
1D
100
AcDbEntity
  8
CSLAYER1
  6
Continuous
100
AcDbLine
 10
375.507184718843
 20
336.573574
 30
0.0
 11
375.625922718843
 21
336.490927
 31
0.0
  0
LINE
  5
A6D
102
{ACAD_REACTORS
330
DBE
102
}
330
1D
100
AcDbEntity
  8
CSLAYER1
  6
Continuous
100
AcDbLine
 10
375.625922718843
 20
336.490927
 30
0.0
 11
375.745029718843
 21
336.409265
 31
0.0
  0
LINE
  5
A6E
102
{ACAD_REACTORS
330
DBE
102
}
330
1D
100
AcDbEntity
  8
CSLAYER1
  6
Continuous
100
AcDbLine
 10
375.745029718843
 20
336.409265
 30
0.0
 11
375.864571718843
 21
336.329822
 31
0.0
  0
LINE
  5
A6F
102
{ACAD_REACTORS
330
DBE
102
}
330
1D
100
AcDbEntity
  8
CSLAYER1
  6
Continuous
100
AcDbLine
 10
375.864571718843
 20
336.329822
 30
0.0
 11
375.984613718843
 21
336.253829
 31
0.0
  0
LINE
  5
A70
102
{ACAD_REACTORS
330
DBE
102
}
330
1D
100
AcDbEntity
  8
CSLAYER1
  6
Continuous
100
AcDbLine
 10
375.984613718843
 20
336.253829
 30
0.0
 11
376.105219718843
 21
336.182519
 31
0.0
  0
LINE
  5
A71
102
{ACAD_REACTORS
330
DBE
102
}
330
1D
100
AcDbEntity
  8
CSLAYER1
  6
Continuous
100
AcDbLine
 10
376.105219718843
 20
336.182519
 30
0.0
 11
376.226454718843
 21
336.117123
 31
0.0
  0
LINE
  5
A72
102
{ACAD_REACTORS
330
DBE
102
}
330
1D
100
AcDbEntity
  8
CSLAYER1
  6
Continuous
100
AcDbLine
 10
376.226454718843
 20
336.117123
 30
0.0
 11
376.348382718843
 21
336.058875
 31
0.0
  0
LINE
  5
A73
102
{ACAD_REACTORS
330
DBE
102
}
330
1D
100
AcDbEntity
  8
CSLAYER1
  6
Continuous
100
AcDbLine
 10
376.348382718843
 20
336.058875
 30
0.0
 11
376.471070718843
 21
336.009005
 31
0.0
  0
LINE
  5
A74
102
{ACAD_REACTORS
330
DBE
102
}
330
1D
100
AcDbEntity
  8
CSLAYER1
  6
Continuous
100
AcDbLine
 10
376.471070718843
 20
336.009005
 30
0.0
 11
376.594581718843
 21
335.968747
 31
0.0
  0
LINE
  5
A75
330
1D
100
AcDbEntity
  8
CSLAYER1
  6
Continuous
100
AcDbLine
 10
376.594581718843
 20
335.968747
 30
0.0
 11
376.718980718843
 21
335.939333
 31
0.0
  0
LINE
  5
A76
330
1D
100
AcDbEntity
  8
CSLAYER1
  6
Continuous
100
AcDbLine
 10
376.718980718843
 20
335.939333
 30
0.0
 11
376.803981718843
 21
335.92606
 31
0.0
  0
LINE
  5
A77
330
1D
100
AcDbEntity
  8
CSLAYER1
  6
Continuous
100
AcDbLine
 10
376.803981718843
 20
335.92606
 30
0.0
 11
376.889400718843
 21
335.91809
 31
0.0
  0
LINE
  5
A78
330
1D
100
AcDbEntity
  8
CSLAYER1
  6
Continuous
100
AcDbLine
 10
376.889400718843
 20
335.91809
 30
0.0
 11
376.975217718843
 21
335.915157
 31
0.0
  0
LINE
  5
A79
330
1D
100
AcDbEntity
  8
CSLAYER1
  6
Continuous
100
AcDbLine
 10
376.975217718843
 20
335.915157
 30
0.0
 11
377.061410718843
 21
335.916997
 31
0.0
  0
LINE
  5
A7A
330
1D
100
AcDbEntity
  8
CSLAYER1
  6
Continuous
100
AcDbLine
 10
377.061410718843
 20
335.916997
 30
0.0
 11
377.147960718843
 21
335.923343
 31
0.0
  0
LINE
  5
A7B
330
1D
100
AcDbEntity
  8
CSLAYER1
  6
Continuous
100
AcDbLine
 10
377.147960718843
 20
335.923343
 30
0.0
 11
377.234844718843
 21
335.933932
 31
0.0
  0
LINE
  5
A7C
330
1D
100
AcDbEntity
  8
CSLAYER1
  6
Continuous
100
AcDbLine
 10
377.234844718843
 20
335.933932
 30
0.0
 11
377.322042718843
 21
335.948497
 31
0.0
  0
LINE
  5
A7D
330
1D
100
AcDbEntity
  8
CSLAYER1
  6
Continuous
100
AcDbLine
 10
377.322042718843
 20
335.948497
 30
0.0
 11
377.409533718843
 21
335.966774
 31
0.0
  0
LINE
  5
A7E
330
1D
100
AcDbEntity
  8
CSLAYER1
  6
Continuous
100
AcDbLine
 10
377.409533718843
 20
335.966774
 30
0.0
 11
377.497296718843
 21
335.988498
 31
0.0
  0
LINE
  5
A7F
330
1D
100
AcDbEntity
  8
CSLAYER1
  6
Continuous
100
AcDbLine
 10
377.497296718843
 20
335.988498
 30
0.0
 11
377.585311718843
 21
336.013403
 31
0.0
  0
LINE
  5
A80
330
1D
100
AcDbEntity
  8
CSLAYER1
  6
Continuous
100
AcDbLine
 10
377.585311718843
 20
336.013403
 30
0.0
 11
377.673555718843
 21
336.041225
 31
0.0
  0
LINE
  5
A81
330
1D
100
AcDbEntity
  8
CSLAYER1
  6
Continuous
100
AcDbLine
 10
377.673555718843
 20
336.041225
 30
0.0
 11
377.762009718843
 21
336.071698
 31
0.0
  0
LINE
  5
A82
330
1D
100
AcDbEntity
  8
CSLAYER1
  6
Continuous
100
AcDbLine
 10
377.762009718843
 20
336.071698
 30
0.0
 11
377.850651718843
 21
336.104557
 31
0.0
  0
LINE
  5
A83
330
1D
100
AcDbEntity
  8
CSLAYER1
  6
Continuous
100
AcDbLine
 10
377.850651718843
 20
336.104557
 30
0.0
 11
377.939460718843
 21
336.139537
 31
0.0
  0
LINE
  5
A84
330
1D
100
AcDbEntity
  8
CSLAYER1
  6
Continuous
100
AcDbLine
 10
377.939460718843
 20
336.139537
 30
0.0
 11
378.028416718843
 21
336.176373
 31
0.0
  0
LINE
  5
A85
330
1D
100
AcDbEntity
  8
CSLAYER1
  6
Continuous
100
AcDbLine
 10
378.028416718843
 20
336.176373
 30
0.0
 11
378.117498718843
 21
336.214799
 31
0.0
  0
LINE
  5
A86
330
1D
100
AcDbEntity
  8
CSLAYER1
  6
Continuous
100
AcDbLine
 10
378.117498718843
 20
336.214799
 30
0.0
 11
378.206684718843
 21
336.254552
 31
0.0
  0
LINE
  5
A87
330
1D
100
AcDbEntity
  8
CSLAYER1
  6
Continuous
100
AcDbLine
 10
378.206684718843
 20
336.254552
 30
0.0
 11
378.295954718843
 21
336.295364
 31
0.0
  0
LINE
  5
A88
330
1D
100
AcDbEntity
  8
CSLAYER1
  6
Continuous
100
AcDbLine
 10
378.295954718843
 20
336.295364
 30
0.0
 11
378.385286718843
 21
336.336972
 31
0.0
  0
LINE
  5
A89
330
1D
100
AcDbEntity
  8
CSLAYER1
  6
Continuous
100
AcDbLine
 10
378.385286718843
 20
336.336972
 30
0.0
 11
378.474661718843
 21
336.379111
 31
0.0
  0
LINE
  5
A8A
330
1D
100
AcDbEntity
  8
CSLAYER1
  6
Continuous
100
AcDbLine
 10
378.474661718843
 20
336.379111
 30
0.0
 11
378.564056718843
 21
336.421514
 31
0.0
  0
TEXT
  5
A93
330
1D
100
AcDbEntity
  8
CSLAYER10
100
AcDbText
 10
348.407564718843
 20
229.421509
 30
0.0
 40
4.0
  1
24
 50
90.0
 41
0.681818181818
  7
FX_FONT
 72
     5
 11
348.407564718843
 21
234.421509
 31
0.0
100
AcDbText
  0
LINE
  5
A94
330
1D
100
AcDbEntity
  8
CSLAYER10
  6
Continuous
100
AcDbLine
 10
358.464056718843
 20
219.971514
 30
0.0
 11
348.407554718843
 21
219.971514
 31
0.0
  0
LINE
  5
A95
330
1D
100
AcDbEntity
  8
CSLAYER10
  6
Continuous
100
AcDbLine
 10
358.464056718843
 20
243.871514
 30
0.0
 11
348.407554718843
 21
243.871514
 31
0.0
  0
LINE
  5
A96
330
1D
100
AcDbEntity
  8
CSLAYER10
  6
Continuous
100
AcDbLine
 10
349.407554718843
 20
219.971514
 30
0.0
 11
349.407554718843
 21
243.871514
 31
0.0
  0
LINE
  5
A97
330
1D
100
AcDbEntity
  8
CSLAYER10
  6
Continuous
100
AcDbLine
 10
349.407554718843
 20
219.971514
 30
0.0
 11
349.146501718843
 21
221.954404
 31
0.0
  0
LINE
  5
A98
330
1D
100
AcDbEntity
  8
CSLAYER10
  6
Continuous
100
AcDbLine
 10
349.407554718843
 20
219.971514
 30
0.0
 11
349.668606718843
 21
221.954404
 31
0.0
  0
LINE
  5
A99
330
1D
100
AcDbEntity
  8
CSLAYER10
  6
Continuous
100
AcDbLine
 10
349.407554718843
 20
243.871514
 30
0.0
 11
349.146501718843
 21
241.888625
 31
0.0
  0
LINE
  5
A9A
330
1D
100
AcDbEntity
  8
CSLAYER10
  6
Continuous
100
AcDbLine
 10
349.407554718843
 20
243.871514
 30
0.0
 11
349.668606718843
 21
241.888625
 31
0.0
  0
TEXT
  5
A9B
330
1D
100
AcDbEntity
  8
CSLAYER10
100
AcDbText
 10
348.407564718843
 20
252.671509
 30
0.0
 40
4.0
  1
5
 50
90.0
 41
0.75
  7
FX_FONT
 72
     5
 11
348.407564718843
 21
255.171509
 31
0.0
100
AcDbText
  0
LINE
  5
A9C
330
1D
100
AcDbEntity
  8
CSLAYER10
  6
Continuous
100
AcDbLine
 10
361.264056718843
 20
251.421514
 30
0.0
 11
348.407554718843
 21
251.421514
 31
0.0
  0
LINE
  5
A9D
330
1D
100
AcDbEntity
  8
CSLAYER10
  6
Continuous
100
AcDbLine
 10
361.264056718843
 20
256.421514
 30
0.0
 11
348.407554718843
 21
256.421514
 31
0.0
  0
LINE
  5
A9F
330
1D
100
AcDbEntity
  8
CSLAYER10
  6
Continuous
100
AcDbLine
 10
349.407554718843
 20
246.421514
 30
0.0
 11
349.407554718843
 21
261.421514
 31
0.0
  0
LINE
  5
AA0
330
1D
100
AcDbEntity
  8
CSLAYER10
  6
Continuous
100
AcDbLine
 10
349.407554718843
 20
251.421514
 30
0.0
 11
349.146501718843
 21
249.438625
 31
0.0
  0
LINE
  5
AA1
330
1D
100
AcDbEntity
  8
CSLAYER10
  6
Continuous
100
AcDbLine
 10
349.407554718843
 20
251.421514
 30
0.0
 11
349.668606718843
 21
249.438625
 31
0.0
  0
LINE
  5
AA3
330
1D
100
AcDbEntity
  8
CSLAYER10
  6
Continuous
100
AcDbLine
 10
349.407554718843
 20
256.421514
 30
0.0
 11
349.146501718843
 21
258.404404
 31
0.0
  0
LINE
  5
AA4
330
1D
100
AcDbEntity
  8
CSLAYER10
  6
Continuous
100
AcDbLine
 10
349.407554718843
 20
256.421514
 30
0.0
 11
349.668606718843
 21
258.404404
 31
0.0
  0
TEXT
  5
AA5
330
1D
100
AcDbEntity
  8
CSLAYER10
100
AcDbText
 10
341.407564718843
 20
240.421509
 30
0.0
 40
4.0
  1
22
 50
90.0
 41
0.681818181818
  7
FX_FONT
 72
     5
 11
341.407564718843
 21
245.421509
 31
0.0
100
AcDbText
  0
LINE
  5
AA6
330
1D
100
AcDbEntity
  8
CSLAYER10
  6
Continuous
100
AcDbLine
 10
384.600750718843
 20
231.921514
 30
0.0
 11
349.407554718843
 21
231.921514
 31
0.0
  0
LINE
  5
AA7
330
1D
100
AcDbEntity
  8
CSLAYER10
  6
Continuous
100
AcDbLine
 10
383.695920718843
 20
253.921514
 30
0.0
 11
349.407554718843
 21
253.921514
 31
0.0
  0
LINE
  5
AA9
330
1D
100
AcDbEntity
  8
CSLAYER10
  6
Continuous
100
AcDbLine
 10
342.407554718843
 20
231.921514
 30
0.0
 11
342.146501718843
 21
233.904404
 31
0.0
  0
LINE
  5
AAA
330
1D
100
AcDbEntity
  8
CSLAYER10
  6
Continuous
100
AcDbLine
 10
342.407554718843
 20
231.921514
 30
0.0
 11
342.668606718843
 21
233.904404
 31
0.0
  0
LINE
  5
AAB
330
1D
100
AcDbEntity
  8
CSLAYER10
  6
Continuous
100
AcDbLine
 10
342.407554718843
 20
253.921514
 30
0.0
 11
342.146501718843
 21
251.938625
 31
0.0
  0
LINE
  5
AAC
330
1D
100
AcDbEntity
  8
CSLAYER10
  6
Continuous
100
AcDbLine
 10
342.407554718843
 20
253.921514
 30
0.0
 11
342.668606718843
 21
251.938625
 31
0.0
  0
LINE
  5
AAD
330
1D
100
AcDbEntity
  8
CSLAYER10
  6
Continuous
100
AcDbLine
 10
344.237828718843
 20
253.921514
 30
0.0
 11
341.407554718843
 21
253.921514
 31
0.0
  0
LINE
  5
AAE
330
1D
100
AcDbEntity
  8
CSLAYER10
  6
Continuous
100
AcDbLine
 10
343.727321718843
 20
231.921514
 30
0.0
 11
341.407554718843
 21
231.921514
 31
0.0
  0
TEXT
  5
AAF
330
1D
100
AcDbEntity
  8
CSLAYER10
100
AcDbText
 10
341.407564718843
 20
198.921509
 30
0.0
 40
4.0
  1
61
 50
90.0
 41
0.746887966805
  7
FX_FONT
 72
     5
 11
341.407564718843
 21
203.921509
 31
0.0
100
AcDbText
  0
LINE
  5
AB0
330
1D
100
AcDbEntity
  8
CSLAYER10
  6
Continuous
100
AcDbLine
 10
382.338676718843
 20
170.921514
 30
0.0
 11
334.407554718843
 21
170.921514
 31
0.0
  0
LINE
  5
AB1
330
1D
100
AcDbEntity
  8
CSLAYER10
  6
Continuous
100
AcDbLine
 10
342.407554718843
 20
170.921514
 30
0.0
 11
342.407554718843
 21
253.921514
 31
0.0
  0
LINE
  5
AB2
330
1D
100
AcDbEntity
  8
CSLAYER10
  6
Continuous
100
AcDbLine
 10
342.407554718843
 20
170.921514
 30
0.0
 11
342.146501718843
 21
172.904404
 31
0.0
  0
LINE
  5
AB3
330
1D
100
AcDbEntity
  8
CSLAYER10
  6
Continuous
100
AcDbLine
 10
342.407554718843
 20
170.921514
 30
0.0
 11
342.668606718843
 21
172.904404
 31
0.0
  0
LINE
  5
AB4
330
1D
100
AcDbEntity
  8
CSLAYER10
  6
Continuous
100
AcDbLine
 10
342.407554718843
 20
231.921514
 30
0.0
 11
342.146501718843
 21
229.938625
 31
0.0
  0
LINE
  5
AB5
330
1D
100
AcDbEntity
  8
CSLAYER10
  6
Continuous
100
AcDbLine
 10
342.407554718843
 20
231.921514
 30
0.0
 11
342.668606718843
 21
229.938625
 31
0.0
  0
TEXT
  5
AB6
330
1D
100
AcDbEntity
  8
CSLAYER10
100
AcDbText
 10
334.407564718843
 20
253.171509
 30
0.0
 40
4.0
  1
172
 50
90.0
 41
0.661764705882
  7
FX_FONT
 72
     5
 11
334.407564718843
 21
260.671509
 31
0.0
100
AcDbText
  0
LINE
  5
AB7
102
{ACAD_REACTORS
330
EEF
102
}
330
1D
100
AcDbEntity
  8
CSLAYER10
  6
Continuous
100
AcDbLine
 10
381.517886718843
 20
342.921514
 30
0.0
 11
334.407554718843
 21
342.921514
 31
0.0
  0
LINE
  5
AB9
330
1D
100
AcDbEntity
  8
CSLAYER10
  6
Continuous
100
AcDbLine
 10
335.407554718843
 20
170.921514
 30
0.0
 11
335.146501718843
 21
172.904404
 31
0.0
  0
LINE
  5
ABA
330
1D
100
AcDbEntity
  8
CSLAYER10
  6
Continuous
100
AcDbLine
 10
335.407554718843
 20
170.921514
 30
0.0
 11
335.668606718843
 21
172.904404
 31
0.0
  0
LINE
  5
ABB
330
1D
100
AcDbEntity
  8
CSLAYER10
  6
Continuous
100
AcDbLine
 10
335.407554718843
 20
342.921514
 30
0.0
 11
335.146501718843
 21
340.938625
 31
0.0
  0
LINE
  5
ABC
330
1D
100
AcDbEntity
  8
CSLAYER10
  6
Continuous
100
AcDbLine
 10
335.407554718843
 20
342.921514
 30
0.0
 11
335.668606718843
 21
340.938625
 31
0.0
  0
TEXT
  5
ABD
330
1D
100
AcDbEntity
  8
CSLAYER10
100
AcDbText
 10
334.407564718843
 20
344.171539
 30
0.0
 40
4.0
  1
12.5
 50
90.0
 41
0.652173913043
  7
FX_FONT
 72
     5
 11
334.407564718843
 21
354.171539
 31
0.0
100
AcDbText
  0
LINE
  5
ABE
330
1D
100
AcDbEntity
  8
CSLAYER10
  6
Continuous
100
AcDbLine
 10
373.564056718843
 20
355.421514
 30
0.0
 11
327.407554718843
 21
355.421514
 31
0.0
  0
LINE
  5
AC0
330
1D
100
AcDbEntity
  8
CSLAYER10
  6
Continuous
100
AcDbLine
 10
335.407554718843
 20
342.921514
 30
0.0
 11
335.146501718843
 21
344.904404
 31
0.0
  0
LINE
  5
AC1
330
1D
100
AcDbEntity
  8
CSLAYER10
  6
Continuous
100
AcDbLine
 10
335.407554718843
 20
342.921514
 30
0.0
 11
335.668606718843
 21
344.904404
 31
0.0
  0
LINE
  5
AC2
330
1D
100
AcDbEntity
  8
CSLAYER10
  6
Continuous
100
AcDbLine
 10
335.407554718843
 20
355.421514
 30
0.0
 11
335.146501718843
 21
353.438625
 31
0.0
  0
LINE
  5
AC3
330
1D
100
AcDbEntity
  8
CSLAYER10
  6
Continuous
100
AcDbLine
 10
335.407554718843
 20
355.421514
 30
0.0
 11
335.668606718843
 21
353.438625
 31
0.0
  0
TEXT
  5
AC4
330
1D
100
AcDbEntity
  8
CSLAYER10
100
AcDbText
 10
334.407564718843
 20
159.671509
 30
0.0
 40
4.0
  1
12.5
 50
90.0
 41
0.652173913043
  7
FX_FONT
 72
     5
 11
334.407564718843
 21
169.671509
 31
0.0
100
AcDbText
  0
LINE
  5
AC5
330
1D
100
AcDbEntity
  8
CSLAYER10
  6
Continuous
100
AcDbLine
 10
373.564056718843
 20
158.421514
 30
0.0
 11
327.407554718843
 21
158.421514
 31
0.0
  0
LINE
  5
AC6
330
1D
100
AcDbEntity
  8
CSLAYER10
  6
Continuous
100
AcDbLine
 10
335.407554718843
 20
170.921514
 30
0.0
 11
335.407554718843
 21
342.921514
 31
0.0
  0
LINE
  5
AC7
330
1D
100
AcDbEntity
  8
CSLAYER10
  6
Continuous
100
AcDbLine
 10
335.407554718843
 20
158.421514
 30
0.0
 11
335.146501718843
 21
160.404404
 31
0.0
  0
LINE
  5
AC8
330
1D
100
AcDbEntity
  8
CSLAYER10
  6
Continuous
100
AcDbLine
 10
335.407554718843
 20
158.421514
 30
0.0
 11
335.668606718843
 21
160.404404
 31
0.0
  0
LINE
  5
AC9
330
1D
100
AcDbEntity
  8
CSLAYER10
  6
Continuous
100
AcDbLine
 10
335.407554718843
 20
170.921514
 30
0.0
 11
335.146501718843
 21
168.938625
 31
0.0
  0
LINE
  5
ACA
330
1D
100
AcDbEntity
  8
CSLAYER10
  6
Continuous
100
AcDbLine
 10
335.407554718843
 20
170.921514
 30
0.0
 11
335.668606718843
 21
168.938625
 31
0.0
  0
TEXT
  5
ACB
330
1D
100
AcDbEntity
  8
CSLAYER10
100
AcDbText
 10
327.407564718843
 20
253.171509
 30
0.0
 40
4.0
  1
197
 50
90.0
 41
0.66165659206
  7
FX_FONT
 72
     5
 11
327.407564718843
 21
260.671509
 31
0.0
100
AcDbText
  0
LINE
  5
ACC
330
1D
100
AcDbEntity
  8
CSLAYER10
  6
Continuous
100
AcDbLine
 10
328.407554718843
 20
158.421514
 30
0.0
 11
328.407554718843
 21
355.421514
 31
0.0
  0
LINE
  5
ACD
330
1D
100
AcDbEntity
  8
CSLAYER10
  6
Continuous
100
AcDbLine
 10
328.407554718843
 20
158.421514
 30
0.0
 11
328.146501718843
 21
160.404404
 31
0.0
  0
LINE
  5
ACE
330
1D
100
AcDbEntity
  8
CSLAYER10
  6
Continuous
100
AcDbLine
 10
328.407554718843
 20
158.421514
 30
0.0
 11
328.668606718843
 21
160.404404
 31
0.0
  0
LINE
  5
ACF
330
1D
100
AcDbEntity
  8
CSLAYER10
  6
Continuous
100
AcDbLine
 10
328.407554718843
 20
355.421514
 30
0.0
 11
328.146501718843
 21
353.438625
 31
0.0
  0
LINE
  5
AD0
330
1D
100
AcDbEntity
  8
CSLAYER10
  6
Continuous
100
AcDbLine
 10
328.407554718843
 20
355.421514
 30
0.0
 11
328.668606718843
 21
353.438625
 31
0.0
  0
TEXT
  5
AD1
330
1D
100
AcDbEntity
  8
CSLAYER10
100
AcDbText
 10
363.514071718843
 20
206.827713
 30
0.0
 40
4.0
  1
13
 41
0.681818181818
  7
FX_FONT
 72
     5
 11
368.514071718843
 21
206.827713
 31
0.0
100
AcDbText
  0
LINE
  5
AD2
330
1D
100
AcDbEntity
  8
CSLAYER10
  6
Continuous
100
AcDbLine
 10
359.464056718843
 20
218.971514
 30
0.0
 11
359.464056718843
 21
204.827718
 31
0.0
  0
LINE
  5
AD3
330
1D
100
AcDbEntity
  8
CSLAYER10
  6
Continuous
100
AcDbLine
 10
372.564056718843
 20
218.971514
 30
0.0
 11
372.564056718843
 21
204.827718
 31
0.0
  0
LINE
  5
AD4
330
1D
100
AcDbEntity
  8
CSLAYER10
  6
Continuous
100
AcDbLine
 10
359.464056718843
 20
205.827718
 30
0.0
 11
372.564056718843
 21
205.827718
 31
0.0
  0
LINE
  5
AD5
330
1D
100
AcDbEntity
  8
CSLAYER10
  6
Continuous
100
AcDbLine
 10
359.464056718843
 20
205.827718
 30
0.0
 11
361.446946718843
 21
206.08877
 31
0.0
  0
LINE
  5
AD6
330
1D
100
AcDbEntity
  8
CSLAYER10
  6
Continuous
100
AcDbLine
 10
359.464056718843
 20
205.827718
 30
0.0
 11
361.446946718843
 21
205.566666
 31
0.0
  0
LINE
  5
AD7
330
1D
100
AcDbEntity
  8
CSLAYER10
  6
Continuous
100
AcDbLine
 10
372.564056718843
 20
205.827718
 30
0.0
 11
370.581167718843
 21
206.08877
 31
0.0
  0
LINE
  5
AD8
330
1D
100
AcDbEntity
  8
CSLAYER10
  6
Continuous
100
AcDbLine
 10
372.564056718843
 20
205.827718
 30
0.0
 11
370.581167718843
 21
205.566666
 31
0.0
  0
TEXT
  5
AD9
330
1D
100
AcDbEntity
  8
CSLAYER10
100
AcDbText
 10
364.914064718843
 20
274.551941
 30
0.0
 40
4.0
  1
10
 41
0.705329153605
  7
FX_FONT
 72
     5
 11
369.914064718843
 21
274.551941
 31
0.0
100
AcDbText
  0
LINE
  5
ADA
330
1D
100
AcDbEntity
  8
CSLAYER10
  6
Continuous
100
AcDbLine
 10
362.264056718843
 20
257.421514
 30
0.0
 11
362.264056718843
 21
274.551937
 31
0.0
  0
LINE
  5
ADB
330
1D
100
AcDbEntity
  8
CSLAYER10
  6
Continuous
100
AcDbLine
 10
372.564056718843
 20
257.421514
 30
0.0
 11
372.564056718843
 21
274.551937
 31
0.0
  0
LINE
  5
ADC
330
1D
100
AcDbEntity
  8
CSLAYER10
  6
Continuous
100
AcDbLine
 10
362.264056718843
 20
273.551937
 30
0.0
 11
372.564056718843
 21
273.551937
 31
0.0
  0
LINE
  5
ADD
330
1D
100
AcDbEntity
  8
CSLAYER10
  6
Continuous
100
AcDbLine
 10
362.264056718843
 20
273.551937
 30
0.0
 11
364.246946718843
 21
273.812989
 31
0.0
  0
LINE
  5
ADE
330
1D
100
AcDbEntity
  8
CSLAYER10
  6
Continuous
100
AcDbLine
 10
362.264056718843
 20
273.551937
 30
0.0
 11
364.246946718843
 21
273.290884
 31
0.0
  0
LINE
  5
ADF
330
1D
100
AcDbEntity
  8
CSLAYER10
  6
Continuous
100
AcDbLine
 10
372.564056718843
 20
273.551937
 30
0.0
 11
370.581167718843
 21
273.812989
 31
0.0
  0
LINE
  5
AE0
330
1D
100
AcDbEntity
  8
CSLAYER10
  6
Continuous
100
AcDbLine
 10
372.564056718843
 20
273.551937
 30
0.0
 11
370.581167718843
 21
273.290884
 31
0.0
  0
TEXT
  5
AE1
330
1D
100
AcDbEntity
  8
CSLAYER10
100
AcDbText
 10
386.211550718843
 20
147.921753
 30
0.0
 40
4.0
  1
6
 41
0.75
  7
FX_FONT
 72
     5
 11
388.711550718843
 21
147.921753
 31
0.0
100
AcDbText
  0
LINE
  5
AE2
330
1D
100
AcDbEntity
  8
CSLAYER10
  6
Continuous
100
AcDbLine
 10
372.564056718843
 20
157.621514
 30
0.0
 11
372.564056718843
 21
131.921757
 31
0.0
  0
LINE
  5
AE3
330
1D
100
AcDbEntity
  8
CSLAYER10
  6
Continuous
100
AcDbLine
 10
378.564056718843
 20
157.421514
 30
0.0
 11
378.564056718843
 21
145.921757
 31
0.0
  0
LINE
  5
AE5
330
1D
100
AcDbEntity
  8
CSLAYER10
  6
Continuous
100
AcDbLine
 10
367.564056718843
 20
146.921757
 30
0.0
 11
396.359025718843
 21
146.921757
 31
0.0
  0
LINE
  5
AE6
330
1D
100
AcDbEntity
  8
CSLAYER10
  6
Continuous
100
AcDbLine
 10
372.564056718843
 20
146.921757
 30
0.0
 11
370.581167718843
 21
147.18281
 31
0.0
  0
LINE
  5
AE7
330
1D
100
AcDbEntity
  8
CSLAYER10
  6
Continuous
100
AcDbLine
 10
372.564056718843
 20
146.921757
 30
0.0
 11
370.581167718843
 21
146.660705
 31
0.0
  0
LINE
  5
AE9
330
1D
100
AcDbEntity
  8
CSLAYER10
  6
Continuous
100
AcDbLine
 10
378.564056718843
 20
146.921757
 30
0.0
 11
380.546946718843
 21
147.18281
 31
0.0
  0
LINE
  5
AEA
330
1D
100
AcDbEntity
  8
CSLAYER10
  6
Continuous
100
AcDbLine
 10
378.564056718843
 20
146.921757
 30
0.0
 11
380.546946718843
 21
146.660705
 31
0.0
  0
TEXT
  5
AEB
330
1D
100
AcDbEntity
  8
CSLAYER10
100
AcDbText
 10
467.064058718843
 20
140.921753
 30
0.0
 40
4.0
  1
54
 41
0.679245283019
  7
FX_FONT
 72
     5
 11
472.064058718843
 21
140.921753
 31
0.0
100
AcDbText
  0
LINE
  5
AEC
330
1D
100
AcDbEntity
  8
CSLAYER10
  6
Continuous
100
AcDbLine
 10
496.564056718843
 20
189.921514
 30
0.0
 11
496.564056718843
 21
131.921757
 31
0.0
  0
LINE
  5
AEE
330
1D
100
AcDbEntity
  8
CSLAYER10
  6
Continuous
100
AcDbLine
 10
442.564056718843
 20
139.921757
 30
0.0
 11
444.546946718843
 21
140.18281
 31
0.0
  0
LINE
  5
AEF
330
1D
100
AcDbEntity
  8
CSLAYER10
  6
Continuous
100
AcDbLine
 10
442.564056718843
 20
139.921757
 30
0.0
 11
444.546946718843
 21
139.660705
 31
0.0
  0
LINE
  5
AF0
330
1D
100
AcDbEntity
  8
CSLAYER10
  6
Continuous
100
AcDbLine
 10
496.564056718843
 20
139.921757
 30
0.0
 11
494.581167718843
 21
140.18281
 31
0.0
  0
LINE
  5
AF1
330
1D
100
AcDbEntity
  8
CSLAYER10
  6
Continuous
100
AcDbLine
 10
496.564056718843
 20
139.921757
 30
0.0
 11
494.581167718843
 21
139.660705
 31
0.0
  0
TEXT
  5
AF2
330
1D
100
AcDbEntity
  8
CSLAYER10
100
AcDbText
 10
430.814058718843
 20
133.921753
 30
0.0
 40
4.0
  1
124
 41
0.661764705882
  7
FX_FONT
 72
     5
 11
438.314058718843
 21
133.921753
 31
0.0
100
AcDbText
  0
LINE
  5
AF3
330
1D
100
AcDbEntity
  8
CSLAYER10
  6
Continuous
100
AcDbLine
 10
372.564056718843
 20
132.921757
 30
0.0
 11
496.564056718843
 21
132.921757
 31
0.0
  0
LINE
  5
AF4
330
1D
100
AcDbEntity
  8
CSLAYER10
  6
Continuous
100
AcDbLine
 10
372.564056718843
 20
132.921757
 30
0.0
 11
374.546946718843
 21
133.18281
 31
0.0
  0
LINE
  5
AF5
330
1D
100
AcDbEntity
  8
CSLAYER10
  6
Continuous
100
AcDbLine
 10
372.564056718843
 20
132.921757
 30
0.0
 11
374.546946718843
 21
132.660705
 31
0.0
  0
LINE
  5
AF6
330
1D
100
AcDbEntity
  8
CSLAYER10
  6
Continuous
100
AcDbLine
 10
496.564056718843
 20
132.921757
 30
0.0
 11
494.581167718843
 21
133.18281
 31
0.0
  0
LINE
  5
AF7
330
1D
100
AcDbEntity
  8
CSLAYER10
  6
Continuous
100
AcDbLine
 10
496.564056718843
 20
132.921757
 30
0.0
 11
494.581167718843
 21
132.660705
 31
0.0
  0
TEXT
  5
AF8
330
1D
100
AcDbEntity
  8
CSLAYER10
100
AcDbText
 10
517.239412718843
 20
169.171509
 30
0.0
 40
4.0
  1
30.5
 50
90.0
 41
0.651937703731
  7
FX_FONT
 72
     5
 11
517.239412718843
 21
179.171509
 31
0.0
100
AcDbText
  0
LINE
  5
AF9
330
1D
100
AcDbEntity
  8
CSLAYER10
  6
Continuous
100
AcDbLine
 10
379.564056718843
 20
158.421514
 30
0.0
 11
519.239417718843
 21
158.421514
 31
0.0
  0
LINE
  5
AFA
330
1D
100
AcDbEntity
  8
CSLAYER10
  6
Continuous
100
AcDbLine
 10
496.564056718843
 20
189.921514
 30
0.0
 11
519.239417718843
 21
189.921514
 31
0.0
  0
LINE
  5
AFB
330
1D
100
AcDbEntity
  8
CSLAYER10
  6
Continuous
100
AcDbLine
 10
518.239417718843
 20
158.421514
 30
0.0
 11
518.239417718843
 21
355.421514
 31
0.0
  0
LINE
  5
AFC
330
1D
100
AcDbEntity
  8
CSLAYER10
  6
Continuous
100
AcDbLine
 10
518.239417718843
 20
158.421514
 30
0.0
 11
517.978365718843
 21
160.404404
 31
0.0
  0
LINE
  5
AFD
330
1D
100
AcDbEntity
  8
CSLAYER10
  6
Continuous
100
AcDbLine
 10
518.239417718843
 20
158.421514
 30
0.0
 11
518.500469718843
 21
160.404404
 31
0.0
  0
LINE
  5
AFE
330
1D
100
AcDbEntity
  8
CSLAYER10
  6
Continuous
100
AcDbLine
 10
518.239417718843
 20
189.921514
 30
0.0
 11
517.978365718843
 21
187.938625
 31
0.0
  0
LINE
  5
AFF
330
1D
100
AcDbEntity
  8
CSLAYER10
  6
Continuous
100
AcDbLine
 10
518.239417718843
 20
189.921514
 30
0.0
 11
518.500469718843
 21
187.938625
 31
0.0
  0
TEXT
  5
B00
330
1D
100
AcDbEntity
  8
CSLAYER10
100
AcDbText
 10
517.239412718843
 20
253.171509
 30
0.0
 40
4.0
  1
136
 50
90.0
 41
0.661764705882
  7
FX_FONT
 72
     5
 11
517.239412718843
 21
260.671509
 31
0.0
100
AcDbText
  0
LINE
  5
B01
330
1D
100
AcDbEntity
  8
CSLAYER10
  6
Continuous
100
AcDbLine
 10
494.564056718843
 20
323.921514
 30
0.0
 11
519.239417718843
 21
323.921514
 31
0.0
  0
LINE
  5
B03
330
1D
100
AcDbEntity
  8
CSLAYER10
  6
Continuous
100
AcDbLine
 10
518.239417718843
 20
189.921514
 30
0.0
 11
517.978365718843
 21
191.904404
 31
0.0
  0
LINE
  5
B04
330
1D
100
AcDbEntity
  8
CSLAYER10
  6
Continuous
100
AcDbLine
 10
518.239417718843
 20
189.921514
 30
0.0
 11
518.500469718843
 21
191.904404
 31
0.0
  0
LINE
  5
B05
330
1D
100
AcDbEntity
  8
CSLAYER10
  6
Continuous
100
AcDbLine
 10
518.239417718843
 20
323.921514
 30
0.0
 11
517.978365718843
 21
321.938625
 31
0.0
  0
LINE
  5
B06
330
1D
100
AcDbEntity
  8
CSLAYER10
  6
Continuous
100
AcDbLine
 10
518.239417718843
 20
323.921514
 30
0.0
 11
518.500469718843
 21
321.938625
 31
0.0
  0
TEXT
  5
B07
330
1D
100
AcDbEntity
  8
CSLAYER10
100
AcDbText
 10
517.100130718843
 20
329.463104
 30
0.0
 40
4.0
  1
30.5
 50
90.0
 41
0.651937703731
  7
FX_FONT
 72
     5
 11
517.100130718843
 21
339.463104
 31
0.0
100
AcDbText
  0
LINE
  5
B08
330
1D
100
AcDbEntity
  8
CSLAYER10
  6
Continuous
100
AcDbLine
 10
379.564056718843
 20
355.421514
 30
0.0
 11
519.239417718843
 21
355.421514
 31
0.0
  0
LINE
  5
B0A
330
1D
100
AcDbEntity
  8
CSLAYER10
  6
Continuous
100
AcDbLine
 10
518.239417718843
 20
323.921514
 30
0.0
 11
517.978365718843
 21
325.904404
 31
0.0
  0
LINE
  5
B0B
330
1D
100
AcDbEntity
  8
CSLAYER10
  6
Continuous
100
AcDbLine
 10
518.239417718843
 20
323.921514
 30
0.0
 11
518.500469718843
 21
325.904404
 31
0.0
  0
LINE
  5
B0C
330
1D
100
AcDbEntity
  8
CSLAYER10
  6
Continuous
100
AcDbLine
 10
518.239417718843
 20
355.421514
 30
0.0
 11
517.978365718843
 21
353.438625
 31
0.0
  0
LINE
  5
B0D
330
1D
100
AcDbEntity
  8
CSLAYER10
  6
Continuous
100
AcDbLine
 10
518.239417718843
 20
355.421514
 30
0.0
 11
518.500469718843
 21
353.438625
 31
0.0
  0
LINE
  5
B0E
330
1D
100
AcDbEntity
  8
CSLAYER10
  6
Continuous
100
AcDbLine
 10
223.580745
 20
363.046959
 30
0.0
 11
223.580745
 21
379.559202
 31
0.0
  0
TEXT
  5
B0F
330
1D
100
AcDbEntity
  8
CSLAYER10
100
AcDbText
 10
221.08075
 20
136.393951
 30
0.0
 40
4.0
  1
26
 41
0.681818181818
  7
FX_FONT
 72
     5
 11
226.08075
 21
136.393951
 31
0.0
100
AcDbText
  0
LINE
  5
B10
330
1D
100
AcDbEntity
  8
CSLAYER10
  6
Continuous
100
AcDbLine
 10
210.780745
 20
157.621514
 30
0.0
 11
210.780745
 21
134.393953
 31
0.0
  0
LINE
  5
B11
330
1D
100
AcDbEntity
  8
CSLAYER10
  6
Continuous
100
AcDbLine
 10
236.380745
 20
157.621514
 30
0.0
 11
236.380745
 21
134.393953
 31
0.0
  0
LINE
  5
B12
330
1D
100
AcDbEntity
  8
CSLAYER10
  6
Continuous
100
AcDbLine
 10
210.780745
 20
135.393953
 30
0.0
 11
236.380745
 21
135.393953
 31
0.0
  0
LINE
  5
B13
330
1D
100
AcDbEntity
  8
CSLAYER10
  6
Continuous
100
AcDbLine
 10
210.780745
 20
135.393953
 30
0.0
 11
212.763634
 21
135.655006
 31
0.0
  0
LINE
  5
B14
330
1D
100
AcDbEntity
  8
CSLAYER10
  6
Continuous
100
AcDbLine
 10
210.780745
 20
135.393953
 30
0.0
 11
212.763634
 21
135.132901
 31
0.0
  0
LINE
  5
B15
330
1D
100
AcDbEntity
  8
CSLAYER10
  6
Continuous
100
AcDbLine
 10
236.380745
 20
135.393953
 30
0.0
 11
234.397855
 21
135.655006
 31
0.0
  0
LINE
  5
B16
330
1D
100
AcDbEntity
  8
CSLAYER10
  6
Continuous
100
AcDbLine
 10
236.380745
 20
135.393953
 30
0.0
 11
234.397855
 21
135.132901
 31
0.0
  0
TEXT
  5
B17
330
1D
100
AcDbEntity
  8
CSLAYER10
100
AcDbText
 10
124.320435
 20
332.721527
 30
0.0
 40
4.0
  1
40
 50
90.0
 41
0.705329153605
  7
FX_FONT
 72
     5
 11
124.320435
 21
337.721527
 31
0.0
100
AcDbText
  0
LINE
  5
B18
330
1D
100
AcDbEntity
  8
CSLAYER10
  6
Continuous
100
AcDbLine
 10
209.780745
 20
355.221514
 30
0.0
 11
124.320433
 21
355.221514
 31
0.0
  0
LINE
  5
B1A
330
1D
100
AcDbEntity
  8
CSLAYER10
  6
Continuous
100
AcDbLine
 10
125.320433
 20
315.221514
 30
0.0
 11
125.059381
 21
317.204404
 31
0.0
  0
LINE
  5
B1B
330
1D
100
AcDbEntity
  8
CSLAYER10
  6
Continuous
100
AcDbLine
 10
125.320433
 20
315.221514
 30
0.0
 11
125.581486
 21
317.204404
 31
0.0
  0
LINE
  5
B1C
330
1D
100
AcDbEntity
  8
CSLAYER10
  6
Continuous
100
AcDbLine
 10
125.320433
 20
355.221514
 30
0.0
 11
125.059381
 21
353.238625
 31
0.0
  0
LINE
  5
B1D
330
1D
100
AcDbEntity
  8
CSLAYER10
  6
Continuous
100
AcDbLine
 10
125.320433
 20
355.221514
 30
0.0
 11
125.581486
 21
353.238625
 31
0.0
  0
TEXT
  5
B1E
330
1D
100
AcDbEntity
  8
CSLAYER10
100
AcDbText
 10
221.08075
 20
205.761353
 30
0.0
 40
4.0
  1
14
 41
0.681818181818
  7
FX_FONT
 72
     5
 11
226.08075
 21
205.761353
 31
0.0
100
AcDbText
  0
LINE
  5
B1F
330
1D
100
AcDbEntity
  8
CSLAYER10
  6
Continuous
100
AcDbLine
 10
216.580745
 20
219.221514
 30
0.0
 11
216.580745
 21
203.76135
 31
0.0
  0
LINE
  5
B20
330
1D
100
AcDbEntity
  8
CSLAYER10
  6
Continuous
100
AcDbLine
 10
230.580745
 20
219.221514
 30
0.0
 11
230.580745
 21
203.76135
 31
0.0
  0
LINE
  5
B21
330
1D
100
AcDbEntity
  8
CSLAYER10
  6
Continuous
100
AcDbLine
 10
216.580745
 20
204.76135
 30
0.0
 11
230.580745
 21
204.76135
 31
0.0
  0
LINE
  5
B22
330
1D
100
AcDbEntity
  8
CSLAYER10
  6
Continuous
100
AcDbLine
 10
216.580745
 20
204.76135
 30
0.0
 11
218.563634
 21
205.022402
 31
0.0
  0
LINE
  5
B23
330
1D
100
AcDbEntity
  8
CSLAYER10
  6
Continuous
100
AcDbLine
 10
216.580745
 20
204.76135
 30
0.0
 11
218.563634
 21
204.500298
 31
0.0
  0
LINE
  5
B24
330
1D
100
AcDbEntity
  8
CSLAYER10
  6
Continuous
100
AcDbLine
 10
230.580745
 20
204.76135
 30
0.0
 11
228.597855
 21
205.022402
 31
0.0
  0
LINE
  5
B25
330
1D
100
AcDbEntity
  8
CSLAYER10
  6
Continuous
100
AcDbLine
 10
230.580745
 20
204.76135
 30
0.0
 11
228.597855
 21
204.500298
 31
0.0
  0
TEXT
  5
B26
330
1D
100
AcDbEntity
  8
CSLAYER10
100
AcDbText
 10
556.942080718843
 20
298.015778
 30
0.0
 40
4.0
  1
31
 50
90.0
 41
0.75
  7
FX_FONT
 72
     5
 11
556.942080718843
 21
303.015778
 31
0.0
100
AcDbText
  0
LINE
  5
B27
330
1D
100
AcDbEntity
  8
CSLAYER10
  6
Continuous
100
AcDbLine
 10
546.749055718843
 20
284.66578
 30
0.0
 11
558.942094718843
 21
284.66578
 31
0.0
  0
LINE
  5
B28
330
1D
100
AcDbEntity
  8
CSLAYER10
  6
Continuous
100
AcDbLine
 10
549.899055718843
 20
316.36578
 30
0.0
 11
558.942094718843
 21
316.36578
 31
0.0
  0
LINE
  5
B29
330
1D
100
AcDbEntity
  8
CSLAYER10
  6
Continuous
100
AcDbLine
 10
557.942094718843
 20
284.66578
 30
0.0
 11
557.942094718843
 21
316.36578
 31
0.0
  0
LINE
  5
B2A
330
1D
100
AcDbEntity
  8
CSLAYER10
  6
Continuous
100
AcDbLine
 10
557.942094718843
 20
284.66578
 30
0.0
 11
557.681041718843
 21
286.64867
 31
0.0
  0
LINE
  5
B2B
330
1D
100
AcDbEntity
  8
CSLAYER10
  6
Continuous
100
AcDbLine
 10
557.942094718843
 20
284.66578
 30
0.0
 11
558.203146718843
 21
286.64867
 31
0.0
  0
LINE
  5
B2C
330
1D
100
AcDbEntity
  8
CSLAYER10
  6
Continuous
100
AcDbLine
 10
557.942094718843
 20
316.36578
 30
0.0
 11
557.681041718843
 21
314.382891
 31
0.0
  0
LINE
  5
B2D
330
1D
100
AcDbEntity
  8
CSLAYER10
  6
Continuous
100
AcDbLine
 10
557.942094718843
 20
316.36578
 30
0.0
 11
558.203146718843
 21
314.382891
 31
0.0
  0
TEXT
  5
B2E
330
1D
100
AcDbEntity
  8
CSLAYER10
100
AcDbText
 10
524.499025718843
 20
277.507965
 30
0.0
 40
4.0
  1
15
 41
0.681818181818
  7
FX_FONT
 72
     5
 11
529.499025718843
 21
277.507965
 31
0.0
100
AcDbText
  0
LINE
  5
B2F
330
1D
100
AcDbEntity
  8
CSLAYER10
  6
Continuous
100
AcDbLine
 10
531.999055718843
 20
296.16578
 30
0.0
 11
531.999055718843
 21
275.50797
 31
0.0
  0
LINE
  5
B30
330
1D
100
AcDbEntity
  8
CSLAYER10
  6
Continuous
100
AcDbLine
 10
546.999055718843
 20
296.16578
 30
0.0
 11
546.999055718843
 21
275.50797
 31
0.0
  0
LINE
  5
B32
330
1D
100
AcDbEntity
  8
CSLAYER10
  6
Continuous
100
AcDbLine
 10
523.159818718843
 20
276.50797
 30
0.0
 11
551.178873718843
 21
276.50797
 31
0.0
  0
LINE
  5
B33
330
1D
100
AcDbEntity
  8
CSLAYER10
  6
Continuous
100
AcDbLine
 10
531.999055718843
 20
276.50797
 30
0.0
 11
530.016166718843
 21
276.769022
 31
0.0
  0
LINE
  5
B34
330
1D
100
AcDbEntity
  8
CSLAYER10
  6
Continuous
100
AcDbLine
 10
531.999055718843
 20
276.50797
 30
0.0
 11
530.016166718843
 21
276.246918
 31
0.0
  0
LINE
  5
B36
330
1D
100
AcDbEntity
  8
CSLAYER10
  6
Continuous
100
AcDbLine
 10
546.999055718843
 20
276.50797
 30
0.0
 11
548.981945718843
 21
276.769022
 31
0.0
  0
LINE
  5
B37
330
1D
100
AcDbEntity
  8
CSLAYER10
  6
Continuous
100
AcDbLine
 10
546.999055718843
 20
276.50797
 30
0.0
 11
548.981945718843
 21
276.246918
 31
0.0
  0
TEXT
  5
B38
330
1D
100
AcDbEntity
  8
CSLAYER10
100
AcDbText
 10
45.991516
 20
338.890717
 30
0.0
 40
4.0
  1
2-4mmネジ用穴
 41
0.590034965035
  7
FX_FONT
 72
     5
 11
68.491516
 21
338.890717
 31
0.0
100
AcDbText
  0
LINE
  5
B39
330
1D
100
AcDbEntity
  8
CSLAYER10
  6
Continuous
100
AcDbLine
 10
74.114032
 20
308.127512
 30
0.0
 11
76.820433
 21
305.221514
 31
0.0
  0
LINE
  5
B3A
330
1D
100
AcDbEntity
  8
CSLAYER10
  6
Continuous
100
AcDbLine
 10
74.114032
 20
308.127512
 30
0.0
 11
44.491517
 21
337.890711
 31
0.0
  0
LINE
  5
B3B
330
1D
100
AcDbEntity
  8
CSLAYER10
  6
Continuous
100
AcDbLine
 10
74.114032
 20
308.127512
 30
0.0
 11
72.530214
 21
309.34879
 31
0.0
  0
LINE
  5
B3C
330
1D
100
AcDbEntity
  8
CSLAYER10
  6
Continuous
100
AcDbLine
 10
74.114032
 20
308.127512
 30
0.0
 11
72.900271
 21
309.717099
 31
0.0
  0
LINE
  5
B3D
330
1D
100
AcDbEntity
  8
CSLAYER10
  6
Continuous
100
AcDbLine
 10
44.491517
 20
337.890711
 30
0.0
 11
68.991517
 21
337.890711
 31
0.0
  0
TEXT
  5
B3E
330
1D
100
AcDbEntity
  8
CSLAYER10
100
AcDbText
 10
440.064058718843
 20
171.721832
 30
0.0
 40
4.0
  1
44
 41
0.681818181818
  7
FX_FONT
 72
     5
 11
445.064058718843
 21
171.721832
 31
0.0
100
AcDbText
  0
LINE
  5
B3F
102
{ACAD_REACTORS
330
DB4
102
}
330
1D
100
AcDbEntity
  8
CSLAYER10
  6
Continuous
100
AcDbLine
 10
420.564056718843
 20
216.921514
 30
0.0
 11
420.564056718843
 21
169.72183
 31
0.0
  0
LINE
  5
B40
102
{ACAD_REACTORS
330
DB4
102
}
330
1D
100
AcDbEntity
  8
CSLAYER10
  6
Continuous
100
AcDbLine
 10
464.564056718843
 20
216.921514
 30
0.0
 11
464.564056718843
 21
169.72183
 31
0.0
  0
LINE
  5
B41
330
1D
100
AcDbEntity
  8
CSLAYER10
  6
Continuous
100
AcDbLine
 10
420.564056718843
 20
170.72183
 30
0.0
 11
464.564056718843
 21
170.72183
 31
0.0
  0
LINE
  5
B42
330
1D
100
AcDbEntity
  8
CSLAYER10
  6
Continuous
100
AcDbLine
 10
420.564056718843
 20
170.72183
 30
0.0
 11
422.546946718843
 21
170.982882
 31
0.0
  0
LINE
  5
B43
330
1D
100
AcDbEntity
  8
CSLAYER10
  6
Continuous
100
AcDbLine
 10
420.564056718843
 20
170.72183
 30
0.0
 11
422.546946718843
 21
170.460777
 31
0.0
  0
LINE
  5
B44
330
1D
100
AcDbEntity
  8
CSLAYER10
  6
Continuous
100
AcDbLine
 10
464.564056718843
 20
170.72183
 30
0.0
 11
462.581167718843
 21
170.982882
 31
0.0
  0
LINE
  5
B45
330
1D
100
AcDbEntity
  8
CSLAYER10
  6
Continuous
100
AcDbLine
 10
464.564056718843
 20
170.72183
 30
0.0
 11
462.581167718843
 21
170.460777
 31
0.0
  0
TEXT
  5
B7B
330
1D
100
AcDbEntity
  8
CSLAYER10
100
AcDbText
 10
451.462679718843
 20
244.296387
 30
0.0
 40
4.0
  1
%%c44貫通穴
 41
0.592105263158
  7
FX_FONT
 72
     5
 11
466.462679718843
 21
244.296387
 31
0.0
100
AcDbText
  0
LINE
  5
B7C
102
{ACAD_REACTORS
330
DB4
102
}
330
1D
100
AcDbEntity
  8
CSLAYER10
  6
Continuous
100
AcDbLine
 10
456.405513718843
 20
229.021633
 30
0.0
 11
428.722599718843
 21
194.821395
 31
0.0
  0
LINE
  5
B7D
330
1D
100
AcDbEntity
  8
CSLAYER10
  6
Continuous
100
AcDbLine
 10
428.722599718843
 20
194.821395
 30
0.0
 11
425.576814718843
 21
190.935005
 31
0.0
  0
LINE
  5
B7E
330
1D
100
AcDbEntity
  8
CSLAYER10
  6
Continuous
100
AcDbLine
 10
428.722599718843
 20
194.821395
 30
0.0
 11
427.677961718843
 21
193.115895
 31
0.0
  0
LINE
  5
B7F
330
1D
100
AcDbEntity
  8
CSLAYER10
  6
Continuous
100
AcDbLine
 10
428.722599718843
 20
194.821395
 30
0.0
 11
427.272140718843
 21
193.444381
 31
0.0
  0
LINE
  5
B80
330
1D
100
AcDbEntity
  8
CSLAYER10
  6
Continuous
100
AcDbLine
 10
456.405513718843
 20
229.021633
 30
0.0
 11
467.962669718843
 21
243.296383
 31
0.0
  0
LINE
  5
B81
330
1D
100
AcDbEntity
  8
CSLAYER10
  6
Continuous
100
AcDbLine
 10
456.405513718843
 20
229.021633
 30
0.0
 11
457.450344718843
 21
230.727016
 31
0.0
  0
LINE
  5
B82
330
1D
100
AcDbEntity
  8
CSLAYER10
  6
Continuous
100
AcDbLine
 10
456.405513718843
 20
229.021633
 30
0.0
 11
457.856128718843
 21
230.398484
 31
0.0
  0
LINE
  5
B83
330
1D
100
AcDbEntity
  8
CSLAYER10
  6
Continuous
100
AcDbLine
 10
467.962669718843
 20
243.296383
 30
0.0
 11
450.962669718843
 21
243.296383
 31
0.0
  0
TEXT
  5
B84
330
1D
100
AcDbEntity
  8
CSLAYER10
100
AcDbText
 10
385.309572718843
 20
171.190857
 30
0.0
 40
4.0
  1
2-%%c10貫通穴
 41
0.599900016664
  7
FX_FONT
 72
     5
 11
405.309572718843
 21
171.190857
 31
0.0
100
AcDbText
  0
LINE
  5
B85
330
1D
100
AcDbEntity
  8
CSLAYER10
  6
Continuous
100
AcDbLine
 10
419.006249718843
 20
207.170384
 30
0.0
 11
406.809567718843
 21
170.190852
 31
0.0
  0
LINE
  5
B86
330
1D
100
AcDbEntity
  8
CSLAYER10
  6
Continuous
100
AcDbLine
 10
419.006249718843
 20
207.170384
 30
0.0
 11
418.633073718843
 21
205.205508
 31
0.0
  0
LINE
  5
B87
330
1D
100
AcDbEntity
  8
CSLAYER10
  6
Continuous
100
AcDbLine
 10
419.006249718843
 20
207.170384
 30
0.0
 11
418.137242718843
 21
205.369044
 31
0.0
  0
LINE
  5
B88
330
1D
100
AcDbEntity
  8
CSLAYER10
  6
Continuous
100
AcDbLine
 10
406.809567718843
 20
170.190852
 30
0.0
 11
384.809567718843
 21
170.190852
 31
0.0
  0
TEXT
  5
B89
330
1D
100
AcDbEntity
  8
CSLAYER10
100
AcDbText
 10
519.322576948007
 20
379.74199604983
 30
0.0
 40
4.0
  1
%%c34穴(キーシリンダー側のみ)
 41
0.457881463613
  7
FX_FONT
 72
     5
 11
551.969525303585
 21
379.74199604983
 31
0.0
100
AcDbText
  0
LINE
  5
B8A
102
{ACAD_REACTORS
330
DB9
102
}
330
1D
100
AcDbEntity
  8
CSLAYER10
  6
Continuous
100
AcDbLine
 10
431.063488718843
 20
284.402052
 30
0.0
 11
454.064624718843
 21
309.440977
 31
0.0
  0
LINE
  5
B8C
330
1D
100
AcDbEntity
  8
CSLAYER10
  6
Continuous
100
AcDbLine
 10
454.064624718843
 20
309.440977
 30
0.0
 11
455.213808718843
 21
311.077857
 31
0.0
  0
LINE
  5
B8D
330
1D
100
AcDbEntity
  8
CSLAYER10
  6
Continuous
100
AcDbLine
 10
454.064624718843
 20
309.440977
 30
0.0
 11
455.598306718843
 21
310.724651
 31
0.0
  0
LINE
  5
B8F
330
1D
100
AcDbEntity
  8
CSLAYER10
  6
Continuous
100
AcDbLine
 10
431.063488718843
 20
284.402052
 30
0.0
 11
429.913029718843
 21
282.766068
 31
0.0
  0
LINE
  5
B90
330
1D
100
AcDbEntity
  8
CSLAYER10
  6
Continuous
100
AcDbLine
 10
431.063488718843
 20
284.402052
 30
0.0
 11
429.528806718843
 21
283.119574
 31
0.0
  0
LINE
  5
B91
330
1D
100
AcDbEntity
  8
CSLAYER10
  6
Continuous
100
AcDbLine
 10
517.727540186932
 20
378.641505676675
 30
0.0
 11
554.807049710907
 21
378.641505676675
 31
0.0
  0
TEXT
  5
B92
330
1D
100
AcDbEntity
  8
CSLAYER10
100
AcDbText
 10
481.686678718843
 20
198.421509
 30
0.0
 40
4.0
  1
23
 50
90.0
 41
0.681818181818
  7
FX_FONT
 72
     5
 11
481.686678718843
 21
203.421509
 31
0.0
100
AcDbText
  0
LINE
  5
B93
330
1D
100
AcDbEntity
  8
CSLAYER10
  6
Continuous
100
AcDbLine
 10
480.043609718843
 20
189.921514
 30
0.0
 11
483.686669718843
 21
189.921514
 31
0.0
  0
LINE
  5
B94
102
{ACAD_REACTORS
330
DB4
102
}
330
1D
100
AcDbEntity
  8
CSLAYER10
  6
Continuous
100
AcDbLine
 10
415.564056718843
 20
211.921514
 30
0.0
 11
483.686669718843
 21
211.921514
 31
0.0
  0
LINE
  5
B95
330
1D
100
AcDbEntity
  8
CSLAYER10
  6
Continuous
100
AcDbLine
 10
482.686669718843
 20
189.921514
 30
0.0
 11
482.686669718843
 21
323.921514
 31
0.0
  0
LINE
  5
B96
330
1D
100
AcDbEntity
  8
CSLAYER10
  6
Continuous
100
AcDbLine
 10
482.686669718843
 20
189.921514
 30
0.0
 11
482.425616718843
 21
191.904404
 31
0.0
  0
LINE
  5
B97
330
1D
100
AcDbEntity
  8
CSLAYER10
  6
Continuous
100
AcDbLine
 10
482.686669718843
 20
189.921514
 30
0.0
 11
482.947721718843
 21
191.904404
 31
0.0
  0
LINE
  5
B98
330
1D
100
AcDbEntity
  8
CSLAYER10
  6
Continuous
100
AcDbLine
 10
482.686669718843
 20
211.921514
 30
0.0
 11
482.425616718843
 21
209.938625
 31
0.0
  0
LINE
  5
B99
330
1D
100
AcDbEntity
  8
CSLAYER10
  6
Continuous
100
AcDbLine
 10
482.686669718843
 20
211.921514
 30
0.0
 11
482.947721718843
 21
209.938625
 31
0.0
  0
TEXT
  5
B9A
330
1D
100
AcDbEntity
  8
CSLAYER10
100
AcDbText
 10
481.686678718843
 20
245.169479
 30
0.0
 40
4.0
  1
85
 50
90.0
 41
0.681818181818
  7
FX_FONT
 72
     5
 11
481.686678718843
 21
250.169479
 31
0.0
100
AcDbText
  0
LINE
  5
B9B
102
{ACAD_REACTORS
330
DB9
102
}
330
1D
100
AcDbEntity
  8
CSLAYER10
  6
Continuous
100
AcDbLine
 10
425.564056718843
 20
296.921514
 30
0.0
 11
483.686669718843
 21
296.921514
 31
0.0
  0
LINE
  5
B9D
330
1D
100
AcDbEntity
  8
CSLAYER10
  6
Continuous
100
AcDbLine
 10
482.686669718843
 20
211.921514
 30
0.0
 11
482.425616718843
 21
213.904404
 31
0.0
  0
LINE
  5
B9E
330
1D
100
AcDbEntity
  8
CSLAYER10
  6
Continuous
100
AcDbLine
 10
482.686669718843
 20
211.921514
 30
0.0
 11
482.947721718843
 21
213.904404
 31
0.0
  0
LINE
  5
B9F
330
1D
100
AcDbEntity
  8
CSLAYER10
  6
Continuous
100
AcDbLine
 10
482.686669718843
 20
296.921514
 30
0.0
 11
482.425616718843
 21
294.938625
 31
0.0
  0
LINE
  5
BA0
330
1D
100
AcDbEntity
  8
CSLAYER10
  6
Continuous
100
AcDbLine
 10
482.686669718843
 20
296.921514
 30
0.0
 11
482.947721718843
 21
294.938625
 31
0.0
  0
TEXT
  5
BA1
330
1D
100
AcDbEntity
  8
CSLAYER10
100
AcDbText
 10
481.686678718843
 20
313.78479
 30
0.0
 40
4.0
  1
28
 50
90.0
 41
0.681818181818
  7
FX_FONT
 72
     5
 11
481.686678718843
 21
318.78479
 31
0.0
100
AcDbText
  0
LINE
  5
BA3
330
1D
100
AcDbEntity
  8
CSLAYER10
  6
Continuous
100
AcDbLine
 10
482.686669718843
 20
296.921514
 30
0.0
 11
482.425616718843
 21
298.904404
 31
0.0
  0
LINE
  5
BA4
330
1D
100
AcDbEntity
  8
CSLAYER10
  6
Continuous
100
AcDbLine
 10
482.686669718843
 20
296.921514
 30
0.0
 11
482.947721718843
 21
298.904404
 31
0.0
  0
LINE
  5
BA5
330
1D
100
AcDbEntity
  8
CSLAYER10
  6
Continuous
100
AcDbLine
 10
482.686669718843
 20
323.921514
 30
0.0
 11
482.425616718843
 21
321.938625
 31
0.0
  0
LINE
  5
BA6
330
1D
100
AcDbEntity
  8
CSLAYER10
  6
Continuous
100
AcDbLine
 10
482.686669718843
 20
323.921514
 30
0.0
 11
482.947721718843
 21
321.938625
 31
0.0
  0
LINE
  5
BA7
102
{ACAD_REACTORS
330
EEF
102
}
330
1D
100
AcDbEntity
  8
CSLAYER10
  6
Continuous
100
AcDbLine
 10
374.564056718843
 20
342.921514
 30
0.0
 11
359.326177718843
 21
369.435152
 31
0.0
  0
LINE
  5
BA8
330
1D
100
AcDbEntity
  8
CSLAYER10
  6
Continuous
100
AcDbLine
 10
374.564056718843
 20
342.921514
 30
0.0
 11
373.349671718843
 21
344.510624
 31
0.0
  0
LINE
  5
BA9
330
1D
100
AcDbEntity
  8
CSLAYER10
  6
Continuous
100
AcDbLine
 10
374.564056718843
 20
342.921514
 30
0.0
 11
373.802342718843
 21
344.770782
 31
0.0
  0
LINE
  5
BAA
330
1D
100
AcDbEntity
  8
CSLAYER10
  6
Continuous
100
AcDbLine
 10
359.326177718843
 20
369.435152
 30
0.0
 11
334.826177718843
 21
369.435152
 31
0.0
  0
TEXT
  5
BAB
330
1D
100
AcDbEntity
  8
CSLAYER10
100
AcDbText
 10
335.826174718843
 20
370.43515
 30
0.0
 40
4.0
  1
2-4mmネジ用穴
 41
0.590034965035
  7
FX_FONT
 72
     5
 11
358.326174718843
 21
370.43515
 31
0.0
100
AcDbText
  0
TEXT
  5
BAC
330
1D
100
AcDbEntity
  8
CSLAYER10
100
AcDbText
 10
525.564028718843
 20
93.150284
 30
0.0
 40
4.0
  1
48
 50
90.0
 41
0.681818181818
  7
FX_FONT
 72
     5
 11
525.564028718843
 21
98.150284
 31
0.0
100
AcDbText
  0
LINE
  5
BAD
330
1D
100
AcDbEntity
  8
CSLAYER10
  6
Continuous
100
AcDbLine
 10
447.064056718843
 20
70.350284
 30
0.0
 11
527.564056718843
 21
70.350284
 31
0.0
  0
LINE
  5
BAE
330
1D
100
AcDbEntity
  8
CSLAYER10
  6
Continuous
100
AcDbLine
 10
447.064056718843
 20
120.950284
 30
0.0
 11
527.564056718843
 21
120.950284
 31
0.0
  0
LINE
  5
BAF
330
1D
100
AcDbEntity
  8
CSLAYER10
  6
Continuous
100
AcDbLine
 10
526.564056718843
 20
70.350284
 30
0.0
 11
526.564056718843
 21
120.950284
 31
0.0
  0
LINE
  5
BB0
330
1D
100
AcDbEntity
  8
CSLAYER10
  6
Continuous
100
AcDbLine
 10
526.564056718843
 20
70.350284
 30
0.0
 11
526.303004718843
 21
72.333174
 31
0.0
  0
LINE
  5
BB1
330
1D
100
AcDbEntity
  8
CSLAYER10
  6
Continuous
100
AcDbLine
 10
526.564056718843
 20
70.350284
 30
0.0
 11
526.825109718843
 21
72.333174
 31
0.0
  0
LINE
  5
BB2
330
1D
100
AcDbEntity
  8
CSLAYER10
  6
Continuous
100
AcDbLine
 10
526.564056718843
 20
120.950284
 30
0.0
 11
526.303004718843
 21
118.967394
 31
0.0
  0
LINE
  5
BB3
330
1D
100
AcDbEntity
  8
CSLAYER10
  6
Continuous
100
AcDbLine
 10
526.564056718843
 20
120.950284
 30
0.0
 11
526.825109718843
 21
118.967394
 31
0.0
  0
TEXT
  5
BB4
330
1D
100
AcDbEntity
  8
CSLAYER10
100
AcDbText
 10
515.564058718843
 20
93.150284
 30
0.0
 40
4.0
  1
24
 50
90.0
 41
0.681818181818
  7
FX_FONT
 72
     5
 11
515.564058718843
 21
98.150284
 31
0.0
100
AcDbText
  0
LINE
  5
BB5
330
1D
100
AcDbEntity
  8
CSLAYER10
  6
Continuous
100
AcDbLine
 10
495.564056718843
 20
83.650284
 30
0.0
 11
517.564056718843
 21
83.650284
 31
0.0
  0
LINE
  5
BB6
330
1D
100
AcDbEntity
  8
CSLAYER10
  6
Continuous
100
AcDbLine
 10
495.564056718843
 20
107.650284
 30
0.0
 11
517.564056718843
 21
107.650284
 31
0.0
  0
LINE
  5
BB7
330
1D
100
AcDbEntity
  8
CSLAYER10
  6
Continuous
100
AcDbLine
 10
516.564056718843
 20
83.650284
 30
0.0
 11
516.564056718843
 21
107.650284
 31
0.0
  0
LINE
  5
BB8
330
1D
100
AcDbEntity
  8
CSLAYER10
  6
Continuous
100
AcDbLine
 10
516.564056718843
 20
83.650284
 30
0.0
 11
516.303004718843
 21
85.633174
 31
0.0
  0
LINE
  5
BB9
330
1D
100
AcDbEntity
  8
CSLAYER10
  6
Continuous
100
AcDbLine
 10
516.564056718843
 20
83.650284
 30
0.0
 11
516.825109718843
 21
85.633174
 31
0.0
  0
LINE
  5
BBA
330
1D
100
AcDbEntity
  8
CSLAYER10
  6
Continuous
100
AcDbLine
 10
516.564056718843
 20
107.650284
 30
0.0
 11
516.303004718843
 21
105.667394
 31
0.0
  0
LINE
  5
BBB
330
1D
100
AcDbEntity
  8
CSLAYER10
  6
Continuous
100
AcDbLine
 10
516.564056718843
 20
107.650284
 30
0.0
 11
516.825109718843
 21
105.667394
 31
0.0
  0
TEXT
  5
BBC
330
1D
100
AcDbEntity
  8
CSLAYER10
100
AcDbText
 10
505.564058718843
 20
93.150284
 30
0.0
 40
4.0
  1
21
 50
90.0
 41
0.75
  7
FX_FONT
 72
     5
 11
505.564058718843
 21
98.150284
 31
0.0
100
AcDbText
  0
LINE
  5
BBD
330
1D
100
AcDbEntity
  8
CSLAYER10
  6
Continuous
100
AcDbLine
 10
495.564056718843
 20
85.150284
 30
0.0
 11
507.564056718843
 21
85.150284
 31
0.0
  0
LINE
  5
BBE
330
1D
100
AcDbEntity
  8
CSLAYER10
  6
Continuous
100
AcDbLine
 10
497.564056718843
 20
106.150284
 30
0.0
 11
507.564056718843
 21
106.150284
 31
0.0
  0
LINE
  5
BBF
330
1D
100
AcDbEntity
  8
CSLAYER10
  6
Continuous
100
AcDbLine
 10
506.564056718843
 20
85.150284
 30
0.0
 11
506.564056718843
 21
106.150284
 31
0.0
  0
LINE
  5
BC0
330
1D
100
AcDbEntity
  8
CSLAYER10
  6
Continuous
100
AcDbLine
 10
506.564056718843
 20
85.150284
 30
0.0
 11
506.303004718843
 21
87.133174
 31
0.0
  0
LINE
  5
BC1
330
1D
100
AcDbEntity
  8
CSLAYER10
  6
Continuous
100
AcDbLine
 10
506.564056718843
 20
85.150284
 30
0.0
 11
506.825109718843
 21
87.133174
 31
0.0
  0
LINE
  5
BC2
330
1D
100
AcDbEntity
  8
CSLAYER10
  6
Continuous
100
AcDbLine
 10
506.564056718843
 20
106.150284
 30
0.0
 11
506.303004718843
 21
104.167394
 31
0.0
  0
LINE
  5
BC3
330
1D
100
AcDbEntity
  8
CSLAYER10
  6
Continuous
100
AcDbLine
 10
506.564056718843
 20
106.150284
 30
0.0
 11
506.825109718843
 21
104.167394
 31
0.0
  0
TEXT
  5
BC4
330
1D
100
AcDbEntity
  8
CSLAYER10
100
AcDbText
 10
203.330734
 20
379.559204
 30
0.0
 40
4.0
  1
A
 41
0.75
  7
FX_FONT
 72
     5
 11
205.830734
 21
379.559204
 31
0.0
100
AcDbText
  0
LINE
  5
BC5
330
1D
100
AcDbEntity
  8
CSLAYER10
  6
Continuous
100
AcDbLine
 10
223.580745
 20
378.559202
 30
0.0
 11
185.580745
 21
378.559202
 31
0.0
  0
LINE
  5
BC6
330
1D
100
AcDbEntity
  8
CSLAYER10
  6
Continuous
100
AcDbLine
 10
223.580745
 20
378.559202
 30
0.0
 11
221.597855
 21
378.820255
 31
0.0
  0
LINE
  5
BC7
330
1D
100
AcDbEntity
  8
CSLAYER10
  6
Continuous
100
AcDbLine
 10
223.580745
 20
378.559202
 30
0.0
 11
221.597855
 21
378.29815
 31
0.0
  0
LINE
  5
BC8
330
1D
100
AcDbEntity
  8
CSLAYER10
  6
Continuous
100
AcDbLine
 10
185.580745
 20
378.559202
 30
0.0
 11
187.563634
 21
378.820255
 31
0.0
  0
LINE
  5
BC9
330
1D
100
AcDbEntity
  8
CSLAYER10
  6
Continuous
100
AcDbLine
 10
185.580745
 20
378.559202
 30
0.0
 11
187.563634
 21
378.29815
 31
0.0
  0
TEXT
  5
BCA
330
1D
100
AcDbEntity
  8
CSLAYER10
100
AcDbText
 10
194.33075
 20
371.920837
 30
0.0
 40
4.0
  1
H
 41
0.75
  7
FX_FONT
 72
     5
 11
196.83075
 21
371.920837
 31
0.0
100
AcDbText
  0
LINE
  5
BCB
330
1D
100
AcDbEntity
  8
CSLAYER10
  6
Continuous
100
AcDbLine
 10
205.580745
 20
321.178546
 30
0.0
 11
205.580745
 21
371.920837
 31
0.0
  0
LINE
  5
BCC
330
1D
100
AcDbEntity
  8
CSLAYER10
  6
Continuous
100
AcDbLine
 10
185.580745
 20
370.920837
 30
0.0
 11
205.580745
 21
370.920837
 31
0.0
  0
LINE
  5
BCD
330
1D
100
AcDbEntity
  8
CSLAYER10
  6
Continuous
100
AcDbLine
 10
185.580745
 20
370.920837
 30
0.0
 11
187.563634
 21
371.181889
 31
0.0
  0
LINE
  5
BCE
330
1D
100
AcDbEntity
  8
CSLAYER10
  6
Continuous
100
AcDbLine
 10
185.580745
 20
370.920837
 30
0.0
 11
187.563634
 21
370.659785
 31
0.0
  0
LINE
  5
BCF
330
1D
100
AcDbEntity
  8
CSLAYER10
  6
Continuous
100
AcDbLine
 10
205.580745
 20
370.920837
 30
0.0
 11
203.597855
 21
371.181889
 31
0.0
  0
LINE
  5
BD0
330
1D
100
AcDbEntity
  8
CSLAYER10
  6
Continuous
100
AcDbLine
 10
205.580745
 20
370.920837
 30
0.0
 11
203.597855
 21
370.659785
 31
0.0
  0
TEXT
  5
BD1
330
1D
100
AcDbEntity
  8
CSLAYER10
100
AcDbText
 10
172.58075
 20
293.567444
 30
0.0
 40
4.0
  1
%%cD
 50
90.0
 41
0.681818181818
  7
FX_FONT
 72
     5
 11
172.58075
 21
298.567444
 31
0.0
100
AcDbText
  0
LINE
  5
BD2
330
1D
100
AcDbEntity
  8
CSLAYER10
  6
Continuous
100
AcDbLine
 10
204.580745
 20
271.956324
 30
0.0
 11
172.580745
 21
271.956324
 31
0.0
  0
LINE
  5
BD3
330
1D
100
AcDbEntity
  8
CSLAYER10
  6
Continuous
100
AcDbLine
 10
204.580745
 20
320.178546
 30
0.0
 11
172.580745
 21
320.178546
 31
0.0
  0
LINE
  5
BD4
330
1D
100
AcDbEntity
  8
CSLAYER10
  6
Continuous
100
AcDbLine
 10
173.580745
 20
271.956324
 30
0.0
 11
173.580745
 21
320.178546
 31
0.0
  0
LINE
  5
BD5
330
1D
100
AcDbEntity
  8
CSLAYER10
  6
Continuous
100
AcDbLine
 10
173.580745
 20
271.956324
 30
0.0
 11
173.319692
 21
273.939214
 31
0.0
  0
LINE
  5
BD6
330
1D
100
AcDbEntity
  8
CSLAYER10
  6
Continuous
100
AcDbLine
 10
173.580745
 20
271.956324
 30
0.0
 11
173.841797
 21
273.939214
 31
0.0
  0
LINE
  5
BD7
330
1D
100
AcDbEntity
  8
CSLAYER10
  6
Continuous
100
AcDbLine
 10
173.580745
 20
320.178546
 30
0.0
 11
173.319692
 21
318.195657
 31
0.0
  0
LINE
  5
BD8
330
1D
100
AcDbEntity
  8
CSLAYER10
  6
Continuous
100
AcDbLine
 10
173.580745
 20
320.178546
 30
0.0
 11
173.841797
 21
318.195657
 31
0.0
  0
TEXT
  5
BD9
330
1D
100
AcDbEntity
  8
CSLAYER10
100
AcDbText
 10
10.329118
 20
250.241592
 30
0.0
 40
4.0
  1
85
 50
90.0
 41
0.681818181818
  7
FX_FONT
 72
     5
 11
10.329118
 21
255.241592
 31
0.0
100
AcDbText
  0
LINE
  5
BDA
330
1D
100
AcDbEntity
  8
CSLAYER10
  6
Continuous
100
AcDbLine
 10
19.866473
 20
210.243693
 30
0.0
 11
10.329118
 21
210.243693
 31
0.0
  0
LINE
  5
BDB
330
1D
100
AcDbEntity
  8
CSLAYER10
  6
Continuous
100
AcDbLine
 10
19.866473
 20
295.239498
 30
0.0
 11
10.329118
 21
295.239498
 31
0.0
  0
LINE
  5
BDC
330
1D
100
AcDbEntity
  8
CSLAYER10
  6
Continuous
100
AcDbLine
 10
11.329118
 20
210.243693
 30
0.0
 11
11.329118
 21
295.239498
 31
0.0
  0
LINE
  5
BDD
330
1D
100
AcDbEntity
  8
CSLAYER10
  6
Continuous
100
AcDbLine
 10
11.329118
 20
210.243693
 30
0.0
 11
11.068065
 21
212.226582
 31
0.0
  0
LINE
  5
BDE
330
1D
100
AcDbEntity
  8
CSLAYER10
  6
Continuous
100
AcDbLine
 10
11.329118
 20
210.243693
 30
0.0
 11
11.59017
 21
212.226582
 31
0.0
  0
LINE
  5
BDF
330
1D
100
AcDbEntity
  8
CSLAYER10
  6
Continuous
100
AcDbLine
 10
11.329118
 20
295.239498
 30
0.0
 11
11.068065
 21
293.256608
 31
0.0
  0
LINE
  5
BE0
330
1D
100
AcDbEntity
  8
CSLAYER10
  6
Continuous
100
AcDbLine
 10
11.329118
 20
295.239498
 30
0.0
 11
11.59017
 21
293.256608
 31
0.0
  0
TEXT
  5
BE1
330
1D
100
AcDbEntity
  8
CSLAYER10
100
AcDbText
 10
73.820442
 20
278.532867
 30
0.0
 40
4.0
  1
18
 41
0.681818181818
  7
FX_FONT
 72
     5
 11
78.820442
 21
278.532867
 31
0.0
100
AcDbText
  0
LINE
  5
BE2
330
1D
100
AcDbEntity
  8
CSLAYER10
  6
Continuous
100
AcDbLine
 10
67.320433
 20
277.532856
 30
0.0
 11
85.320433
 21
277.532856
 31
0.0
  0
LINE
  5
BE3
330
1D
100
AcDbEntity
  8
CSLAYER10
  6
Continuous
100
AcDbLine
 10
67.320433
 20
277.532856
 30
0.0
 11
69.303323
 21
277.793909
 31
0.0
  0
LINE
  5
BE4
330
1D
100
AcDbEntity
  8
CSLAYER10
  6
Continuous
100
AcDbLine
 10
67.320433
 20
277.532856
 30
0.0
 11
69.303323
 21
277.271804
 31
0.0
  0
LINE
  5
BE5
330
1D
100
AcDbEntity
  8
CSLAYER10
  6
Continuous
100
AcDbLine
 10
85.320433
 20
277.532856
 30
0.0
 11
83.337544
 21
277.793909
 31
0.0
  0
LINE
  5
BE6
330
1D
100
AcDbEntity
  8
CSLAYER10
  6
Continuous
100
AcDbLine
 10
85.320433
 20
277.532856
 30
0.0
 11
83.337544
 21
277.271804
 31
0.0
  0
LINE
  5
BE7
330
1D
100
AcDbEntity
  8
CSLAYER10
  6
Continuous
100
AcDbLine
 10
67.327357
 20
249.721514
 30
0.0
 11
52.155126
 21
249.721514
 31
0.0
  0
LINE
  5
BE8
330
1D
100
AcDbEntity
  8
CSLAYER10
  6
Continuous
100
AcDbLine
 10
67.320433
 20
255.721514
 30
0.0
 11
52.155126
 21
255.721514
 31
0.0
  0
TEXT
  5
BE9
330
1D
100
AcDbEntity
  8
CSLAYER10
100
AcDbText
 10
52.320435
 20
251.471512
 30
0.0
 40
4.0
  1
6
 50
90.0
 41
0.75
  7
FX_FONT
 72
     5
 11
52.320435
 21
253.971512
 31
0.0
100
AcDbText
  0
LINE
  5
BEC
330
1D
100
AcDbEntity
  8
CSLAYER10
  6
Continuous
100
AcDbLine
 10
53.320433
 20
249.721514
 30
0.0
 11
53.059381
 21
251.704404
 31
0.0
  0
LINE
  5
BED
330
1D
100
AcDbEntity
  8
CSLAYER10
  6
Continuous
100
AcDbLine
 10
53.320433
 20
249.721514
 30
0.0
 11
53.581486
 21
251.704404
 31
0.0
  0
LINE
  5
BEE
330
1D
100
AcDbEntity
  8
CSLAYER10
  6
Continuous
100
AcDbLine
 10
53.320433
 20
255.721514
 30
0.0
 11
53.059381
 21
253.738625
 31
0.0
  0
LINE
  5
BEF
330
1D
100
AcDbEntity
  8
CSLAYER10
  6
Continuous
100
AcDbLine
 10
53.320433
 20
255.721514
 30
0.0
 11
53.581486
 21
253.738625
 31
0.0
  0
TEXT
  5
BF0
330
1D
100
AcDbEntity
  8
CSLAYER10
100
AcDbText
 10
52.320435
 20
272.221527
 30
0.0
 40
4.0
  1
38
 50
90.0
 41
0.681818181818
  7
FX_FONT
 72
     5
 11
52.320435
 21
277.221527
 31
0.0
100
AcDbText
  0
LINE
  5
BF1
330
1D
100
AcDbEntity
  8
CSLAYER10
  6
Continuous
100
AcDbLine
 10
67.320433
 20
293.721514
 30
0.0
 11
52.320433
 21
293.721514
 31
0.0
  0
LINE
  5
BF3
330
1D
100
AcDbEntity
  8
CSLAYER10
  6
Continuous
100
AcDbLine
 10
53.320433
 20
255.721514
 30
0.0
 11
53.059381
 21
257.704404
 31
0.0
  0
LINE
  5
BF4
330
1D
100
AcDbEntity
  8
CSLAYER10
  6
Continuous
100
AcDbLine
 10
53.320433
 20
255.721514
 30
0.0
 11
53.581486
 21
257.704404
 31
0.0
  0
LINE
  5
BF5
330
1D
100
AcDbEntity
  8
CSLAYER10
  6
Continuous
100
AcDbLine
 10
53.320433
 20
293.721514
 30
0.0
 11
53.059381
 21
291.738625
 31
0.0
  0
LINE
  5
BF6
330
1D
100
AcDbEntity
  8
CSLAYER10
  6
Continuous
100
AcDbLine
 10
53.320433
 20
293.721514
 30
0.0
 11
53.581486
 21
291.738625
 31
0.0
  0
TEXT
  5
BF7
330
1D
100
AcDbEntity
  8
CSLAYER10
100
AcDbText
 10
194.58075
 20
126.393951
 30
0.0
 40
4.0
  1
17
 41
0.681818181818
  7
FX_FONT
 72
     5
 11
199.58075
 21
126.393951
 31
0.0
100
AcDbText
  0
LINE
  5
BF8
330
1D
100
AcDbEntity
  8
CSLAYER10
  6
Continuous
100
AcDbLine
 10
188.580745
 20
196.421514
 30
0.0
 11
188.580745
 21
124.393953
 31
0.0
  0
LINE
  5
BF9
330
1D
100
AcDbEntity
  8
CSLAYER10
  6
Continuous
100
AcDbLine
 10
205.580745
 20
179.471514
 30
0.0
 11
205.580745
 21
124.393953
 31
0.0
  0
LINE
  5
BFA
330
1D
100
AcDbEntity
  8
CSLAYER10
  6
Continuous
100
AcDbLine
 10
188.580745
 20
125.393953
 30
0.0
 11
258.580745
 21
125.393953
 31
0.0
  0
LINE
  5
BFB
330
1D
100
AcDbEntity
  8
CSLAYER10
  6
Continuous
100
AcDbLine
 10
188.580745
 20
125.393953
 30
0.0
 11
190.563634
 21
125.655006
 31
0.0
  0
LINE
  5
BFC
330
1D
100
AcDbEntity
  8
CSLAYER10
  6
Continuous
100
AcDbLine
 10
188.580745
 20
125.393953
 30
0.0
 11
190.563634
 21
125.132901
 31
0.0
  0
LINE
  5
BFD
330
1D
100
AcDbEntity
  8
CSLAYER10
  6
Continuous
100
AcDbLine
 10
205.580745
 20
125.393953
 30
0.0
 11
203.597855
 21
125.655006
 31
0.0
  0
LINE
  5
BFE
330
1D
100
AcDbEntity
  8
CSLAYER10
  6
Continuous
100
AcDbLine
 10
205.580745
 20
125.393953
 30
0.0
 11
203.597855
 21
125.132901
 31
0.0
  0
TEXT
  5
BFF
330
1D
100
AcDbEntity
  8
CSLAYER10
100
AcDbText
 10
274.884521
 20
208.171509
 30
0.0
 40
4.0
  1
%%c63
 50
90.0
 41
0.660146699267
  7
FX_FONT
 72
     5
 11
274.884521
 21
215.671509
 31
0.0
100
AcDbText
  0
LINE
  5
C00
330
1D
100
AcDbEntity
  8
CSLAYER10
  6
Continuous
100
AcDbLine
 10
249.080745
 20
180.471514
 30
0.0
 11
276.884514
 21
180.471514
 31
0.0
  0
LINE
  5
C01
330
1D
100
AcDbEntity
  8
CSLAYER10
  6
Continuous
100
AcDbLine
 10
249.080745
 20
243.371514
 30
0.0
 11
276.884514
 21
243.371514
 31
0.0
  0
LINE
  5
C02
330
1D
100
AcDbEntity
  8
CSLAYER10
  6
Continuous
100
AcDbLine
 10
275.884514
 20
180.471514
 30
0.0
 11
275.884514
 21
243.371514
 31
0.0
  0
LINE
  5
C03
330
1D
100
AcDbEntity
  8
CSLAYER10
  6
Continuous
100
AcDbLine
 10
275.884514
 20
180.471514
 30
0.0
 11
275.623462
 21
182.454404
 31
0.0
  0
LINE
  5
C04
330
1D
100
AcDbEntity
  8
CSLAYER10
  6
Continuous
100
AcDbLine
 10
275.884514
 20
180.471514
 30
0.0
 11
276.145567
 21
182.454404
 31
0.0
  0
LINE
  5
C05
330
1D
100
AcDbEntity
  8
CSLAYER10
  6
Continuous
100
AcDbLine
 10
275.884514
 20
243.371514
 30
0.0
 11
275.623462
 21
241.388625
 31
0.0
  0
LINE
  5
C06
330
1D
100
AcDbEntity
  8
CSLAYER10
  6
Continuous
100
AcDbLine
 10
275.884514
 20
243.371514
 30
0.0
 11
276.145567
 21
241.388625
 31
0.0
  0
TEXT
  5
C07
330
1D
100
AcDbEntity
  8
CSLAYER10
100
AcDbText
 10
247.58075
 20
126.393951
 30
0.0
 40
4.0
  1
17
 41
0.681818181818
  7
FX_FONT
 72
     5
 11
252.58075
 21
126.393951
 31
0.0
100
AcDbText
  0
LINE
  5
C08
330
1D
100
AcDbEntity
  8
CSLAYER10
  6
Continuous
100
AcDbLine
 10
258.580745
 20
196.421514
 30
0.0
 11
258.580745
 21
124.393953
 31
0.0
  0
LINE
  5
C0A
330
1D
100
AcDbEntity
  8
CSLAYER10
  6
Continuous
100
AcDbLine
 10
241.580745
 20
125.393953
 30
0.0
 11
243.563634
 21
125.655006
 31
0.0
  0
LINE
  5
C0B
330
1D
100
AcDbEntity
  8
CSLAYER10
  6
Continuous
100
AcDbLine
 10
241.580745
 20
125.393953
 30
0.0
 11
243.563634
 21
125.132901
 31
0.0
  0
LINE
  5
C0C
330
1D
100
AcDbEntity
  8
CSLAYER10
  6
Continuous
100
AcDbLine
 10
258.580745
 20
125.393953
 30
0.0
 11
256.597855
 21
125.655006
 31
0.0
  0
LINE
  5
C0D
330
1D
100
AcDbEntity
  8
CSLAYER10
  6
Continuous
100
AcDbLine
 10
258.580745
 20
125.393953
 30
0.0
 11
256.597855
 21
125.132901
 31
0.0
  0
TEXT
  5
C0E
330
1D
100
AcDbEntity
  8
CSLAYER10
100
AcDbText
 10
217.33075
 20
126.393951
 30
0.0
 40
4.0
  1
35~50
 41
0.652930934417
  7
FX_FONT
 72
     5
 11
229.83075
 21
126.393951
 31
0.0
100
AcDbText
  0
LINE
  5
C0F
330
1D
100
AcDbEntity
  8
CSLAYER10
  6
Continuous
100
AcDbLine
 10
241.580745
 20
179.471514
 30
0.0
 11
241.580745
 21
124.393953
 31
0.0
  0
LINE
  5
C11
330
1D
100
AcDbEntity
  8
CSLAYER10
  6
Continuous
100
AcDbLine
 10
205.580745
 20
125.393953
 30
0.0
 11
207.563634
 21
125.655006
 31
0.0
  0
LINE
  5
C12
330
1D
100
AcDbEntity
  8
CSLAYER10
  6
Continuous
100
AcDbLine
 10
205.580745
 20
125.393953
 30
0.0
 11
207.563634
 21
125.132901
 31
0.0
  0
LINE
  5
C13
330
1D
100
AcDbEntity
  8
CSLAYER10
  6
Continuous
100
AcDbLine
 10
241.580745
 20
125.393953
 30
0.0
 11
239.597855
 21
125.655006
 31
0.0
  0
LINE
  5
C14
330
1D
100
AcDbEntity
  8
CSLAYER10
  6
Continuous
100
AcDbLine
 10
241.580745
 20
125.393953
 30
0.0
 11
239.597855
 21
125.132901
 31
0.0
  0
TEXT
  5
C15
330
1D
100
AcDbEntity
  8
CSLAYER10
100
AcDbText
 10
220.749092306664
 20
267.485652440462
 30
0.0
 40
4.0
  1
17
 41
0.681818181818
  7
FX_FONT
 72
     5
 11
225.749092306664
 21
267.485652440462
 31
0.0
100
AcDbText
  0
TEXT
  5
C16
330
1D
100
AcDbEntity
  8
CSLAYER10
  6
Continuous
100
AcDbText
 10
125.407504458836
 20
80.90410287562
 30
0.0
 40
4.0
  1
●カラー寸法
 41
0.894505253897
  7
FX_FONT
 72
     5
 11
150.215116833572
 21
80.90410287562
 31
0.0
100
AcDbText
  0
TEXT
  5
C18
330
1D
100
AcDbEntity
  8
CSLAYER10
100
AcDbText
 10
481.157314763355
 20
367.566957588023
 30
0.0
 40
4.0
  1
L=100
 41
0.851107708156
  7
FX_FONT
 72
     5
 11
497.408743612978
 21
367.566957588023
 31
0.0
100
AcDbText
  0
LINE
  5
C19
330
1D
100
AcDbEntity
  8
CSLAYER10
100
AcDbLine
 10
494.161234340509
 20
344.277164
 30
0.0
 11
479.064056718843
 21
365.784979274412
 31
0.0
1001
ACAD
1000
DSTYLE
1002
{
1070
   341
1005
0
1070
     5
1000

1070
   279
1070
     2
1002
}
  0
LINE
  5
C1A
330
1D
100
AcDbEntity
  8
CSLAYER10
100
AcDbLine
 10
479.064056718843
 20
365.784979274412
 30
0.0
 11
499.339913671409
 21
365.784979274412
 31
0.0
1001
ACAD
1000
DSTYLE
1002
{
1070
   341
1005
0
1070
     5
1000

1070
   279
1070
     2
1002
}
  0
TEXT
  5
DB2
330
1D
100
AcDbEntity
  8
CSLAYER10
  6
Continuous
100
AcDbText
 10
12.326759334976
 20
400.376505941045
 30
0.0
 40
8.0
  1
ECLH-102,103,105,-04
100
AcDbText
  0
LINE
  5
DB3
330
1D
100
AcDbEntity
  8
CSLAYER10
  6
Continuous
100
AcDbLine
 10
7.478001099836
 20
395.008183655846
 30
0.0
 11
149.453924202523
 21
395.008183655846
 31
0.0
  0
HATCH
  5
DB4
102
{ACAD_XDICTIONARY
360
DB6
102
}
330
1D
100
AcDbEntity
  8
CSLAYER10
100
AcDbHatch
 10
0.0
 20
0.0
 30
0.0
210
0.0
220
0.0
230
1.0
  2
_USER
 70
     0
 71
     1
 91
       10
 92
        7
 72
     1
 73
     1
 93
        6
 10
420.5640567188431
 20
216.921514
 42
0.0
 10
420.5640567188431
 20
211.921514
 42
0.0
 10
442.5640567188431
 20
211.921514
 42
0.0
 10
442.5640567188431
 20
233.921514
 42
0.3489710857824132
 10
421.1322385640508
 20
216.8891261607784
 42
0.0
 10
421.1322385505379
 20
216.889126042635
 42
0.0284782868011562
 97
        5
330
B3F
330
B94
330
71F
330
588
330
589
 92
        7
 72
     1
 73
     1
 93
        4
 10
420.5640567188431
 20
211.921514
 42
0.0
 10
415.5640567188431
 20
211.921514
 42
0.3241800840736341
 10
419.0062496717704
 20
207.1703839024242
 42
0.079375017781035
 10
420.5640567188431
 20
206.921514
 42
0.0
 97
        3
330
B94
330
589
330
B3F
 92
        7
 72
     1
 73
     1
 93
        3
 10
420.5640567188431
 20
211.921514
 42
0.0
 10
420.5640567188431
 20
216.921514
 42
0.414213562373095
 10
415.5640567188431
 20
211.921514
 42
0.0
 97
        3
330
B3F
330
589
330
B94
 92
        7
 72
     1
 73
     1
 93
        7
 10
421.1322385640508
 20
206.9539018392216
 42
0.1671725104275518
 10
428.7225997431087
 20
194.8213950299784
 42
0.0
 10
428.7225997188431
 20
194.821395
 42
0.0
 10
442.5640567188431
 20
211.921514
 42
0.0
 10
420.5640567188431
 20
211.921514
 42
0.0
 10
420.5640567188431
 20
206.921514
 42
0.0284782868011561
 10
421.1322385505379
 20
206.953901957365
 42
0.0
 97
        5
330
58A
330
B7C
330
B94
330
B3F
330
589
 92
        7
 72
     1
 73
     1
 93
        4
 10
428.7225997431087
 20
194.8213950299784
 42
0.1717773635377034
 10
442.5640567188431
 20
189.921514
 42
0.0
 10
442.5640567188431
 20
211.921514
 42
0.0
 10
428.7225997188431
 20
194.821395
 42
0.0
 97
        3
330
58A
330
71F
330
B7C
 92
        7
 72
     1
 73
     1
 93
        6
 10
463.9958748871484
 20
206.953901957365
 42
0.0284782868011565
 10
464.5640567188431
 20
206.921514
 42
0.0
 10
464.5640567188431
 20
211.921514
 42
0.0
 10
442.5640567188431
 20
211.921514
 42
0.0
 10
442.5640567188431
 20
189.921514
 42
0.3489710857824132
 10
463.9958748736354
 20
206.9539018392216
 42
0.0
 97
        5
330
587
330
B40
330
B94
330
71F
330
58A
 92
        7
 72
     1
 73
     1
 93
        7
 10
464.5640567188431
 20
211.921514
 42
0.0
 10
464.5640567188431
 20
216.921514
 42
0.0284782868011561
 10
463.9958748871484
 20
216.889126042635
 42
0.0
 10
463.9958748736354
 20
216.8891261607784
 42
0.1671725104275514
 10
456.4055136945776
 20
229.0216329700216
 42
0.0
 10
456.4055137188432
 20
229.021633
 42
0.0
 10
442.5640567188431
 20
211.921514
 42
0.0
 97
        5
330
B40
330
587
330
588
330
B7C
330
B94
 92
        7
 72
     1
 73
     1
 93
        4
 10
442.5640567188431
 20
211.921514
 42
0.0
 10
456.4055137188432
 20
229.021633
 42
0.0
 10
456.4055136945776
 20
229.0216329700216
 42
0.1717773635377038
 10
442.5640567188431
 20
233.921514
 42
0.0
 97
        3
330
B7C
330
588
330
71F
 92
        7
 72
     1
 73
     1
 93
        3
 10
464.5640567188431
 20
216.921514
 42
0.0
 10
464.5640567188431
 20
211.921514
 42
0.0
 10
469.5640567188431
 20
211.921514
 42
0.414213562373095
 97
        3
330
B40
330
B94
330
587
 92
        7
 72
     1
 73
     1
 93
        3
 10
464.5640567188431
 20
211.921514
 42
0.0
 10
464.5640567188431
 20
206.921514
 42
0.414213562373095
 10
469.5640567188431
 20
211.921514
 42
0.0
 97
        3
330
B40
330
587
330
B94
 75
     0
 76
     0
 52
45.0
 41
2.0
 77
     0
 78
     1
 53
45.0
 43
12.09045671884314
 44
0.0
 45
-1.414213562373095
 46
1.414213562373095
 79
     0
 47
0.0
 98
       10
 10
420.610517944063
 20
213.8068791201845
 10
418.6781045491153
 20
211.8744657252368
 10
418.6781045491153
 20
213.9205504963579
 10
426.9761150097733
 20
207.4412820544743
 10
439.5936377650202
 20
201.3030277411108
 10
447.3232913448113
 20
203.0080983837118
 10
451.6428036394003
 20
215.8529638913056
 10
448.0053196018517
 20
224.9466739851774
 10
467.2157821751557
 20
213.8068791201845
 10
466.3064111657686
 20
209.2600240732486
1001
ACAD
1010
0.0
1020
0.0
1030
0.0
1001
AcadAnnotative
1000
AnnotativeData
1002
{
1070
     1
1070
     0
1002
}
  0
HATCH
  5
DB9
102
{ACAD_XDICTIONARY
360
DBA
102
}
330
1D
100
AcDbEntity
  8
CSLAYER10
100
AcDbHatch
 10
0.0
 20
0.0
 30
0.0
210
0.0
220
0.0
230
1.0
  2
_USER
 70
     0
 71
     1
 91
        6
 92
        7
 72
     1
 73
     1
 93
        4
 10
442.5640567188431
 20
313.921514
 42
0.0
 10
442.5640567188431
 20
296.9215144999999
 42
0.0
 10
454.0646247188432
 20
309.440977
 42
0.0
 10
454.0646243580876
 20
309.4409766072832
 42
0.1879175160496726
 97
        3
330
71F
330
B8A
330
5B3
 92
        7
 72
     1
 73
     1
 93
        5
 10
459.5640567188431
 20
296.921514
 42
0.2099536755375761
 10
454.0646243580876
 20
309.4409766072832
 42
0.0
 10
454.0646247188432
 20
309.440977
 42
0.0
 10
442.5640567188431
 20
296.9215144999999
 42
0.0
 10
442.5640567188431
 20
296.921514
 42
0.0
 97
        3
330
5B3
330
B8A
330
B9B
 92
        7
 72
     1
 73
     1
 93
        4
 10
442.5640567188431
 20
296.9215144999999
 42
0.0
 10
442.5640567188431
 20
279.921514
 42
0.414213562373095
 10
459.5640567188431
 20
296.921514
 42
0.0
 10
442.5640567188431
 20
296.921514
 42
0.0
 97
        3
330
71F
330
5B3
330
B9B
 92
        7
 72
     1
 73
     1
 93
        4
 10
442.5640567188431
 20
296.9215144999999
 42
0.0
 10
431.0634887188431
 20
284.402052
 42
0.0
 10
431.0634885813947
 20
284.4020518503744
 42
0.1879175263495747
 10
442.5640567188431
 20
279.921514
 42
0.0
 97
        3
330
B8A
330
5B3
330
71F
 92
        7
 72
     1
 73
     1
 93
        5
 10
431.0634887188431
 20
284.402052
 42
0.0
 10
442.5640567188431
 20
296.9215144999999
 42
0.0
 10
442.5640567188431
 20
296.921514
 42
0.0
 10
425.5640567188431
 20
296.921514
 42
0.2099536651504492
 10
431.0634885813947
 20
284.4020518503744
 42
0.0
 97
        3
330
B8A
330
B9B
330
5B3
 92
        7
 72
     1
 73
     1
 93
        4
 10
425.5640567188431
 20
296.921514
 42
0.0
 10
442.5640567188431
 20
296.921514
 42
0.0
 10
442.5640567188431
 20
296.9215144999999
 42
0.0
 10
442.5640567188431
 20
313.921514
 42
0.414213562373095
 97
        3
330
B9B
330
71F
330
5B3
 75
     0
 76
     0
 52
45.0
 41
2.0
 77
     0
 78
     1
 53
45.0
 43
12.09045671884314
 44
0.0
 45
-1.414213562373095
 46
1.414213562373095
 79
     0
 47
0.0
 98
        6
 10
445.2464689056432
 20
307.2382879678499
 10
451.2013742718698
 20
301.4128370661064
 10
449.3890117691051
 20
292.2215700878002
 10
438.6442912170006
 20
288.9852084757205
 10
432.1715679928412
 20
294.5517504484975
 10
434.1133849600891
 20
302.9662906399047
1001
ACAD
1010
0.0
1020
0.0
1030
0.0
1001
AcadAnnotative
1000
AnnotativeData
1002
{
1070
     1
1070
     0
1002
}
  0
LINE
  5
DBD
102
{ACAD_REACTORS
330
DBE
102
}
330
1D
100
AcDbEntity
  8
CSLAYER1
100
AcDbLine
 10
376.564056718843
 20
345.421514
 30
0.0
 11
375.14984315647
 21
346.835727437627
 31
0.0
  0
HATCH
  5
DBE
102
{ACAD_XDICTIONARY
360
DBF
102
}
330
1D
100
AcDbEntity
  8
CSLAYER10
100
AcDbHatch
 10
0.0
 20
0.0
 30
0.0
210
0.0
220
0.0
230
1.0
  2
_USER
 70
     0
 71
     1
 91
        2
 92
        7
 72
     1
 73
     1
 93
        8
 10
375.14984315647
 20
346.8357274376269
 42
0.0
 10
376.5640567188431
 20
345.421514
 42
0.0
 10
377.9782707188431
 20
346.835728
 42
0.0
 10
376.5640567188431
 20
348.249941
 42
0.0
 10
376.5640567188431
 20
355.421514
 42
0.0
 10
374.5640567188431
 20
355.421514
 42
0.0
 10
374.5640567188431
 20
355.221514
 42
0.0
 10
374.5640567188431
 20
348.249941
 42
0.198912367379658
 97
        7
330
DBD
330
445
330
444
330
443
330
442
330
43F
330
44A
 92
        7
 72
     1
 73
     1
 93
       25
 10
375.0346327188432
 20
336.88938
 42
0.0
 10
375.1525407188432
 20
336.81511
 42
0.0
 10
375.2705577188431
 20
336.736898
 42
0.0
 10
375.3887507188431
 20
336.655975
 42
0.0
 10
375.5071847188431
 20
336.573574
 42
0.0
 10
375.6259227188431
 20
336.490927
 42
0.0
 10
375.7450297188432
 20
336.409265
 42
0.0
 10
375.8645717188431
 20
336.329822
 42
0.0
 10
375.9846137188431
 20
336.253829
 42
0.0
 10
376.1052197188432
 20
336.182519
 42
0.0
 10
376.2264547188431
 20
336.117123
 42
0.0
 10
376.3483827188431
 20
336.058875
 42
0.0
 10
376.4710707188431
 20
336.009005
 42
0.0
 10
376.5640565780948
 20
335.9786965681862
 42
0.0
 10
376.5640567188431
 20
335.978697
 42
0.0
 10
376.5640567188431
 20
337.593087
 42
0.0
 10
377.9782707188431
 20
339.007301
 42
0.0
 10
376.5640567188431
 20
340.421514
 42
0.0
 10
375.1498437188432
 20
339.007301
 42
0.0
 10
375.14984315647
 20
339.0073005623731
 42
0.198912367379658
 10
374.5640567188431
 20
337.593087
 42
0.0
 10
374.5640567188431
 20
337.12189688335
 42
0.0
 10
374.6809247188431
 20
337.076208
 42
0.0
 10
374.7988897188432
 20
337.021161
 42
0.0
 10
374.9167707188432
 20
336.958474
 42
0.0
 97
       23
330
A68
330
A69
330
A6A
330
A6B
330
A6C
330
A6D
330
A6E
330
A6F
330
A70
330
A71
330
A72
330
A73
330
A74
330
44E
330
44D
330
447
330
44B
330
44C
330
43F
330
A64
330
A65
330
A66
330
A67
 75
     0
 76
     0
 52
45.0
 41
2.0
 77
     0
 78
     1
 53
45.0
 43
12.09045671884314
 44
0.0
 45
-1.414213562373095
 46
1.414213562373095
 79
     0
 47
0.0
 98
        2
 10
375.8222715058353
 20
350.8473672734606
 10
376.2840097138418
 20
338.6113047612881
1001
ACAD
1010
0.0
1020
0.0
1030
0.0
1001
AcadAnnotative
1000
AnnotativeData
1002
{
1070
     1
1070
     0
1002
}
  0
TEXT
  5
DC2
330
1D
100
AcDbEntity
  8
CSLAYER10
100
AcDbText
 10
217.657034375658
 20
119.081358619886
 30
0.0
 40
4.0
  1
取付扉厚
 41
0.689338235294
  7
FX_FONT
 72
     5
 11
230.157034375658
 21
119.081358619886
 31
0.0
100
AcDbText
  0
LINE
  5
E8A
330
1D
100
AcDbEntity
  8
CSLAYER10
  6
Continuous
100
AcDbLine
 10
517.433329339035
 20
378.321729990926
 30
0.0
 11
457.447144718843
 21
313.123171
 31
0.0
  0
LINE
  5
E8B
330
1D
100
AcDbEntity
  8
CSLAYER10
  6
Continuous
100
AcDbLine
 10
457.447144718843
 20
313.123171
 30
0.0
 11
454.064624718843
 21
309.440977
 31
0.0
  0
HATCH
  5
EEF
102
{ACAD_XDICTIONARY
360
EF0
102
}
330
1D
100
AcDbEntity
  8
CSLAYER10
  6
Continuous
100
AcDbHatch
 10
0.0
 20
0.0
 30
0.0
210
0.0
220
0.0
230
1.0
  2
_USER
 70
     0
 71
     1
 91
        3
 92
        7
 72
     0
 73
     1
 93
        5
 10
374.5640567188431
 20
355.221514
 10
372.5640567188431
 20
355.221514
 10
372.5640567188431
 20
346.4014783703694
 10
374.5640567188431
 20
342.921514
 10
374.5640567188431
 20
348.249941
 97
        4
330
43E
330
43D
330
BA7
330
43F
 92
        7
 72
     0
 73
     1
 93
        3
 10
374.5640567188431
 20
342.921514
 10
372.5640567188431
 20
346.4014783703694
 10
372.5640567188431
 20
342.921514
 97
        3
330
BA7
330
43D
330
AB7
 92
        7
 72
     0
 73
     1
 93
       29
 10
372.5640567188431
 20
336.421514
 10
372.6428847188432
 20
336.478513
 10
372.7217047188432
 20
336.535236
 10
372.8005087188432
 20
336.59141
 10
372.8792877188432
 20
336.64676
 10
372.9580337188431
 20
336.70101
 10
373.0367397188431
 20
336.753887
 10
373.1153967188432
 20
336.805116
 10
373.1939977188431
 20
336.854421
 10
373.2725327188431
 20
336.901528
 10
373.3509947188431
 20
336.946162
 10
373.4293757188431
 20
336.988049
 10
373.5076677188432
 20
337.026914
 10
373.5858617188431
 20
337.062481
 10
373.6639497188431
 20
337.094477
 10
373.7419247188432
 20
337.122627
 10
373.8197767188431
 20
337.146655
 10
373.8974997188432
 20
337.166287
 10
373.9750837188432
 20
337.181248
 10
374.0525227188431
 20
337.191264
 10
374.1298057188432
 20
337.196059
 10
374.2069267188431
 20
337.19536
 10
374.3258767188431
 20
337.183192
 10
374.4444837188431
 20
337.158456
 10
374.5628107188431
 20
337.122384
 10
374.5640567188431
 20
337.12189688335
 10
374.5640567188431
 20
337.593087
 10
374.5640567188431
 20
342.921514
 10
372.5640567188431
 20
342.921514
 97
       28
330
A4C
330
A4D
330
A4E
330
A4F
330
A50
330
A51
330
A52
330
A53
330
A54
330
A55
330
A56
330
A57
330
A58
330
A59
330
A5A
330
A5B
330
A5C
330
A5D
330
A5E
330
A5F
330
A60
330
A61
330
A62
330
A63
330
A64
330
43F
330
AB7
330
43D
 75
     0
 76
     0
 52
135.0
 41
1.0
 77
     0
 78
     1
 53
135.0
 43
0.0
 44
0.0
 45
-0.7071067811865476
 46
-0.7071067811865475
 79
     0
 47
0.0
 98
        3
 10
373.7206605422809
 20
351.4629290312592
 10
372.9551600190875
 20
344.170084736505
 10
373.8262468213421
 20
341.1344792134968
1001
ACAD
1010
0.0
1020
0.0
1030
0.0
1001
AcadAnnotative
1000
AnnotativeData
1002
{
1070
     1
1070
     0
1002
}
  0
LINE
  5
FBA
330
1D
100
AcDbEntity
  8
CSLAYER10
  6
Continuous
100
AcDbLine
 10
125.320433
 20
315.221514
 30
0.0
 11
125.320433
 21
355.221514
 31
0.0
  0
LINE
  5
FBB
330
1D
100
AcDbEntity
  8
CSLAYER10
  6
Continuous
100
AcDbLine
 10
335.407554718843
 20
342.921514
 30
0.0
 11
335.407554718843
 21
355.421514
 31
0.0
  0
LINE
  5
FBC
330
1D
100
AcDbEntity
  8
CSLAYER10
  6
Continuous
100
AcDbLine
 10
335.407554718843
 20
158.421514
 30
0.0
 11
335.407554718843
 21
170.921514
 31
0.0
  0
LINE
  5
FBD
330
1D
100
AcDbEntity
  8
CSLAYER10
  6
Continuous
100
AcDbLine
 10
442.564056718843
 20
139.921757
 30
0.0
 11
496.564056718843
 21
139.921757
 31
0.0
  0
ENDSEC
  0
SECTION
  2
OBJECTS
  0
DICTIONARY
  5
C
330
0
100
AcDbDictionary
281
     1
  3
ACAD_DETAILVIEWSTYLE
350
1024
  3
ACAD_GROUP
350
D
  3
ACAD_LAYOUT
350
1A
  3
ACAD_MATERIAL
350
67E
  3
ACAD_MLEADERSTYLE
350
684
  3
ACAD_MLINESTYLE
350
17
  3
ACAD_PLOTSETTINGS
350
19
  3
ACAD_PLOTSTYLENAME
350
E
  3
ACAD_SCALELIST
350
63F
  3
ACAD_SECTIONVIEWSTYLE
350
1025
  3
ACAD_TABLESTYLE
350
682
  3
ACAD_VISUALSTYLE
350
665
  3
ACDB_RECOMPOSE_DATA
350
1028
  3
AcDbVariableDictionary
350
688
  0
SUN
  5
687
330
3B
100
AcDbSun
 90
        1
290
     0
 63
     7
 40
1.0
291
     1
 91
  2455826
 92
 54000000
292
     0
 70
     2
 71
   256
280
     1
  0
DICTIONARY
  5
6EE
330
2
100
AcDbDictionary
280
     1
281
     1
  3
ACAD_LAYERSTATES
360
6EF
  0
DICTIONARY
  5
72D
330
1D
100
AcDbDictionary
280
     1
281
     1
  3
ACAD_SORTENTS
360
72E
  0
DICTIONARY
  5
6E5
330
6C1
100
AcDbDictionary
280
     1
281
     1
  3
ACAD_SORTENTS
360
6E6
  0
DICTIONARY
  5
718
330
6F3
100
AcDbDictionary
280
     1
281
     1
  3
ACAD_SORTENTS
360
719
  0
DICTIONARY
  5
754
330
72F
100
AcDbDictionary
280
     1
281
     1
  3
ACAD_SORTENTS
360
755
  0
DICTIONARY
  5
78E
330
769
100
AcDbDictionary
280
     1
281
     1
  3
ACAD_SORTENTS
360
78F
  0
DICTIONARY
  5
7BB
330
795
100
AcDbDictionary
280
     1
281
     1
  3
ACAD_SORTENTS
360
7BC
  0
DICTIONARY
  5
7E9
330
7C3
100
AcDbDictionary
280
     1
281
     1
  3
ACAD_SORTENTS
360
7EA
  0
DICTIONARY
  5
850
330
82A
100
AcDbDictionary
280
     1
281
     1
  3
ACAD_SORTENTS
360
851
  0
DICTIONARY
  5
8B9
330
893
100
AcDbDictionary
280
     1
281
     1
  3
ACAD_SORTENTS
360
8BA
  0
DICTIONARY
  5
960
330
93B
100
AcDbDictionary
280
     1
281
     1
  3
ACAD_SORTENTS
360
961
  0
DICTIONARY
  5
9C7
330
9A3
100
AcDbDictionary
280
     1
281
     1
  3
ACAD_SORTENTS
360
9C8
  0
DICTIONARY
  5
9F4
330
9CE
100
AcDbDictionary
280
     1
281
     1
  3
ACAD_SORTENTS
360
9F5
  0
DICTIONARY
  5
C40
330
C1B
100
AcDbDictionary
280
     1
281
     1
  3
ACAD_SORTENTS
360
C41
  0
DICTIONARY
  5
DB6
330
DB4
100
AcDbDictionary
280
     1
281
     1
  3
AcDbContextDataManager
360
DB7
  0
DICTIONARY
  5
DBA
330
DB9
100
AcDbDictionary
280
     1
281
     1
  3
AcDbContextDataManager
360
DBB
  0
DICTIONARY
  5
DBF
330
DBE
100
AcDbDictionary
280
     1
281
     1
  3
AcDbContextDataManager
360
DC0
  0
DICTIONARY
  5
EF0
330
EEF
100
AcDbDictionary
280
     1
281
     1
  3
AcDbContextDataManager
360
EF1
  0
DICTIONARY
  5
1024
102
{ACAD_REACTORS
330
C
102
}
330
C
100
AcDbDictionary
281
     1
  0
DICTIONARY
  5
D
102
{ACAD_REACTORS
330
C
102
}
330
C
100
AcDbDictionary
281
     1
  0
DICTIONARY
  5
1A
102
{ACAD_REACTORS
330
C
102
}
330
C
100
AcDbDictionary
281
     1
  3
Layout1
350
1C
  3
Model
350
1E
  0
DICTIONARY
  5
67E
102
{ACAD_REACTORS
330
C
102
}
330
C
100
AcDbDictionary
281
     1
  3
ByBlock
350
680
  3
ByLayer
350
67F
  3
Global
350
681
  0
DICTIONARY
  5
684
102
{ACAD_REACTORS
330
C
102
}
330
C
100
AcDbDictionary
281
     1
  3
Standard
350
685
  0
DICTIONARY
  5
17
102
{ACAD_REACTORS
330
C
102
}
330
C
100
AcDbDictionary
281
     1
  3
Standard
350
18
  0
DICTIONARY
  5
19
102
{ACAD_REACTORS
330
C
102
}
330
C
100
AcDbDictionary
281
     1
  0
ACDBDICTIONARYWDFLT
  5
E
102
{ACAD_REACTORS
330
C
102
}
330
C
100
AcDbDictionary
281
     1
  3
Normal
350
F
100
AcDbDictionaryWithDefault
340
F
  0
DICTIONARY
  5
63F
102
{ACAD_REACTORS
330
C
102
}
330
C
100
AcDbDictionary
281
     1
  3
A0
350
640
  3
A1
350
641
  3
A2
350
642
  3
A3
350
643
  3
A4
350
644
  3
A5
350
645
  3
A6
350
646
  3
A7
350
647
  3
A8
350
648
  3
A9
350
649
  3
B0
350
64A
  3
B1
350
64B
  3
B2
350
64C
  3
B3
350
64D
  3
B4
350
64E
  3
B5
350
64F
  3
B6
350
650
  3
B7
350
651
  3
B8
350
652
  3
B9
350
653
  3
C0
350
654
  3
C1
350
655
  3
C2
350
656
  3
C3
350
657
  3
C4
350
658
  3
C5
350
659
  3
C6
350
65A
  3
C7
350
65B
  3
C8
350
65C
  3
C9
350
65D
  3
D0
350
65E
  3
D1
350
65F
  3
D2
350
660
  0
DICTIONARY
  5
1025
102
{ACAD_REACTORS
330
C
102
}
330
C
100
AcDbDictionary
281
     1
  0
DICTIONARY
  5
682
102
{ACAD_REACTORS
330
C
102
}
330
C
100
AcDbDictionary
281
     1
  3
Standard
350
683
  0
DICTIONARY
  5
665
102
{ACAD_REACTORS
330
C
102
}
330
C
100
AcDbDictionary
281
     1
  3
2dWireframe
350
66A
  3
Basic
350
66D
  3
Brighten
350
671
  3
ColorChange
350
675
  3
Conceptual
350
66F
  3
Dim
350
670
  3
EdgeColorOff
350
678
  3
Facepattern
350
674
  3
Flat
350
666
  3
FlatWithEdges
350
667
  3
Gouraud
350
668
  3
GouraudWithEdges
350
669
  3
Hidden
350
66C
  3
JitterOff
350
676
  3
Linepattern
350
673
  3
Modeling
350
686
  3
OverhangOff
350
677
  3
Realistic
350
66E
  3
Shaded
350
67D
  3
Shaded with edges
350
67C
  3
Shades of Gray
350
679
  3
Sketchy
350
67A
  3
Thicken
350
672
  3
Wireframe
350
66B
  3
X-Ray
350
67B
  0
XRECORD
  5
1028
102
{ACAD_REACTORS
330
C
102
}
330
C
100
AcDbXrecord
280
     1
 90
        1
330
683
  0
DICTIONARY
  5
688
102
{ACAD_REACTORS
330
C
102
}
330
C
100
AcDbDictionary
281
     1
  3
CANNOSCALE
350
1023
  3
CMLEADERSTYLE
350
68B
  3
CTABLESTYLE
350
68A
  3
DIMASSOC
350
C68
  3
HIDETEXT
350
C69
  3
MSLTSCALE
350
68C
  0
DICTIONARY
  5
6EF
102
{ACAD_REACTORS
330
6EE
102
}
330
6EE
100
AcDbDictionary
281
     1
  0
SORTENTSTABLE
  5
72E
102
{ACAD_REACTORS
330
72D
102
}
330
72D
100
AcDbSortentsTable
330
1D
331
0
  5
E8A
331
43D
  5
43E
331
43E
  5
43F
331
43F
  5
441
331
440
  5
442
331
441
  5
443
331
442
  5
444
331
443
  5
445
331
444
  5
446
331
445
  5
447
331
446
  5
448
331
447
  5
449
331
448
  5
44B
331
44A
  5
44C
331
44B
  5
44D
331
44C
  5
44E
331
44D
  5
44F
331
44E
  5
450
331
44F
  5
451
331
450
  5
453
331
452
  5
454
331
453
  5
455
331
454
  5
456
331
455
  5
457
331
456
  5
458
331
457
  5
459
331
458
  5
45A
331
459
  5
45B
331
45A
  5
45C
331
45B
  5
45D
331
45C
  5
45E
331
45D
  5
45F
331
45E
  5
460
331
45F
  5
461
331
460
  5
462
331
461
  5
463
331
462
  5
464
331
463
  5
465
331
464
  5
466
331
465
  5
467
331
466
  5
468
331
467
  5
469
331
468
  5
46A
331
469
  5
46B
331
46A
  5
46C
331
46B
  5
46D
331
46C
  5
46E
331
46D
  5
46F
331
46E
  5
470
331
46F
  5
471
331
470
  5
472
331
471
  5
473
331
472
  5
474
331
473
  5
475
331
474
  5
476
331
475
  5
477
331
476
  5
480
331
477
  5
481
331
480
  5
482
331
481
  5
487
331
482
  5
488
331
487
  5
496
331
488
  5
508
331
496
  5
509
331
508
  5
50A
331
509
  5
534
331
50A
  5
535
331
534
  5
536
331
535
  5
537
331
536
  5
538
331
537
  5
539
331
538
  5
53A
331
539
  5
53B
331
53A
  5
53C
331
53B
  5
53D
331
53C
  5
53E
331
53D
  5
540
331
53E
  5
541
331
540
  5
552
331
541
  5
57E
331
552
  5
57F
331
57E
  5
580
331
57F
  5
581
331
580
  5
582
331
581
  5
583
331
582
  5
584
331
583
  5
585
331
584
  5
586
331
585
  5
587
331
586
  5
588
331
587
  5
58A
331
588
  5
58B
331
589
  5
58C
331
58A
  5
58D
331
58B
  5
58E
331
58C
  5
58F
331
58D
  5
590
331
58E
  5
591
331
58F
  5
592
331
590
  5
593
331
591
  5
594
331
592
  5
595
331
593
  5
596
331
594
  5
597
331
595
  5
598
331
596
  5
599
331
597
  5
59A
331
598
  5
59B
331
599
  5
59C
331
59A
  5
59D
331
59B
  5
59E
331
59C
  5
59F
331
59D
  5
5A0
331
59E
  5
5A1
331
59F
  5
5A2
331
5A0
  5
5A3
331
5A1
  5
5A4
331
5A2
  5
5A5
331
5A3
  5
5A6
331
5A4
  5
5A7
331
5A5
  5
5A8
331
5A6
  5
5A9
331
5A7
  5
5AA
331
5A8
  5
5AB
331
5A9
  5
5AC
331
5AA
  5
5AD
331
5AB
  5
5AE
331
5AC
  5
5AF
331
5AD
  5
5B0
331
5AE
  5
5B1
331
5AF
  5
5B2
331
5B0
  5
5B3
331
5B1
  5
5B4
331
5B2
  5
5B5
331
5B3
  5
5B8
331
5B5
  5
5B9
331
5B6
  5
5BC
331
5B7
  5
5BD
331
5B8
  5
5BE
331
5B9
  5
5BF
331
5BC
  5
5C0
331
5BD
  5
5C1
331
5BE
  5
5C2
331
5BF
  5
5C3
331
5C0
  5
5C4
331
5C1
  5
5C5
331
5C2
  5
5C6
331
5C3
  5
5C7
331
5C4
  5
5CB
331
5C5
  5
5CC
331
5C6
  5
5CD
331
5C7
  5
5CE
331
5CB
  5
5CF
331
5CC
  5
5D0
331
5CD
  5
5D1
331
5CE
  5
5D2
331
5CF
  5
5D3
331
5D0
  5
5D4
331
5D1
  5
5D5
331
5D2
  5
5D6
331
5D3
  5
5D7
331
5D4
  5
5D8
331
5D5
  5
5D9
331
5D6
  5
5DA
331
5D7
  5
5DB
331
5D8
  5
5DC
331
5D9
  5
5DD
331
5DA
  5
5DE
331
5DB
  5
5DF
331
5DC
  5
5E0
331
5DD
  5
5E1
331
5DE
  5
5E2
331
5DF
  5
5E3
331
5E0
  5
5E4
331
5E1
  5
5E5
331
5E2
  5
5E7
331
5E3
  5
5E8
331
5E4
  5
5E9
331
5E5
  5
5EA
331
5E7
  5
5EB
331
5E8
  5
5EC
331
5E9
  5
5ED
331
5EA
  5
5EE
331
5EB
  5
5EF
331
5EC
  5
5F0
331
5ED
  5
5F1
331
5EE
  5
5F2
331
5EF
  5
5F3
331
5F0
  5
5F4
331
5F1
  5
5F5
331
5F2
  5
5F6
331
5F3
  5
5F7
331
5F4
  5
5F8
331
5F5
  5
5F9
331
5F6
  5
5FA
331
5F7
  5
5FB
331
5F8
  5
5FC
331
5F9
  5
5FD
331
5FA
  5
5FE
331
5FB
  5
5FF
331
5FC
  5
600
331
5FD
  5
601
331
5FE
  5
602
331
5FF
  5
605
331
600
  5
606
331
601
  5
62F
331
602
  5
63A
331
605
  5
71E
331
606
  5
71F
331
62F
  5
720
331
63A
  5
721
331
71E
  5
722
331
71F
  5
723
331
720
  5
724
331
721
  5
725
331
722
  5
726
331
723
  5
727
331
724
  5
728
331
725
  5
729
331
726
  5
72A
331
727
  5
72B
331
728
  5
72C
331
729
  5
761
331
72A
  5
762
331
72B
  5
763
331
72C
  5
764
331
761
  5
765
331
762
  5
766
331
763
  5
767
331
764
  5
768
331
765
  5
901
331
766
  5
903
331
767
  5
905
331
768
  5
906
331
901
  5
907
331
903
  5
908
331
905
  5
90A
331
906
  5
90C
331
907
  5
915
331
908
  5
916
331
90A
  5
917
331
90C
  5
918
331
915
  5
919
331
916
  5
91A
331
917
  5
91B
331
918
  5
91C
331
919
  5
91F
331
91A
  5
920
331
91B
  5
922
331
91C
  5
923
331
91F
  5
924
331
920
  5
925
331
922
  5
92B
331
928
  5
92D
331
929
  5
92E
331
92A
  5
92F
331
92B
  5
96B
331
966
  5
96C
331
968
  5
96D
331
96A
  5
96E
331
96B
  5
971
331
96C
  5
972
331
96D
  5
973
331
96E
  5
974
331
971
  5
975
331
972
  5
976
331
973
  5
977
331
974
  5
978
331
975
  5
979
331
976
  5
984
331
977
  5
985
331
978
  5
986
331
979
  5
987
331
984
  5
98D
331
985
  5
98E
331
986
  5
98F
331
987
  5
99A
331
98D
  5
99B
331
98E
  5
99D
331
98F
  5
99E
331
99A
  5
99F
331
99B
  5
9A0
331
99D
  5
9A2
331
99E
  5
9CD
331
99F
  5
9FD
331
9A0
  5
9FE
331
9A2
  5
9FF
331
9CD
  5
A00
331
9FD
  5
A01
331
9FE
  5
A02
331
9FF
  5
A03
331
A00
  5
A04
331
A01
  5
A05
331
A02
  5
A06
331
A03
  5
A07
331
A04
  5
A08
331
A05
  5
A09
331
A06
  5
A0A
331
A07
  5
A0B
331
A08
  5
A0D
331
A0A
  5
A0E
331
A0B
  5
A0F
331
A0C
  5
A10
331
A0D
  5
A11
331
A0E
  5
A12
331
A0F
  5
A13
331
A10
  5
A14
331
A11
  5
A15
331
A12
  5
A16
331
A13
  5
A17
331
A14
  5
A18
331
A15
  5
A1A
331
A17
  5
A1B
331
A18
  5
A1D
331
A1A
  5
A1E
331
A1B
  5
A1F
331
A1C
  5
A20
331
A1D
  5
A21
331
A1E
  5
A22
331
A1F
  5
A23
331
A20
  5
A24
331
A21
  5
A25
331
A22
  5
A26
331
A23
  5
A27
331
A24
  5
A28
331
A25
  5
A29
331
A26
  5
A2A
331
A27
  5
A2B
331
A28
  5
A2C
331
A29
  5
A2D
331
A2A
  5
A2E
331
A2B
  5
A2F
331
A2C
  5
A30
331
A2D
  5
A31
331
A2E
  5
A32
331
A2F
  5
A33
331
A30
  5
A34
331
A31
  5
A35
331
A32
  5
A39
331
A36
  5
A3A
331
A37
  5
A3B
331
A38
  5
A3C
331
A39
  5
A40
331
A3D
  5
A41
331
A3E
  5
A42
331
A3F
  5
A43
331
A40
  5
A44
331
A41
  5
A45
331
A42
  5
A46
331
A43
  5
A47
331
A44
  5
A48
331
A45
  5
A49
331
A46
  5
A4A
331
A47
  5
A4B
331
A48
  5
A4C
331
A49
  5
A4D
331
A4A
  5
A4E
331
A4B
  5
A4F
331
A4C
  5
A50
331
A4D
  5
A51
331
A4E
  5
A52
331
A4F
  5
A53
331
A50
  5
A54
331
A51
  5
A55
331
A52
  5
A56
331
A53
  5
A57
331
A54
  5
A58
331
A55
  5
A59
331
A56
  5
A5A
331
A57
  5
A5B
331
A58
  5
A5C
331
A59
  5
A5D
331
A5A
  5
A5E
331
A5B
  5
A5F
331
A5C
  5
A60
331
A5D
  5
A61
331
A5E
  5
A62
331
A5F
  5
A63
331
A60
  5
A64
331
A61
  5
A65
331
A62
  5
A66
331
A63
  5
A67
331
A64
  5
A68
331
A65
  5
A69
331
A66
  5
A6A
331
A67
  5
A6B
331
A68
  5
A6C
331
A69
  5
A6D
331
A6A
  5
A6E
331
A6B
  5
A6F
331
A6C
  5
A70
331
A6D
  5
A71
331
A6E
  5
A72
331
A6F
  5
A73
331
A70
  5
A74
331
A71
  5
A75
331
A72
  5
A76
331
A73
  5
A77
331
A74
  5
A78
331
A75
  5
A79
331
A76
  5
A7A
331
A77
  5
A7B
331
A78
  5
A7C
331
A79
  5
A7D
331
A7A
  5
A7E
331
A7B
  5
A7F
331
A7C
  5
A80
331
A7D
  5
A81
331
A7E
  5
A82
331
A7F
  5
A83
331
A80
  5
A84
331
A81
  5
A85
331
A82
  5
A86
331
A83
  5
A87
331
A84
  5
A88
331
A85
  5
A89
331
A86
  5
A8A
331
A87
  5
A8B
331
A88
  5
A8C
331
A89
  5
A8D
331
A8A
  5
A96
331
A93
  5
A97
331
A94
  5
A98
331
A95
  5
A99
331
A96
  5
A9A
331
A97
  5
A9B
331
A98
  5
A9C
331
A99
  5
A9D
331
A9A
  5
A9E
331
A9B
  5
A9F
331
A9C
  5
AA0
331
A9D
  5
AA2
331
A9F
  5
AA3
331
AA0
  5
AA4
331
AA1
  5
AA6
331
AA3
  5
AA7
331
AA4
  5
AA8
331
AA5
  5
AA9
331
AA6
  5
AAA
331
AA7
  5
AAC
331
AA9
  5
AAD
331
AAA
  5
AAE
331
AAB
  5
AAF
331
AAC
  5
AB0
331
AAD
  5
AB1
331
AAE
  5
AB2
331
AAF
  5
AB3
331
AB0
  5
AB4
331
AB1
  5
AB5
331
AB2
  5
AB6
331
AB3
  5
AB7
331
AB4
  5
AB8
331
AB5
  5
AB9
331
AB6
  5
ABA
331
AB7
  5
ABC
331
AB9
  5
ABD
331
ABA
  5
ABE
331
ABB
  5
ABF
331
ABC
  5
AC0
331
ABD
  5
AC1
331
ABE
  5
AC3
331
AC0
  5
AC4
331
AC1
  5
AC5
331
AC2
  5
AC6
331
AC3
  5
AC7
331
AC4
  5
AC8
331
AC5
  5
AC9
331
AC6
  5
ACA
331
AC7
  5
ACB
331
AC8
  5
ACC
331
AC9
  5
ACD
331
ACA
  5
ACE
331
ACB
  5
ACF
331
ACC
  5
AD0
331
ACD
  5
AD1
331
ACE
  5
AD2
331
ACF
  5
AD3
331
AD0
  5
AD4
331
AD1
  5
AD5
331
AD2
  5
AD6
331
AD3
  5
AD7
331
AD4
  5
AD8
331
AD5
  5
AD9
331
AD6
  5
ADA
331
AD7
  5
ADB
331
AD8
  5
ADC
331
AD9
  5
ADD
331
ADA
  5
ADE
331
ADB
  5
ADF
331
ADC
  5
AE0
331
ADD
  5
AE1
331
ADE
  5
AE2
331
ADF
  5
AE3
331
AE0
  5
AE4
331
AE1
  5
AE5
331
AE2
  5
AE6
331
AE3
  5
AE8
331
AE5
  5
AE9
331
AE6
  5
AEA
331
AE7
  5
AEC
331
AE9
  5
AED
331
AEA
  5
AEE
331
AEB
  5
AEF
331
AEC
  5
AF1
331
AEE
  5
AF2
331
AEF
  5
AF3
331
AF0
  5
AF4
331
AF1
  5
AF5
331
AF2
  5
AF6
331
AF3
  5
AF7
331
AF4
  5
AF8
331
AF5
  5
AF9
331
AF6
  5
AFA
331
AF7
  5
AFB
331
AF8
  5
AFC
331
AF9
  5
AFD
331
AFA
  5
AFE
331
AFB
  5
AFF
331
AFC
  5
B00
331
AFD
  5
B01
331
AFE
  5
B02
331
AFF
  5
B03
331
B00
  5
B04
331
B01
  5
B06
331
B03
  5
B07
331
B04
  5
B08
331
B05
  5
B09
331
B06
  5
B0A
331
B07
  5
B0B
331
B08
  5
B0D
331
B0A
  5
B0E
331
B0B
  5
B0F
331
B0C
  5
B10
331
B0D
  5
B11
331
B0E
  5
B12
331
B0F
  5
B13
331
B10
  5
B14
331
B11
  5
B15
331
B12
  5
B16
331
B13
  5
B17
331
B14
  5
B18
331
B15
  5
B19
331
B16
  5
B1A
331
B17
  5
B1B
331
B18
  5
B1D
331
B1A
  5
B1E
331
B1B
  5
B1F
331
B1C
  5
B20
331
B1D
  5
B21
331
B1E
  5
B22
331
B1F
  5
B23
331
B20
  5
B24
331
B21
  5
B25
331
B22
  5
B26
331
B23
  5
B27
331
B24
  5
B28
331
B25
  5
B29
331
B26
  5
B2A
331
B27
  5
B2B
331
B28
  5
B2C
331
B29
  5
B2D
331
B2A
  5
B2E
331
B2B
  5
B2F
331
B2C
  5
B30
331
B2D
  5
B31
331
B2E
  5
B32
331
B2F
  5
B33
331
B30
  5
B35
331
B32
  5
B36
331
B33
  5
B37
331
B34
  5
B39
331
B36
  5
B3A
331
B37
  5
B3B
331
B38
  5
B3C
331
B39
  5
B3D
331
B3A
  5
B3E
331
B3B
  5
B3F
331
B3C
  5
B40
331
B3D
  5
B41
331
B3E
  5
B42
331
B3F
  5
B43
331
B40
  5
B44
331
B41
  5
B45
331
B42
  5
B46
331
B43
  5
B47
331
B44
  5
B48
331
B45
  5
B7E
331
B7B
  5
B7F
331
B7C
  5
B80
331
B7D
  5
B81
331
B7E
  5
B82
331
B7F
  5
B83
331
B80
  5
B84
331
B81
  5
B85
331
B82
  5
B86
331
B83
  5
B87
331
B84
  5
B88
331
B85
  5
B89
331
B86
  5
B8A
331
B87
  5
B8B
331
B88
  5
B8C
331
B89
  5
B8D
331
B8A
  5
B8F
331
B8C
  5
B90
331
B8D
  5
B92
331
B8F
  5
B93
331
B90
  5
B94
331
B91
  5
B95
331
B92
  5
B96
331
B93
  5
B97
331
B94
  5
B98
331
B95
  5
B99
331
B96
  5
B9A
331
B97
  5
B9B
331
B98
  5
B9C
331
B99
  5
B9D
331
B9A
  5
B9E
331
B9B
  5
BA0
331
B9D
  5
BA1
331
B9E
  5
BA2
331
B9F
  5
BA3
331
BA0
  5
BA4
331
BA1
  5
BA6
331
BA3
  5
BA7
331
BA4
  5
BA8
331
BA5
  5
BA9
331
BA6
  5
BAA
331
BA7
  5
BAB
331
BA8
  5
BAC
331
BA9
  5
BAD
331
BAA
  5
BAE
331
BAB
  5
BAF
331
BAC
  5
BB0
331
BAD
  5
BB1
331
BAE
  5
BB2
331
BAF
  5
BB3
331
BB0
  5
BB4
331
BB1
  5
BB5
331
BB2
  5
BB6
331
BB3
  5
BB7
331
BB4
  5
BB8
331
BB5
  5
BB9
331
BB6
  5
BBA
331
BB7
  5
BBB
331
BB8
  5
BBC
331
BB9
  5
BBD
331
BBA
  5
BBE
331
BBB
  5
BBF
331
BBC
  5
BC0
331
BBD
  5
BC1
331
BBE
  5
BC2
331
BBF
  5
BC3
331
BC0
  5
BC4
331
BC1
  5
BC5
331
BC2
  5
BC6
331
BC3
  5
BC7
331
BC4
  5
BC8
331
BC5
  5
BC9
331
BC6
  5
BCA
331
BC7
  5
BCB
331
BC8
  5
BCC
331
BC9
  5
BCD
331
BCA
  5
BCE
331
BCB
  5
BCF
331
BCC
  5
BD0
331
BCD
  5
BD1
331
BCE
  5
BD2
331
BCF
  5
BD3
331
BD0
  5
BD4
331
BD1
  5
BD5
331
BD2
  5
BD6
331
BD3
  5
BD7
331
BD4
  5
BD8
331
BD5
  5
BD9
331
BD6
  5
BDA
331
BD7
  5
BDB
331
BD8
  5
BDC
331
BD9
  5
BDD
331
BDA
  5
BDE
331
BDB
  5
BDF
331
BDC
  5
BE0
331
BDD
  5
BE1
331
BDE
  5
BE2
331
BDF
  5
BE3
331
BE0
  5
BE4
331
BE1
  5
BE5
331
BE2
  5
BE6
331
BE3
  5
BE7
331
BE4
  5
BE8
331
BE5
  5
BE9
331
BE6
  5
BEA
331
BE7
  5
BEB
331
BE8
  5
BEC
331
BE9
  5
BEF
331
BEC
  5
BF0
331
BED
  5
BF1
331
BEE
  5
BF2
331
BEF
  5
BF3
331
BF0
  5
BF4
331
BF1
  5
BF6
331
BF3
  5
BF7
331
BF4
  5
BF8
331
BF5
  5
BF9
331
BF6
  5
BFA
331
BF7
  5
BFB
331
BF8
  5
BFC
331
BF9
  5
BFD
331
BFA
  5
BFE
331
BFB
  5
BFF
331
BFC
  5
C00
331
BFD
  5
C01
331
BFE
  5
C02
331
BFF
  5
C03
331
C00
  5
C04
331
C01
  5
C05
331
C02
  5
C06
331
C03
  5
C07
331
C04
  5
C08
331
C05
  5
C09
331
C06
  5
C0A
331
C07
  5
C0B
331
C08
  5
C0D
331
C0A
  5
C0E
331
C0B
  5
C0F
331
C0C
  5
C10
331
C0D
  5
C11
331
C0E
  5
C12
331
C0F
  5
C14
331
C11
  5
C15
331
C12
  5
C16
331
C13
  5
C18
331
C14
  5
C19
331
C15
  5
C1A
331
C16
  5
C45
331
C18
  5
DB2
331
C19
  5
DB3
331
C1A
  5
DB9
331
DB2
  5
DBD
331
DB3
  5
DBE
331
DB4
  5
589
331
DB9
  5
5B6
331
DBD
  5
DC2
331
DBE
  5
440
331
DC2
  5
E26
331
E8A
  5
E8B
331
E8B
  5
EEF
331
EEF
  5
43D
  0
SORTENTSTABLE
  5
6E6
102
{ACAD_REACTORS
330
6E5
330
6E5
102
}
330
6E5
100
AcDbSortentsTable
330
6C1
  0
SORTENTSTABLE
  5
719
102
{ACAD_REACTORS
330
718
330
718
102
}
330
718
100
AcDbSortentsTable
330
6F3
  0
SORTENTSTABLE
  5
755
102
{ACAD_REACTORS
330
754
330
754
102
}
330
754
100
AcDbSortentsTable
330
72F
  0
SORTENTSTABLE
  5
78F
102
{ACAD_REACTORS
330
78E
330
78E
102
}
330
78E
100
AcDbSortentsTable
330
769
  0
SORTENTSTABLE
  5
7BC
102
{ACAD_REACTORS
330
7BB
330
7BB
102
}
330
7BB
100
AcDbSortentsTable
330
795
  0
SORTENTSTABLE
  5
7EA
102
{ACAD_REACTORS
330
7E9
330
7E9
102
}
330
7E9
100
AcDbSortentsTable
330
7C3
  0
SORTENTSTABLE
  5
851
102
{ACAD_REACTORS
330
850
330
850
102
}
330
850
100
AcDbSortentsTable
330
82A
  0
SORTENTSTABLE
  5
8BA
102
{ACAD_REACTORS
330
8B9
330
8B9
102
}
330
8B9
100
AcDbSortentsTable
330
893
  0
SORTENTSTABLE
  5
961
102
{ACAD_REACTORS
330
960
330
960
102
}
330
960
100
AcDbSortentsTable
330
93B
  0
SORTENTSTABLE
  5
9C8
102
{ACAD_REACTORS
330
9C7
330
9C7
102
}
330
9C7
100
AcDbSortentsTable
330
9A3
  0
SORTENTSTABLE
  5
9F5
102
{ACAD_REACTORS
330
9F4
330
9F4
102
}
330
9F4
100
AcDbSortentsTable
330
9CE
  0
SORTENTSTABLE
  5
C41
102
{ACAD_REACTORS
330
C40
330
C40
102
}
330
C40
100
AcDbSortentsTable
330
C1B
  0
DICTIONARY
  5
DB7
102
{ACAD_REACTORS
330
DB6
102
}
330
DB6
100
AcDbDictionary
281
     1
  3
ACDB_ANNOTATIONSCALES
350
DB8
  0
DICTIONARY
  5
DBB
102
{ACAD_REACTORS
330
DBA
102
}
330
DBA
100
AcDbDictionary
281
     1
  3
ACDB_ANNOTATIONSCALES
350
DBC
  0
DICTIONARY
  5
DC0
102
{ACAD_REACTORS
330
DBF
102
}
330
DBF
100
AcDbDictionary
281
     1
  3
ACDB_ANNOTATIONSCALES
350
DC1
  0
DICTIONARY
  5
EF1
102
{ACAD_REACTORS
330
EF0
102
}
330
EF0
100
AcDbDictionary
281
     1
  3
ACDB_ANNOTATIONSCALES
350
EF2
  0
LAYOUT
  5
1C
102
{ACAD_REACTORS
330
1A
102
}
330
1A
100
AcDbPlotSettings
  1

  2
none_device
  4

  6

 40
0.0
 41
0.0
 42
0.0
 43
0.0
 44
0.0
 45
0.0
 46
0.0
 47
0.0
 48
0.0
 49
0.0
140
0.0
141
0.0
142
1.0
143
1.0
 70
   688
 72
     0
 73
     0
 74
     5
  7
monochrome.ctb
 75
    16
 76
     0
 77
     2
 78
   300
147
1.0
148
0.0
149
0.0
100
AcDbLayout
  1
Layout1
 70
     1
 71
     1
 10
0.0
 20
0.0
 11
12.0
 21
9.0
 12
0.0
 22
0.0
 32
0.0
 14
1.000000000000E+20
 24
1.000000000000E+20
 34
1.000000000000E+20
 15
-1.000000000000E+20
 25
-1.000000000000E+20
 35
-1.000000000000E+20
146
0.0
 13
0.0
 23
0.0
 33
0.0
 16
1.0
 26
0.0
 36
0.0
 17
0.0
 27
1.0
 37
0.0
 76
     0
330
1B
  0
LAYOUT
  5
1E
102
{ACAD_REACTORS
330
1A
102
}
330
1A
100
AcDbPlotSettings
  1

  2
RICOH imagio MP C3500 RPCS
  4
A4
  6

 40
5.08
 41
5.08
 42
5.08
 43
5.08
 44
210.0
 45
297.0
 46
0.0
 47
1.598059914435
 48
-15.9903
 49
-0.2317
140
580.5163
141
420.0343
142
1.0
143
2.103012409928
 70
  1716
 72
     1
 73
     1
 74
     4
  7
monochrome.ctb
 75
     0
 76
     0
 77
     2
 78
   300
147
0.475508368509
148
-239.610667933098
149
-216.900026342711
100
AcDbLayout
  1
Model
 70
     1
 71
     0
 10
0.0
 20
0.0
 11
12.0
 21
9.0
 12
0.0
 22
0.0
 32
0.0
 14
6.323562444444
 24
18.051019276745
 34
0.0
 15
569.87047771212
 25
408.387617052156
 35
0.0
146
0.0
 13
0.0
 23
0.0
 33
0.0
 16
1.0
 26
0.0
 36
0.0
 17
0.0
 27
1.0
 37
0.0
 76
     0
330
1D
331
3B
  0
MATERIAL
  5
680
102
{ACAD_REACTORS
330
67E
102
}
330
67E
100
AcDbMaterial
  1
ByBlock
 72
     1
 94
      127
  0
MATERIAL
  5
67F
102
{ACAD_REACTORS
330
67E
102
}
330
67E
100
AcDbMaterial
  1
ByLayer
 72
     1
 94
      127
  0
MATERIAL
  5
681
102
{ACAD_REACTORS
330
67E
102
}
330
67E
100
AcDbMaterial
  1
Global
 72
     1
 94
      127
  0
MLEADERSTYLE
  5
685
102
{ACAD_REACTORS
330
684
102
}
330
684
100
AcDbMLeaderStyle
179
     2
170
     2
171
     1
172
     0
 90
        2
 40
0.0
 41
0.0
173
     1
 91
-1056964608
340
14
 92
       -2
290
     1
 42
0.09
291
     1
 43
0.36
  3
Standard
341
0
 44
0.18
300

342
11
174
     1
178
     6
175
     1
176
     0
 93
-1056964608
 45
0.18
292
     0
297
     0
 46
0.18
343
0
 94
-1056964608
 47
1.0
 49
1.0
140
1.0
293
     1
141
0.0
294
     1
177
     0
142
1.0
295
     0
296
     0
143
0.125
271
     0
272
     9
273
     9
298
     0
  0
MLINESTYLE
  5
18
102
{ACAD_REACTORS
330
17
102
}
330
17
100
AcDbMlineStyle
  2
Standard
 70
     0
  3

 62
   256
 51
90.0
 52
90.0
 71
     2
 49
0.5
 62
   256
  6
BYLAYER
 49
-0.5
 62
   256
  6
BYLAYER
  0
ACDBPLACEHOLDER
  5
F
102
{ACAD_REACTORS
330
E
102
}
330
E
  0
SCALE
  5
640
102
{ACAD_REACTORS
330
63F
102
}
330
63F
100
AcDbScale
 70
     0
300
1:1
140
1.0
141
1.0
290
     1
  0
SCALE
  5
641
102
{ACAD_REACTORS
330
63F
102
}
330
63F
100
AcDbScale
 70
     0
300
1:2
140
1.0
141
2.0
290
     0
  0
SCALE
  5
642
102
{ACAD_REACTORS
330
63F
102
}
330
63F
100
AcDbScale
 70
     0
300
1:4
140
1.0
141
4.0
290
     0
  0
SCALE
  5
643
102
{ACAD_REACTORS
330
63F
102
}
330
63F
100
AcDbScale
 70
     0
300
1:5
140
1.0
141
5.0
290
     0
  0
SCALE
  5
644
102
{ACAD_REACTORS
330
63F
102
}
330
63F
100
AcDbScale
 70
     0
300
1:8
140
1.0
141
8.0
290
     0
  0
SCALE
  5
645
102
{ACAD_REACTORS
330
63F
102
}
330
63F
100
AcDbScale
 70
     0
300
1:10
140
1.0
141
10.0
290
     0
  0
SCALE
  5
646
102
{ACAD_REACTORS
330
63F
102
}
330
63F
100
AcDbScale
 70
     0
300
1:16
140
1.0
141
16.0
290
     0
  0
SCALE
  5
647
102
{ACAD_REACTORS
330
63F
102
}
330
63F
100
AcDbScale
 70
     0
300
1:20
140
1.0
141
20.0
290
     0
  0
SCALE
  5
648
102
{ACAD_REACTORS
330
63F
102
}
330
63F
100
AcDbScale
 70
     0
300
1:30
140
1.0
141
30.0
290
     0
  0
SCALE
  5
649
102
{ACAD_REACTORS
330
63F
102
}
330
63F
100
AcDbScale
 70
     0
300
1:40
140
1.0
141
40.0
290
     0
  0
SCALE
  5
64A
102
{ACAD_REACTORS
330
63F
102
}
330
63F
100
AcDbScale
 70
     0
300
1:50
140
1.0
141
50.0
290
     0
  0
SCALE
  5
64B
102
{ACAD_REACTORS
330
63F
102
}
330
63F
100
AcDbScale
 70
     0
300
1:100
140
1.0
141
100.0
290
     0
  0
SCALE
  5
64C
102
{ACAD_REACTORS
330
63F
102
}
330
63F
100
AcDbScale
 70
     0
300
2:1
140
2.0
141
1.0
290
     0
  0
SCALE
  5
64D
102
{ACAD_REACTORS
330
63F
102
}
330
63F
100
AcDbScale
 70
     0
300
4:1
140
4.0
141
1.0
290
     0
  0
SCALE
  5
64E
102
{ACAD_REACTORS
330
63F
102
}
330
63F
100
AcDbScale
 70
     0
300
8:1
140
8.0
141
1.0
290
     0
  0
SCALE
  5
64F
102
{ACAD_REACTORS
330
63F
102
}
330
63F
100
AcDbScale
 70
     0
300
10:1
140
10.0
141
1.0
290
     0
  0
SCALE
  5
650
102
{ACAD_REACTORS
330
63F
102
}
330
63F
100
AcDbScale
 70
     0
300
100:1
140
100.0
141
1.0
290
     0
  0
SCALE
  5
651
102
{ACAD_REACTORS
330
63F
102
}
330
63F
100
AcDbScale
 70
     0
300
1/128" = 1'-0"
140
0.0078125
141
12.0
290
     0
  0
SCALE
  5
652
102
{ACAD_REACTORS
330
63F
102
}
330
63F
100
AcDbScale
 70
     0
300
1/64" = 1'-0"
140
0.015625
141
12.0
290
     0
  0
SCALE
  5
653
102
{ACAD_REACTORS
330
63F
102
}
330
63F
100
AcDbScale
 70
     0
300
1/32" = 1'-0"
140
0.03125
141
12.0
290
     0
  0
SCALE
  5
654
102
{ACAD_REACTORS
330
63F
102
}
330
63F
100
AcDbScale
 70
     0
300
1/16" = 1'-0"
140
0.0625
141
12.0
290
     0
  0
SCALE
  5
655
102
{ACAD_REACTORS
330
63F
102
}
330
63F
100
AcDbScale
 70
     0
300
3/32" = 1'-0"
140
0.09375
141
12.0
290
     0
  0
SCALE
  5
656
102
{ACAD_REACTORS
330
63F
102
}
330
63F
100
AcDbScale
 70
     0
300
1/8" = 1'-0"
140
0.125
141
12.0
290
     0
  0
SCALE
  5
657
102
{ACAD_REACTORS
330
63F
102
}
330
63F
100
AcDbScale
 70
     0
300
3/16" = 1'-0"
140
0.1875
141
12.0
290
     0
  0
SCALE
  5
658
102
{ACAD_REACTORS
330
63F
102
}
330
63F
100
AcDbScale
 70
     0
300
1/4" = 1'-0"
140
0.25
141
12.0
290
     0
  0
SCALE
  5
659
102
{ACAD_REACTORS
330
63F
102
}
330
63F
100
AcDbScale
 70
     0
300
3/8" = 1'-0"
140
0.375
141
12.0
290
     0
  0
SCALE
  5
65A
102
{ACAD_REACTORS
330
63F
102
}
330
63F
100
AcDbScale
 70
     0
300
1/2" = 1'-0"
140
0.5
141
12.0
290
     0
  0
SCALE
  5
65B
102
{ACAD_REACTORS
330
63F
102
}
330
63F
100
AcDbScale
 70
     0
300
3/4" = 1'-0"
140
0.75
141
12.0
290
     0
  0
SCALE
  5
65C
102
{ACAD_REACTORS
330
63F
102
}
330
63F
100
AcDbScale
 70
     0
300
1" = 1'-0"
140
1.0
141
12.0
290
     0
  0
SCALE
  5
65D
102
{ACAD_REACTORS
330
63F
102
}
330
63F
100
AcDbScale
 70
     0
300
1-1/2" = 1'-0"
140
1.5
141
12.0
290
     0
  0
SCALE
  5
65E
102
{ACAD_REACTORS
330
63F
102
}
330
63F
100
AcDbScale
 70
     0
300
3" = 1'-0"
140
3.0
141
12.0
290
     0
  0
SCALE
  5
65F
102
{ACAD_REACTORS
330
63F
102
}
330
63F
100
AcDbScale
 70
     0
300
6" = 1'-0"
140
6.0
141
12.0
290
     0
  0
SCALE
  5
660
102
{ACAD_REACTORS
330
63F
102
}
330
63F
100
AcDbScale
 70
     0
300
1'-0" = 1'-0"
140
12.0
141
12.0
290
     0
  0
TABLESTYLE
  5
683
102
{ACAD_REACTORS
330
682
102
}
102
{ACAD_XDICTIONARY
360
1026
102
}
330
682
100
AcDbTableStyle
  3
Standard
 70
     0
 71
     0
 40
0.06
 41
0.06
280
     0
281
     0
  7
Standard
140
0.18
170
     2
 62
     0
 63
   257
283
     0
 90
        4
 91
        0
  1

274
    -2
284
     1
 64
     0
275
    -2
285
     1
 65
     0
276
    -2
286
     1
 66
     0
277
    -2
287
     1
 67
     0
278
    -2
288
     1
 68
     0
279
    -2
289
     1
 69
     0
  7
Standard
140
0.25
170
     5
 62
     0
 63
   257
283
     0
 90
        4
 91
        0
  1

274
    -2
284
     1
 64
     0
275
    -2
285
     1
 65
     0
276
    -2
286
     1
 66
     0
277
    -2
287
     1
 67
     0
278
    -2
288
     1
 68
     0
279
    -2
289
     1
 69
     0
  7
Standard
140
0.18
170
     5
 62
     0
 63
   257
283
     0
 90
        4
 91
        0
  1

274
    -2
284
     1
 64
     0
275
    -2
285
     1
 65
     0
276
    -2
286
     1
 66
     0
277
    -2
287
     1
 67
     0
278
    -2
288
     1
 68
     0
279
    -2
289
     1
 69
     0
  0
VISUALSTYLE
  5
66A
102
{ACAD_REACTORS
330
665
102
}
330
665
100
AcDbVisualStyle
  2
2dWireframe
 70
     4
177
     3
291
     0
 70
    58
 90
        0
176
     1
 90
        2
176
     1
 90
        0
176
     1
 90
        0
176
     1
 40
0.6
176
     1
 40
30.0
176
     1
 62
     7
176
     1
 90
        1
176
     1
 90
        4
176
     1
 62
     7
176
     1
 62
   257
176
     1
 90
        1
176
     1
 90
        1
176
     1
 40
1.0
176
     1
 90
        0
176
     1
 62
   257
176
     1
 40
1.0
176
     1
 90
        1
176
     1
 90
        6
176
     1
 90
        2
176
     1
 62
     7
176
     1
 90
        5
176
     1
 90
        0
176
     1
 90
        0
176
     1
290
     0
176
     1
 90
        1
176
     1
 40
0.0
176
     1
 90
        0
176
     1
290
     1
176
     1
290
     1
176
     1
290
     0
176
     1
290
     0
176
     1
290
     0
176
     1
290
     0
176
     1
290
     0
176
     1
290
     0
176
     1
290
     0
176
     1
 90
       50
176
     1
 40
0.0
176
     1
 40
1.0
176
     1
 90
        0
176
     1
 62
    18
420
        0
176
     1
 90
       50
176
     1
 90
        3
176
     1
 62
     5
420
      255
176
     1
290
     0
176
     1
 90
       50
176
     1
 90
       50
176
     1
 90
       50
176
     1
290
     0
176
     1
 90
       50
176
     1
 62
   256
176
     0
 40
1.0
176
     0
 90
        2
176
     1
  1
strokes_ogs.tif
176
     1
290
     0
176
     1
 40
1.0
176
     1
 40
1.0
176
     1
  0
VISUALSTYLE
  5
66D
102
{ACAD_REACTORS
330
665
102
}
330
665
100
AcDbVisualStyle
  2
Basic
 70
     7
177
     3
291
     1
 70
    58
 90
        1
176
     1
 90
        0
176
     1
 90
        1
176
     1
 90
        0
176
     1
 40
0.6
176
     1
 40
30.0
176
     1
 62
     7
176
     1
 90
        0
176
     1
 90
        4
176
     1
 62
     7
176
     1
 62
   257
176
     1
 90
        1
176
     1
 90
        1
176
     1
 40
1.0
176
     1
 90
        8
176
     1
 62
     7
176
     1
 40
1.0
176
     1
 90
        1
176
     1
 90
        6
176
     1
 90
        2
176
     1
 62
     7
176
     1
 90
        5
176
     1
 90
        0
176
     1
 90
        0
176
     1
290
     0
176
     1
 90
        1
176
     1
 40
0.0
176
     1
 90
        0
176
     1
290
     0
176
     1
290
     1
176
     1
290
     1
176
     1
290
     0
176
     1
290
     0
176
     1
290
     0
176
     1
290
     0
176
     1
290
     0
176
     1
290
     0
176
     1
 90
       50
176
     1
 40
0.0
176
     1
 40
1.0
176
     1
 90
        0
176
     1
 62
    18
420
        0
176
     1
 90
       50
176
     1
 90
        3
176
     1
 62
     5
420
      255
176
     1
290
     0
176
     1
 90
       50
176
     1
 90
       50
176
     1
 90
       50
176
     1
290
     0
176
     1
 90
       50
176
     1
 62
   256
176
     0
 40
1.0
176
     0
 90
        2
176
     1
  1
strokes_ogs.tif
176
     1
290
     0
176
     1
 40
1.0
176
     1
 40
1.0
176
     1
  0
VISUALSTYLE
  5
671
102
{ACAD_REACTORS
330
665
102
}
330
665
100
AcDbVisualStyle
  2
Brighten
 70
    12
177
     3
291
     1
 70
    58
 90
        2
176
     1
 90
        2
176
     1
 90
        0
176
     1
 90
        0
176
     1
 40
0.6
176
     1
 40
30.0
176
     1
 62
     7
176
     1
 90
        1
176
     1
 90
        4
176
     1
 62
     7
176
     1
 62
   257
176
     1
 90
        1
176
     1
 90
        1
176
     1
 40
1.0
176
     1
 90
        8
176
     1
 62
     7
176
     1
 40
1.0
176
     1
 90
        1
176
     1
 90
        6
176
     1
 90
        2
176
     1
 62
     7
176
     1
 90
        5
176
     1
 90
        0
176
     1
 90
        0
176
     1
290
     0
176
     1
 90
        1
176
     1
 40
50.0
176
     1
 90
        0
176
     1
290
     0
176
     1
290
     1
176
     1
290
     1
176
     1
290
     0
176
     1
290
     0
176
     1
290
     0
176
     1
290
     0
176
     1
290
     0
176
     1
290
     0
176
     1
 90
       50
176
     1
 40
0.0
176
     1
 40
1.0
176
     1
 90
        0
176
     1
 62
    18
420
        0
176
     1
 90
       50
176
     1
 90
        3
176
     1
 62
     5
420
      255
176
     1
290
     0
176
     1
 90
       50
176
     1
 90
       50
176
     1
 90
       50
176
     1
290
     0
176
     1
 90
       50
176
     1
 62
   256
176
     0
 40
1.0
176
     0
 90
        2
176
     1
  1
strokes_ogs.tif
176
     1
290
     0
176
     1
 40
1.0
176
     1
 40
1.0
176
     1
  0
VISUALSTYLE
  5
675
102
{ACAD_REACTORS
330
665
102
}
330
665
100
AcDbVisualStyle
  2
ColorChange
 70
    16
177
     3
291
     1
 70
    58
 90
        2
176
     1
 90
        2
176
     1
 90
        3
176
     1
 90
        0
176
     1
 40
0.6
176
     1
 40
30.0
176
     1
 62
     8
176
     1
 90
        1
176
     1
 90
        4
176
     1
 62
     7
176
     1
 62
   257
176
     1
 90
        1
176
     1
 90
        1
176
     1
 40
1.0
176
     1
 90
        8
176
     1
 62
     8
176
     1
 40
1.0
176
     1
 90
        1
176
     1
 90
        6
176
     1
 90
        2
176
     1
 62
     7
176
     1
 90
        5
176
     1
 90
        0
176
     1
 90
        0
176
     1
290
     0
176
     1
 90
        1
176
     1
 40
0.0
176
     1
 90
        0
176
     1
290
     0
176
     1
290
     1
176
     1
290
     1
176
     1
290
     0
176
     1
290
     0
176
     1
290
     0
176
     1
290
     0
176
     1
290
     0
176
     1
290
     0
176
     1
 90
       50
176
     1
 40
0.0
176
     1
 40
1.0
176
     1
 90
        0
176
     1
 62
    18
420
        0
176
     1
 90
       50
176
     1
 90
        3
176
     1
 62
     5
420
      255
176
     1
290
     0
176
     1
 90
       50
176
     1
 90
       50
176
     1
 90
       50
176
     1
290
     0
176
     1
 90
       50
176
     1
 62
   256
176
     0
 40
1.0
176
     0
 90
        2
176
     1
  1
strokes_ogs.tif
176
     1
290
     0
176
     1
 40
1.0
176
     1
 40
1.0
176
     1
  0
VISUALSTYLE
  5
66F
102
{ACAD_REACTORS
330
665
102
}
330
665
100
AcDbVisualStyle
  2
Conceptual
 70
     9
177
     3
291
     0
 70
    58
 90
        3
176
     1
 90
        2
176
     1
 90
        0
176
     1
 90
        0
176
     1
 40
0.6
176
     1
 40
30.0
176
     1
 62
     7
176
     1
 90
        2
176
     1
 90
        2
176
     1
 62
     7
176
     1
 62
   257
176
     1
 90
        1
176
     1
 90
        1
176
     1
 40
179.0
176
     1
 90
        8
176
     1
 62
     7
176
     1
 40
1.0
176
     1
 90
        1
176
     1
 90
        6
176
     1
 90
        2
176
     1
 62
     7
176
     1
 90
        3
176
     1
 90
        0
176
     1
 90
        0
176
     1
290
     0
176
     1
 90
        1
176
     1
 40
0.0
176
     1
 90
        0
176
     1
290
     0
176
     1
290
     1
176
     1
290
     1
176
     1
290
     0
176
     1
290
     0
176
     1
290
     0
176
     1
290
     0
176
     1
290
     0
176
     1
290
     0
176
     1
 90
       50
176
     1
 40
0.0
176
     1
 40
1.0
176
     1
 90
        0
176
     1
 62
    18
420
        0
176
     1
 90
       50
176
     1
 90
        3
176
     1
 62
     5
420
      255
176
     1
290
     0
176
     1
 90
       50
176
     1
 90
       50
176
     1
 90
       50
176
     1
290
     0
176
     1
 90
       50
176
     1
 62
   256
176
     0
 40
1.0
176
     0
 90
        2
176
     1
  1
strokes_ogs.tif
176
     1
290
     0
176
     1
 40
1.0
176
     1
 40
1.0
176
     1
  0
VISUALSTYLE
  5
670
102
{ACAD_REACTORS
330
665
102
}
330
665
100
AcDbVisualStyle
  2
Dim
 70
    11
177
     3
291
     1
 70
    58
 90
        2
176
     1
 90
        2
176
     1
 90
        0
176
     1
 90
        0
176
     1
 40
0.6
176
     1
 40
30.0
176
     1
 62
     7
176
     1
 90
        1
176
     1
 90
        4
176
     1
 62
     7
176
     1
 62
   257
176
     1
 90
        1
176
     1
 90
        1
176
     1
 40
1.0
176
     1
 90
        8
176
     1
 62
     7
176
     1
 40
1.0
176
     1
 90
        1
176
     1
 90
        6
176
     1
 90
        2
176
     1
 62
     7
176
     1
 90
        5
176
     1
 90
        0
176
     1
 90
        0
176
     1
290
     0
176
     1
 90
        1
176
     1
 40
-50.0
176
     1
 90
        0
176
     1
290
     0
176
     1
290
     1
176
     1
290
     1
176
     1
290
     0
176
     1
290
     0
176
     1
290
     0
176
     1
290
     0
176
     1
290
     0
176
     1
290
     0
176
     1
 90
       50
176
     1
 40
0.0
176
     1
 40
1.0
176
     1
 90
        0
176
     1
 62
    18
420
        0
176
     1
 90
       50
176
     1
 90
        3
176
     1
 62
     5
420
      255
176
     1
290
     0
176
     1
 90
       50
176
     1
 90
       50
176
     1
 90
       50
176
     1
290
     0
176
     1
 90
       50
176
     1
 62
   256
176
     0
 40
1.0
176
     0
 90
        2
176
     1
  1
strokes_ogs.tif
176
     1
290
     0
176
     1
 40
1.0
176
     1
 40
1.0
176
     1
  0
VISUALSTYLE
  5
678
102
{ACAD_REACTORS
330
665
102
}
330
665
100
AcDbVisualStyle
  2
EdgeColorOff
 70
    22
177
     3
291
     1
 70
    58
 90
        2
176
     1
 90
        2
176
     1
 90
        0
176
     1
 90
        0
176
     1
 40
0.6
176
     1
 40
30.0
176
     1
 62
     7
176
     1
 90
        1
176
     1
 90
        4
176
     1
 62
     7
176
     1
 62
   257
176
     1
 90
        1
176
     1
 90
        1
176
     1
 40
1.0
176
     1
 90
        8
176
     1
 62
     7
176
     1
 40
1.0
176
     1
 90
        1
176
     1
 90
        6
176
     1
 90
        2
176
     1
 62
     7
176
     1
 90
        5
176
     1
 90
        0
176
     1
 90
        0
176
     1
290
     0
176
     1
 90
        1
176
     1
 40
0.0
176
     1
 90
        0
176
     1
290
     0
176
     1
290
     1
176
     1
290
     1
176
     1
290
     0
176
     1
290
     0
176
     1
290
     0
176
     1
290
     0
176
     1
290
     0
176
     1
290
     0
176
     1
 90
       50
176
     1
 40
0.0
176
     1
 40
1.0
176
     1
 90
        0
176
     1
 62
    18
420
        0
176
     1
 90
       50
176
     1
 90
        3
176
     1
 62
     5
420
      255
176
     1
290
     0
176
     1
 90
       50
176
     1
 90
       50
176
     1
 90
       50
176
     1
290
     0
176
     1
 90
       50
176
     1
 62
   256
176
     0
 40
1.0
176
     0
 90
        2
176
     1
  1
strokes_ogs.tif
176
     1
290
     0
176
     1
 40
1.0
176
     1
 40
1.0
176
     1
  0
VISUALSTYLE
  5
674
102
{ACAD_REACTORS
330
665
102
}
330
665
100
AcDbVisualStyle
  2
Facepattern
 70
    15
177
     3
291
     1
 70
    58
 90
        2
176
     1
 90
        2
176
     1
 90
        0
176
     1
 90
        0
176
     1
 40
0.6
176
     1
 40
30.0
176
     1
 62
     7
176
     1
 90
        1
176
     1
 90
        4
176
     1
 62
     7
176
     1
 62
   257
176
     1
 90
        1
176
     1
 90
        1
176
     1
 40
1.0
176
     1
 90
        8
176
     1
 62
     7
176
     1
 40
1.0
176
     1
 90
        1
176
     1
 90
        6
176
     1
 90
        2
176
     1
 62
     7
176
     1
 90
        5
176
     1
 90
        0
176
     1
 90
        0
176
     1
290
     0
176
     1
 90
        1
176
     1
 40
0.0
176
     1
 90
        0
176
     1
290
     0
176
     1
290
     1
176
     1
290
     1
176
     1
290
     0
176
     1
290
     0
176
     1
290
     0
176
     1
290
     0
176
     1
290
     0
176
     1
290
     0
176
     1
 90
       50
176
     1
 40
0.0
176
     1
 40
1.0
176
     1
 90
        0
176
     1
 62
    18
420
        0
176
     1
 90
       50
176
     1
 90
        3
176
     1
 62
     5
420
      255
176
     1
290
     0
176
     1
 90
       50
176
     1
 90
       50
176
     1
 90
       50
176
     1
290
     0
176
     1
 90
       50
176
     1
 62
   256
176
     0
 40
1.0
176
     0
 90
        2
176
     1
  1
strokes_ogs.tif
176
     1
290
     0
176
     1
 40
1.0
176
     1
 40
1.0
176
     1
  0
VISUALSTYLE
  5
666
102
{ACAD_REACTORS
330
665
102
}
330
665
100
AcDbVisualStyle
  2
Flat
 70
     0
177
     3
291
     1
 70
    58
 90
        2
176
     1
 90
        1
176
     1
 90
        1
176
     1
 90
        2
176
     1
 40
0.6
176
     1
 40
30.0
176
     1
 62
     7
176
     1
 90
        0
176
     1
 90
        0
176
     1
 62
     7
176
     1
 62
   257
176
     1
 90
        1
176
     1
 90
        1
176
     1
 40
1.0
176
     1
 90
        8
176
     1
 62
     7
176
     1
 40
1.0
176
     1
 90
        1
176
     1
 90
        6
176
     1
 90
        2
176
     1
 62
     7
176
     1
 90
        5
176
     1
 90
        0
176
     1
 90
        0
176
     1
290
     0
176
     1
 90
       13
176
     1
 40
0.0
176
     1
 90
        0
176
     1
290
     0
176
     1
290
     1
176
     1
290
     1
176
     1
290
     0
176
     1
290
     0
176
     1
290
     0
176
     1
290
     0
176
     1
290
     0
176
     1
290
     0
176
     1
 90
       50
176
     1
 40
0.0
176
     1
 40
1.0
176
     1
 90
        0
176
     1
 62
    18
420
        0
176
     1
 90
       50
176
     1
 90
        3
176
     1
 62
     5
420
      255
176
     1
290
     0
176
     1
 90
       50
176
     1
 90
       50
176
     1
 90
       50
176
     1
290
     0
176
     1
 90
       50
176
     1
 62
   256
176
     0
 40
1.0
176
     0
 90
        2
176
     1
  1
strokes_ogs.tif
176
     1
290
     0
176
     1
 40
1.0
176
     1
 40
1.0
176
     1
  0
VISUALSTYLE
  5
667
102
{ACAD_REACTORS
330
665
102
}
330
665
100
AcDbVisualStyle
  2
FlatWithEdges
 70
     1
177
     3
291
     1
 70
    58
 90
        2
176
     1
 90
        1
176
     1
 90
        1
176
     1
 90
        2
176
     1
 40
0.6
176
     1
 40
30.0
176
     1
 62
     7
176
     1
 90
        1
176
     1
 90
        0
176
     1
 62
     7
176
     1
 62
   257
176
     1
 90
        1
176
     1
 90
        1
176
     1
 40
1.0
176
     1
 90
        0
176
     1
 62
   257
176
     1
 40
1.0
176
     1
 90
        1
176
     1
 90
        6
176
     1
 90
        2
176
     1
 62
     7
176
     1
 90
        5
176
     1
 90
        0
176
     1
 90
        0
176
     1
290
     0
176
     1
 90
       13
176
     1
 40
0.0
176
     1
 90
        0
176
     1
290
     0
176
     1
290
     1
176
     1
290
     1
176
     1
290
     0
176
     1
290
     0
176
     1
290
     0
176
     1
290
     0
176
     1
290
     0
176
     1
290
     0
176
     1
 90
       50
176
     1
 40
0.0
176
     1
 40
1.0
176
     1
 90
        0
176
     1
 62
    18
420
        0
176
     1
 90
       50
176
     1
 90
        3
176
     1
 62
     5
420
      255
176
     1
290
     0
176
     1
 90
       50
176
     1
 90
       50
176
     1
 90
       50
176
     1
290
     0
176
     1
 90
       50
176
     1
 62
   256
176
     0
 40
1.0
176
     0
 90
        2
176
     1
  1
strokes_ogs.tif
176
     1
290
     0
176
     1
 40
1.0
176
     1
 40
1.0
176
     1
  0
VISUALSTYLE
  5
668
102
{ACAD_REACTORS
330
665
102
}
330
665
100
AcDbVisualStyle
  2
Gouraud
 70
     2
177
     3
291
     1
 70
    58
 90
        2
176
     1
 90
        2
176
     1
 90
        1
176
     1
 90
        2
176
     1
 40
0.6
176
     1
 40
30.0
176
     1
 62
     7
176
     1
 90
        0
176
     1
 90
        0
176
     1
 62
     7
176
     1
 62
   257
176
     1
 90
        1
176
     1
 90
        1
176
     1
 40
1.0
176
     1
 90
        0
176
     1
 62
     7
176
     1
 40
1.0
176
     1
 90
        1
176
     1
 90
        6
176
     1
 90
        2
176
     1
 62
     7
176
     1
 90
        5
176
     1
 90
        0
176
     1
 90
        0
176
     1
290
     0
176
     1
 90
       13
176
     1
 40
0.0
176
     1
 90
        0
176
     1
290
     0
176
     1
290
     1
176
     1
290
     1
176
     1
290
     0
176
     1
290
     0
176
     1
290
     0
176
     1
290
     0
176
     1
290
     0
176
     1
290
     0
176
     1
 90
       50
176
     1
 40
0.0
176
     1
 40
1.0
176
     1
 90
        0
176
     1
 62
    18
420
        0
176
     1
 90
       50
176
     1
 90
        3
176
     1
 62
     5
420
      255
176
     1
290
     0
176
     1
 90
       50
176
     1
 90
       50
176
     1
 90
       50
176
     1
290
     0
176
     1
 90
       50
176
     1
 62
   256
176
     0
 40
1.0
176
     0
 90
        2
176
     1
  1
strokes_ogs.tif
176
     1
290
     0
176
     1
 40
1.0
176
     1
 40
1.0
176
     1
  0
VISUALSTYLE
  5
669
102
{ACAD_REACTORS
330
665
102
}
330
665
100
AcDbVisualStyle
  2
GouraudWithEdges
 70
     3
177
     3
291
     1
 70
    58
 90
        2
176
     1
 90
        2
176
     1
 90
        1
176
     1
 90
        2
176
     1
 40
0.6
176
     1
 40
30.0
176
     1
 62
     7
176
     1
 90
        1
176
     1
 90
        0
176
     1
 62
     7
176
     1
 62
   257
176
     1
 90
        1
176
     1
 90
        1
176
     1
 40
1.0
176
     1
 90
        0
176
     1
 62
   257
176
     1
 40
1.0
176
     1
 90
        1
176
     1
 90
        6
176
     1
 90
        2
176
     1
 62
     7
176
     1
 90
        5
176
     1
 90
        0
176
     1
 90
        0
176
     1
290
     0
176
     1
 90
       13
176
     1
 40
0.0
176
     1
 90
        0
176
     1
290
     0
176
     1
290
     1
176
     1
290
     1
176
     1
290
     0
176
     1
290
     0
176
     1
290
     0
176
     1
290
     0
176
     1
290
     0
176
     1
290
     0
176
     1
 90
       50
176
     1
 40
0.0
176
     1
 40
1.0
176
     1
 90
        0
176
     1
 62
    18
420
        0
176
     1
 90
       50
176
     1
 90
        3
176
     1
 62
     5
420
      255
176
     1
290
     0
176
     1
 90
       50
176
     1
 90
       50
176
     1
 90
       50
176
     1
290
     0
176
     1
 90
       50
176
     1
 62
   256
176
     0
 40
1.0
176
     0
 90
        2
176
     1
  1
strokes_ogs.tif
176
     1
290
     0
176
     1
 40
1.0
176
     1
 40
1.0
176
     1
  0
VISUALSTYLE
  5
66C
102
{ACAD_REACTORS
330
665
102
}
330
665
100
AcDbVisualStyle
  2
Hidden
 70
     6
177
     3
291
     0
 70
    58
 90
        1
176
     1
 90
        2
176
     1
 90
        2
176
     1
 90
        0
176
     1
 40
0.6
176
     1
 40
30.0
176
     1
 62
     7
176
     1
 90
        2
176
     1
 90
        2
176
     1
 62
     7
176
     1
 62
   257
176
     1
 90
        2
176
     1
 90
        1
176
     1
 40
40.0
176
     1
 90
        0
176
     1
 62
   257
176
     1
 40
1.0
176
     1
 90
        1
176
     1
 90
        6
176
     1
 90
        2
176
     1
 62
     7
176
     1
 90
        3
176
     1
 90
        0
176
     1
 90
        0
176
     1
290
     0
176
     1
 90
        1
176
     1
 40
0.0
176
     1
 90
        0
176
     1
290
     0
176
     1
290
     1
176
     1
290
     1
176
     1
290
     0
176
     1
290
     0
176
     1
290
     0
176
     1
290
     0
176
     1
290
     0
176
     1
290
     0
176
     1
 90
       50
176
     1
 40
0.0
176
     1
 40
1.0
176
     1
 90
        0
176
     1
 62
    18
420
        0
176
     1
 90
       50
176
     1
 90
        3
176
     1
 62
     5
420
      255
176
     1
290
     0
176
     1
 90
       50
176
     1
 90
       50
176
     1
 90
       50
176
     1
290
     0
176
     1
 90
       50
176
     1
 62
   256
176
     0
 40
1.0
176
     0
 90
        2
176
     1
  1
strokes_ogs.tif
176
     1
290
     0
176
     1
 40
1.0
176
     1
 40
1.0
176
     1
  0
VISUALSTYLE
  5
676
102
{ACAD_REACTORS
330
665
102
}
330
665
100
AcDbVisualStyle
  2
JitterOff
 70
    20
177
     3
291
     1
 70
    58
 90
        2
176
     1
 90
        2
176
     1
 90
        0
176
     1
 90
        0
176
     1
 40
0.6
176
     1
 40
30.0
176
     1
 62
     7
176
     1
 90
        1
176
     1
 90
        4
176
     1
 62
     7
176
     1
 62
   257
176
     1
 90
        1
176
     1
 90
        1
176
     1
 40
1.0
176
     1
 90
       10
176
     1
 62
     7
176
     1
 40
1.0
176
     1
 90
        1
176
     1
 90
        6
176
     1
 90
        2
176
     1
 62
     7
176
     1
 90
        5
176
     1
 90
        0
176
     1
 90
        0
176
     1
290
     0
176
     1
 90
        1
176
     1
 40
0.0
176
     1
 90
        0
176
     1
290
     0
176
     1
290
     1
176
     1
290
     1
176
     1
290
     0
176
     1
290
     0
176
     1
290
     0
176
     1
290
     0
176
     1
290
     0
176
     1
290
     0
176
     1
 90
       50
176
     1
 40
0.0
176
     1
 40
1.0
176
     1
 90
        0
176
     1
 62
    18
420
        0
176
     1
 90
       50
176
     1
 90
        3
176
     1
 62
     5
420
      255
176
     1
290
     0
176
     1
 90
       50
176
     1
 90
       50
176
     1
 90
       50
176
     1
290
     0
176
     1
 90
       50
176
     1
 62
   256
176
     0
 40
1.0
176
     0
 90
        2
176
     1
  1
strokes_ogs.tif
176
     1
290
     0
176
     1
 40
1.0
176
     1
 40
1.0
176
     1
  0
VISUALSTYLE
  5
673
102
{ACAD_REACTORS
330
665
102
}
330
665
100
AcDbVisualStyle
  2
Linepattern
 70
    14
177
     3
291
     1
 70
    58
 90
        2
176
     1
 90
        2
176
     1
 90
        0
176
     1
 90
        0
176
     1
 40
0.6
176
     1
 40
30.0
176
     1
 62
     7
176
     1
 90
        1
176
     1
 90
        4
176
     1
 62
     7
176
     1
 62
   257
176
     1
 90
        7
176
     1
 90
        7
176
     1
 40
1.0
176
     1
 90
        8
176
     1
 62
     7
176
     1
 40
1.0
176
     1
 90
        1
176
     1
 90
        6
176
     1
 90
        2
176
     1
 62
     7
176
     1
 90
        5
176
     1
 90
        0
176
     1
 90
        0
176
     1
290
     0
176
     1
 90
        1
176
     1
 40
0.0
176
     1
 90
        0
176
     1
290
     0
176
     1
290
     1
176
     1
290
     1
176
     1
290
     0
176
     1
290
     0
176
     1
290
     0
176
     1
290
     0
176
     1
290
     0
176
     1
290
     0
176
     1
 90
       50
176
     1
 40
0.0
176
     1
 40
1.0
176
     1
 90
        0
176
     1
 62
    18
420
        0
176
     1
 90
       50
176
     1
 90
        3
176
     1
 62
     5
420
      255
176
     1
290
     0
176
     1
 90
       50
176
     1
 90
       50
176
     1
 90
       50
176
     1
290
     0
176
     1
 90
       50
176
     1
 62
   256
176
     0
 40
1.0
176
     0
 90
        2
176
     1
  1
strokes_ogs.tif
176
     1
290
     0
176
     1
 40
1.0
176
     1
 40
1.0
176
     1
  0
VISUALSTYLE
  5
686
102
{ACAD_REACTORS
330
665
102
}
330
665
100
AcDbVisualStyle
  2

 70
    10
177
     3
291
     0
 70
    58
 90
        2
176
     1
 90
        3
176
     1
 90
        0
176
     1
 90
        2
176
     1
 40
0.6
176
     1
 40
30.0
176
     1
 62
     7
176
     1
 90
        2
176
     1
 90
        0
176
     1
 62
     7
176
     1
 62
   257
176
     1
 90
        1
176
     1
 90
        1
176
     1
 40
180.0
176
     1
 90
        8
176
     1
 62
     8
176
     1
 40
1.0
176
     1
 90
        1
176
     1
 90
        6
176
     1
 90
        2
176
     1
 62
     7
176
     1
 90
        5
176
     1
 90
        0
176
     1
 90
        0
176
     1
290
     0
176
     1
 90
       13
176
     1
 40
0.0
176
     1
 90
        0
176
     1
290
     0
176
     1
290
     1
176
     1
290
     1
176
     1
290
     0
176
     1
290
     0
176
     1
290
     0
176
     1
290
     0
176
     1
290
     0
176
     1
290
     0
176
     1
 90
       50
176
     1
 40
0.0
176
     1
 40
1.0
176
     1
 90
        0
176
     1
 62
    18
420
        0
176
     1
 90
       50
176
     1
 90
        3
176
     1
 62
     5
420
      255
176
     1
290
     0
176
     1
 90
       50
176
     1
 90
       50
176
     1
 90
       50
176
     1
290
     0
176
     1
 90
       50
176
     1
 62
   256
176
     0
 40
1.0
176
     0
 90
        2
176
     1
  1
strokes_ogs.tif
176
     1
290
     0
176
     1
 40
1.0
176
     1
 40
1.0
176
     1
  0
VISUALSTYLE
  5
677
102
{ACAD_REACTORS
330
665
102
}
330
665
100
AcDbVisualStyle
  2
OverhangOff
 70
    21
177
     3
291
     1
 70
    58
 90
        2
176
     1
 90
        2
176
     1
 90
        0
176
     1
 90
        0
176
     1
 40
0.6
176
     1
 40
30.0
176
     1
 62
     7
176
     1
 90
        1
176
     1
 90
        4
176
     1
 62
     7
176
     1
 62
   257
176
     1
 90
        1
176
     1
 90
        1
176
     1
 40
1.0
176
     1
 90
        9
176
     1
 62
     7
176
     1
 40
1.0
176
     1
 90
        1
176
     1
 90
        6
176
     1
 90
        2
176
     1
 62
     7
176
     1
 90
        5
176
     1
 90
        0
176
     1
 90
        0
176
     1
290
     0
176
     1
 90
        1
176
     1
 40
0.0
176
     1
 90
        0
176
     1
290
     0
176
     1
290
     1
176
     1
290
     1
176
     1
290
     0
176
     1
290
     0
176
     1
290
     0
176
     1
290
     0
176
     1
290
     0
176
     1
290
     0
176
     1
 90
       50
176
     1
 40
0.0
176
     1
 40
1.0
176
     1
 90
        0
176
     1
 62
    18
420
        0
176
     1
 90
       50
176
     1
 90
        3
176
     1
 62
     5
420
      255
176
     1
290
     0
176
     1
 90
       50
176
     1
 90
       50
176
     1
 90
       50
176
     1
290
     0
176
     1
 90
       50
176
     1
 62
   256
176
     0
 40
1.0
176
     0
 90
        2
176
     1
  1
strokes_ogs.tif
176
     1
290
     0
176
     1
 40
1.0
176
     1
 40
1.0
176
     1
  0
VISUALSTYLE
  5
66E
102
{ACAD_REACTORS
330
665
102
}
330
665
100
AcDbVisualStyle
  2
Realistic
 70
     8
177
     3
291
     0
 70
    58
 90
        2
176
     1
 90
        3
176
     1
 90
        0
176
     1
 90
        2
176
     1
 40
0.6
176
     1
 40
30.0
176
     1
 62
     7
176
     1
 90
        0
176
     1
 90
        0
176
     1
 62
     7
176
     1
 62
   257
176
     1
 90
        1
176
     1
 90
        1
176
     1
 40
1.0
176
     1
 90
        8
176
     1
 62
   257
176
     1
 40
1.0
176
     1
 90
        1
176
     1
 90
        6
176
     1
 90
        2
176
     1
 62
     7
176
     1
 90
        3
176
     1
 90
        0
176
     1
 90
        0
176
     1
290
     0
176
     1
 90
       13
176
     1
 40
0.0
176
     1
 90
        0
176
     1
290
     0
176
     1
290
     1
176
     1
290
     1
176
     1
290
     0
176
     1
290
     0
176
     1
290
     0
176
     1
290
     0
176
     1
290
     0
176
     1
290
     0
176
     1
 90
       50
176
     1
 40
0.0
176
     1
 40
1.0
176
     1
 90
        0
176
     1
 62
    18
420
        0
176
     1
 90
       50
176
     1
 90
        3
176
     1
 62
     5
420
      255
176
     1
290
     0
176
     1
 90
       50
176
     1
 90
       50
176
     1
 90
       50
176
     1
290
     0
176
     1
 90
       50
176
     1
 62
   256
176
     0
 40
1.0
176
     0
 90
        2
176
     1
  1
strokes_ogs.tif
176
     1
290
     0
176
     1
 40
1.0
176
     1
 40
1.0
176
     1
  0
VISUALSTYLE
  5
67D
102
{ACAD_REACTORS
330
665
102
}
330
665
100
AcDbVisualStyle
  2
Shaded
 70
    27
177
     3
291
     0
 70
    58
 90
        2
176
     1
 90
        2
176
     1
 90
        1
176
     1
 90
        2
176
     1
 40
0.6
176
     1
 40
30.0
176
     1
 62
     7
176
     1
 90
        0
176
     1
 90
        4
176
     1
 62
     7
176
     1
 62
   257
176
     1
 90
        1
176
     1
 90
        1
176
     1
 40
1.0
176
     1
 90
        8
176
     1
 62
   257
176
     1
 40
1.0
176
     1
 90
        1
176
     1
 90
        6
176
     1
 90
        2
176
     1
 62
     8
176
     1
 90
        3
176
     1
 90
        0
176
     1
 90
        0
176
     1
290
     0
176
     1
 90
        5
176
     1
 40
0.0
176
     1
 90
        0
176
     1
290
     0
176
     1
290
     1
176
     1
290
     1
176
     1
290
     0
176
     1
290
     0
176
     1
290
     0
176
     1
290
     0
176
     1
290
     0
176
     1
290
     0
176
     1
 90
       50
176
     1
 40
0.0
176
     1
 40
1.0
176
     1
 90
        0
176
     1
 62
    18
420
        0
176
     1
 90
       50
176
     1
 90
        3
176
     1
 62
     5
420
      255
176
     1
290
     0
176
     1
 90
       50
176
     1
 90
       50
176
     1
 90
       50
176
     1
290
     0
176
     1
 90
       50
176
     1
 62
   256
176
     0
 40
1.0
176
     0
 90
        2
176
     1
  1
strokes_ogs.tif
176
     1
290
     0
176
     1
 40
1.0
176
     1
 40
1.0
176
     1
  0
VISUALSTYLE
  5
67C
102
{ACAD_REACTORS
330
665
102
}
330
665
100
AcDbVisualStyle
  2
Shaded with edges
 70
    26
177
     3
291
     0
 70
    58
 90
        2
176
     1
 90
        2
176
     1
 90
        1
176
     1
 90
        2
176
     1
 40
0.6
176
     1
 40
30.0
176
     1
 62
     7
176
     1
 90
        1
176
     1
 90
       10
176
     1
 62
     7
176
     1
 62
   257
176
     1
 90
        2
176
     1
 90
        1
176
     1
 40
1.0
176
     1
 90
        8
176
     1
 62
   257
176
     1
 40
1.0
176
     1
 90
        1
176
     1
 90
        6
176
     1
 90
        2
176
     1
 62
     7
176
     1
 90
        3
176
     1
 90
        0
176
     1
 90
        0
176
     1
290
     0
176
     1
 90
        5
176
     1
 40
0.0
176
     1
 90
        0
176
     1
290
     0
176
     1
290
     1
176
     1
290
     1
176
     1
290
     0
176
     1
290
     0
176
     1
290
     0
176
     1
290
     0
176
     1
290
     0
176
     1
290
     0
176
     1
 90
       50
176
     1
 40
0.0
176
     1
 40
1.0
176
     1
 90
        0
176
     1
 62
    18
420
        0
176
     1
 90
       50
176
     1
 90
        3
176
     1
 62
     5
420
      255
176
     1
290
     0
176
     1
 90
       50
176
     1
 90
       50
176
     1
 90
       50
176
     1
290
     0
176
     1
 90
       50
176
     1
 62
   256
176
     0
 40
1.0
176
     0
 90
        2
176
     1
  1
strokes_ogs.tif
176
     1
290
     0
176
     1
 40
1.0
176
     1
 40
1.0
176
     1
  0
VISUALSTYLE
  5
679
102
{ACAD_REACTORS
330
665
102
}
330
665
100
AcDbVisualStyle
  2
Shades of Gray
 70
    23
177
     3
291
     0
 70
    58
 90
        2
176
     1
 90
        2
176
     1
 90
        3
176
     1
 90
        0
176
     1
 40
0.6
176
     1
 40
30.0
176
     1
 62
     7
176
     1
 90
        2
176
     1
 90
        2
176
     1
 62
     7
176
     1
 62
     7
176
     1
 90
        1
176
     1
 90
        1
176
     1
 40
40.0
176
     1
 90
        8
176
     1
 62
     7
176
     1
 40
1.0
176
     1
 90
        1
176
     1
 90
        6
176
     1
 90
        2
176
     1
 62
     7
176
     1
 90
        3
176
     1
 90
        0
176
     1
 90
        0
176
     1
290
     0
176
     1
 90
        1
176
     1
 40
0.0
176
     1
 90
        0
176
     1
290
     0
176
     1
290
     1
176
     1
290
     1
176
     1
290
     0
176
     1
290
     0
176
     1
290
     0
176
     1
290
     0
176
     1
290
     0
176
     1
290
     0
176
     1
 90
       50
176
     1
 40
0.0
176
     1
 40
1.0
176
     1
 90
        0
176
     1
 62
    18
420
        0
176
     1
 90
       50
176
     1
 90
        3
176
     1
 62
     5
420
      255
176
     1
290
     0
176
     1
 90
       50
176
     1
 90
       50
176
     1
 90
       50
176
     1
290
     0
176
     1
 90
       50
176
     1
 62
   256
176
     0
 40
1.0
176
     0
 90
        2
176
     1
  1
strokes_ogs.tif
176
     1
290
     0
176
     1
 40
1.0
176
     1
 40
1.0
176
     1
  0
VISUALSTYLE
  5
67A
102
{ACAD_REACTORS
330
665
102
}
330
665
100
AcDbVisualStyle
  2
Sketchy
 70
    24
177
     3
291
     0
 70
    58
 90
        1
176
     1
 90
        2
176
     1
 90
        2
176
     1
 90
        0
176
     1
 40
0.6
176
     1
 40
30.0
176
     1
 62
     7
176
     1
 90
        2
176
     1
 90
        2
176
     1
 62
     7
176
     1
 62
     7
176
     1
 90
        1
176
     1
 90
        1
176
     1
 40
40.0
176
     1
 90
       11
176
     1
 62
     7
176
     1
 40
1.0
176
     1
 90
        1
176
     1
 90
        6
176
     1
 90
        2
176
     1
 62
     7
176
     1
 90
        6
176
     1
 90
        0
176
     1
 90
        0
176
     1
290
     0
176
     1
 90
        1
176
     1
 40
0.0
176
     1
 90
        0
176
     1
290
     0
176
     1
290
     1
176
     1
290
     1
176
     1
290
     0
176
     1
290
     0
176
     1
290
     0
176
     1
290
     0
176
     1
290
     0
176
     1
290
     0
176
     1
 90
       50
176
     1
 40
0.0
176
     1
 40
1.0
176
     1
 90
        0
176
     1
 62
    18
420
        0
176
     1
 90
       50
176
     1
 90
        3
176
     1
 62
     5
420
      255
176
     1
290
     0
176
     1
 90
       50
176
     1
 90
       50
176
     1
 90
       50
176
     1
290
     0
176
     1
 90
       50
176
     1
 62
   256
176
     0
 40
1.0
176
     0
 90
        2
176
     1
  1
strokes_ogs.tif
176
     1
290
     0
176
     1
 40
1.0
176
     1
 40
1.0
176
     1
  0
VISUALSTYLE
  5
672
102
{ACAD_REACTORS
330
665
102
}
330
665
100
AcDbVisualStyle
  2
Thicken
 70
    13
177
     3
291
     1
 70
    58
 90
        2
176
     1
 90
        2
176
     1
 90
        0
176
     1
 90
        0
176
     1
 40
0.6
176
     1
 40
30.0
176
     1
 62
     7
176
     1
 90
        1
176
     1
 90
        4
176
     1
 62
     7
176
     1
 62
   257
176
     1
 90
        1
176
     1
 90
        1
176
     1
 40
1.0
176
     1
 90
       12
176
     1
 62
     7
176
     1
 40
1.0
176
     1
 90
        1
176
     1
 90
        6
176
     1
 90
        2
176
     1
 62
     7
176
     1
 90
        5
176
     1
 90
        0
176
     1
 90
        0
176
     1
290
     0
176
     1
 90
        1
176
     1
 40
0.0
176
     1
 90
        0
176
     1
290
     0
176
     1
290
     1
176
     1
290
     1
176
     1
290
     0
176
     1
290
     0
176
     1
290
     0
176
     1
290
     0
176
     1
290
     0
176
     1
290
     0
176
     1
 90
       50
176
     1
 40
0.0
176
     1
 40
1.0
176
     1
 90
        0
176
     1
 62
    18
420
        0
176
     1
 90
       50
176
     1
 90
        3
176
     1
 62
     5
420
      255
176
     1
290
     0
176
     1
 90
       50
176
     1
 90
       50
176
     1
 90
       50
176
     1
290
     0
176
     1
 90
       50
176
     1
 62
   256
176
     0
 40
1.0
176
     0
 90
        2
176
     1
  1
strokes_ogs.tif
176
     1
290
     0
176
     1
 40
1.0
176
     1
 40
1.0
176
     1
  0
VISUALSTYLE
  5
66B
102
{ACAD_REACTORS
330
665
102
}
330
665
100
AcDbVisualStyle
  2
Wireframe
 70
     5
177
     3
291
     0
 70
    58
 90
        0
176
     1
 90
        2
176
     1
 90
        0
176
     1
 90
        0
176
     1
 40
0.6
176
     1
 40
30.0
176
     1
 62
     7
176
     1
 90
        1
176
     1
 90
        4
176
     1
 62
     7
176
     1
 62
   257
176
     1
 90
        1
176
     1
 90
        1
176
     1
 40
1.0
176
     1
 90
        0
176
     1
 62
   257
176
     1
 40
1.0
176
     1
 90
        1
176
     1
 90
        6
176
     1
 90
        2
176
     1
 62
     7
176
     1
 90
        3
176
     1
 90
        0
176
     1
 90
        0
176
     1
290
     0
176
     1
 90
        1
176
     1
 40
0.0
176
     1
 90
        0
176
     1
290
     0
176
     1
290
     1
176
     1
290
     1
176
     1
290
     0
176
     1
290
     0
176
     1
290
     0
176
     1
290
     0
176
     1
290
     0
176
     1
290
     0
176
     1
 90
       50
176
     1
 40
0.0
176
     1
 40
1.0
176
     1
 90
        0
176
     1
 62
    18
420
        0
176
     1
 90
       50
176
     1
 90
        3
176
     1
 62
     5
420
      255
176
     1
290
     0
176
     1
 90
       50
176
     1
 90
       50
176
     1
 90
       50
176
     1
290
     0
176
     1
 90
       50
176
     1
 62
   256
176
     0
 40
1.0
176
     0
 90
        2
176
     1
  1
strokes_ogs.tif
176
     1
290
     0
176
     1
 40
1.0
176
     1
 40
1.0
176
     1
  0
VISUALSTYLE
  5
67B
102
{ACAD_REACTORS
330
665
102
}
330
665
100
AcDbVisualStyle
  2
X-Ray
 70
    25
177
     3
291
     0
 70
    58
 90
        2
176
     1
 90
        2
176
     1
 90
        1
176
     1
 90
        1
176
     1
 40
0.5
176
     1
 40
30.0
176
     1
 62
     7
176
     1
 90
        1
176
     1
 90
        0
176
     1
 62
     7
176
     1
 62
   257
176
     1
 90
        1
176
     1
 90
        1
176
     1
 40
1.0
176
     1
 90
        8
176
     1
 62
     7
176
     1
 40
1.0
176
     1
 90
        1
176
     1
 90
        6
176
     1
 90
        2
176
     1
 62
     7
176
     1
 90
        3
176
     1
 90
        0
176
     1
 90
        0
176
     1
290
     0
176
     1
 90
       13
176
     1
 40
0.0
176
     1
 90
        0
176
     1
290
     0
176
     1
290
     1
176
     1
290
     1
176
     1
290
     0
176
     1
290
     0
176
     1
290
     0
176
     1
290
     0
176
     1
290
     0
176
     1
290
     0
176
     1
 90
       50
176
     1
 40
0.0
176
     1
 40
1.0
176
     1
 90
        0
176
     1
 62
    18
420
        0
176
     1
 90
       50
176
     1
 90
        3
176
     1
 62
     5
420
      255
176
     1
290
     0
176
     1
 90
       50
176
     1
 90
       50
176
     1
 90
       50
176
     1
290
     0
176
     1
 90
       50
176
     1
 62
   256
176
     0
 40
1.0
176
     0
 90
        2
176
     1
  1
strokes_ogs.tif
176
     1
290
     0
176
     1
 40
1.0
176
     1
 40
1.0
176
     1
  0
DICTIONARYVAR
  5
1023
102
{ACAD_REACTORS
330
688
102
}
330
688
100
DictionaryVariables
280
     0
  1
1:1
  0
DICTIONARYVAR
  5
68B
102
{ACAD_REACTORS
330
688
102
}
330
688
100
DictionaryVariables
280
     0
  1
Standard
  0
DICTIONARYVAR
  5
68A
102
{ACAD_REACTORS
330
688
102
}
330
688
100
DictionaryVariables
280
     0
  1
Standard
  0
DICTIONARYVAR
  5
C68
102
{ACAD_REACTORS
330
688
102
}
330
688
100
DictionaryVariables
280
     0
  1
2
  0
DICTIONARYVAR
  5
C69
102
{ACAD_REACTORS
330
688
102
}
330
688
100
DictionaryVariables
280
     0
  1
1
  0
DICTIONARYVAR
  5
68C
102
{ACAD_REACTORS
330
688
102
}
330
688
100
DictionaryVariables
280
     0
  1
0
  0
DICTIONARY
  5
DB8
102
{ACAD_REACTORS
330
DB7
102
}
330
DB7
100
AcDbDictionary
281
     1
  0
DICTIONARY
  5
DBC
102
{ACAD_REACTORS
330
DBB
102
}
330
DBB
100
AcDbDictionary
281
     1
  0
DICTIONARY
  5
DC1
102
{ACAD_REACTORS
330
DC0
102
}
330
DC0
100
AcDbDictionary
281
     1
  0
DICTIONARY
  5
EF2
102
{ACAD_REACTORS
330
EF1
102
}
330
EF1
100
AcDbDictionary
281
     1
  0
DICTIONARY
  5
1026
330
683
100
AcDbDictionary
280
     1
281
     1
  3
ACAD_ROUNDTRIP_2008_TABLESTYLE_CELLSTYLEMAP
360
1027
  0
CELLSTYLEMAP
  5
1027
102
{ACAD_REACTORS
330
1026
102
}
330
1026
100
AcDbCellStyleMap
 90
        3
300
CELLSTYLE
  1
TABLEFORMAT_BEGIN
 90
        5
170
     1
 91
        0
 92
    32768
 62
   257
 93
        1
300
CONTENTFORMAT
  1
CONTENTFORMAT_BEGIN
 90
        0
 91
        0
 92
        4
 93
        0
300

 40
0.0
140
1.0
 94
        5
 62
     0
340
11
144
0.25
309
CONTENTFORMAT_END
171
     1
301
MARGIN
  1
CELLMARGIN_BEGIN
 40
0.06
 40
0.06
 40
0.06
 40
0.06
 40
0.06
 40
0.06
309
CELLMARGIN_END
 94
        6
 95
        1
302
GRIDFORMAT
  1
GRIDFORMAT_BEGIN
 90
        0
 91
        1
 62
     0
 92
       -2
340
14
 93
        0
 40
0.045
309
GRIDFORMAT_END
 95
        2
302
GRIDFORMAT
  1
GRIDFORMAT_BEGIN
 90
        0
 91
        1
 62
     0
 92
       -2
340
14
 93
        0
 40
0.045
309
GRIDFORMAT_END
 95
        4
302
GRIDFORMAT
  1
GRIDFORMAT_BEGIN
 90
        0
 91
        1
 62
     0
 92
       -2
340
14
 93
        0
 40
0.045
309
GRIDFORMAT_END
 95
        8
302
GRIDFORMAT
  1
GRIDFORMAT_BEGIN
 90
        0
 91
        1
 62
     0
 92
       -2
340
14
 93
        0
 40
0.045
309
GRIDFORMAT_END
 95
       16
302
GRIDFORMAT
  1
GRIDFORMAT_BEGIN
 90
        0
 91
        1
 62
     0
 92
       -2
340
14
 93
        0
 40
0.045
309
GRIDFORMAT_END
 95
       32
302
GRIDFORMAT
  1
GRIDFORMAT_BEGIN
 90
        0
 91
        1
 62
     0
 92
       -2
340
14
 93
        0
 40
0.045
309
GRIDFORMAT_END
309
TABLEFORMAT_END
  1
CELLSTYLE_BEGIN
 90
        1
 91
        1
300
_TITLE
309
CELLSTYLE_END
300
CELLSTYLE
  1
TABLEFORMAT_BEGIN
 90
        5
170
     1
 91
        0
 92
        0
 62
   257
 93
        1
300
CONTENTFORMAT
  1
CONTENTFORMAT_BEGIN
 90
        0
 91
        0
 92
        4
 93
        0
300

 40
0.0
140
1.0
 94
        5
 62
     0
340
11
144
0.18
309
CONTENTFORMAT_END
171
     1
301
MARGIN
  1
CELLMARGIN_BEGIN
 40
0.06
 40
0.06
 40
0.06
 40
0.06
 40
0.06
 40
0.06
309
CELLMARGIN_END
 94
        6
 95
        1
302
GRIDFORMAT
  1
GRIDFORMAT_BEGIN
 90
        0
 91
        1
 62
     0
 92
       -2
340
14
 93
        0
 40
0.045
309
GRIDFORMAT_END
 95
        2
302
GRIDFORMAT
  1
GRIDFORMAT_BEGIN
 90
        0
 91
        1
 62
     0
 92
       -2
340
14
 93
        0
 40
0.045
309
GRIDFORMAT_END
 95
        4
302
GRIDFORMAT
  1
GRIDFORMAT_BEGIN
 90
        0
 91
        1
 62
     0
 92
       -2
340
14
 93
        0
 40
0.045
309
GRIDFORMAT_END
 95
        8
302
GRIDFORMAT
  1
GRIDFORMAT_BEGIN
 90
        0
 91
        1
 62
     0
 92
       -2
340
14
 93
        0
 40
0.045
309
GRIDFORMAT_END
 95
       16
302
GRIDFORMAT
  1
GRIDFORMAT_BEGIN
 90
        0
 91
        1
 62
     0
 92
       -2
340
14
 93
        0
 40
0.045
309
GRIDFORMAT_END
 95
       32
302
GRIDFORMAT
  1
GRIDFORMAT_BEGIN
 90
        0
 91
        1
 62
     0
 92
       -2
340
14
 93
        0
 40
0.045
309
GRIDFORMAT_END
309
TABLEFORMAT_END
  1
CELLSTYLE_BEGIN
 90
        2
 91
        1
300
_HEADER
309
CELLSTYLE_END
300
CELLSTYLE
  1
TABLEFORMAT_BEGIN
 90
        5
170
     1
 91
        0
 92
        0
 62
   257
 93
        1
300
CONTENTFORMAT
  1
CONTENTFORMAT_BEGIN
 90
        0
 91
        0
 92
        4
 93
        0
300

 40
0.0
140
1.0
 94
        2
 62
     0
340
11
144
0.18
309
CONTENTFORMAT_END
171
     1
301
MARGIN
  1
CELLMARGIN_BEGIN
 40
0.06
 40
0.06
 40
0.06
 40
0.06
 40
0.06
 40
0.06
309
CELLMARGIN_END
 94
        6
 95
        1
302
GRIDFORMAT
  1
GRIDFORMAT_BEGIN
 90
        0
 91
        1
 62
     0
 92
       -2
340
14
 93
        0
 40
0.045
309
GRIDFORMAT_END
 95
        2
302
GRIDFORMAT
  1
GRIDFORMAT_BEGIN
 90
        0
 91
        1
 62
     0
 92
       -2
340
14
 93
        0
 40
0.045
309
GRIDFORMAT_END
 95
        4
302
GRIDFORMAT
  1
GRIDFORMAT_BEGIN
 90
        0
 91
        1
 62
     0
 92
       -2
340
14
 93
        0
 40
0.045
309
GRIDFORMAT_END
 95
        8
302
GRIDFORMAT
  1
GRIDFORMAT_BEGIN
 90
        0
 91
        1
 62
     0
 92
       -2
340
14
 93
        0
 40
0.045
309
GRIDFORMAT_END
 95
       16
302
GRIDFORMAT
  1
GRIDFORMAT_BEGIN
 90
        0
 91
        1
 62
     0
 92
       -2
340
14
 93
        0
 40
0.045
309
GRIDFORMAT_END
 95
       32
302
GRIDFORMAT
  1
GRIDFORMAT_BEGIN
 90
        0
 91
        1
 62
     0
 92
       -2
340
14
 93
        0
 40
0.045
309
GRIDFORMAT_END
309
TABLEFORMAT_END
  1
CELLSTYLE_BEGIN
 90
        3
 91
        2
300
_DATA
309
CELLSTYLE_END
  0
ENDSEC
  0
EOF
