  0
SECTION
  2
HEADER
  9
$ACADVER
  1
AC1027
  9
$ACADMAINTVER
 70
     8
  9
$DWGCODEPAGE
  3
ANSI_932
  9
$REQUIREDVERSIONS
160
                 0
  9
$LASTSAVEDBY
  1
megumi.kubo
  9
$INSBASE
 10
0.0
 20
0.0
 30
0.0
  9
$EXTMIN
 10
-9.349138797568
 20
20.819404
 30
0.0
  9
$EXTMAX
 10
572.80031
 20
407.682269919985
 30
0.0
  9
$LIMMIN
 10
0.0
 20
0.0
  9
$LIMMAX
 10
559.0
 20
400.0
  9
$ORTHOMODE
 70
     0
  9
$REGENMODE
 70
     1
  9
$FILLMODE
 70
     1
  9
$QTEXTMODE
 70
     0
  9
$MIRRTEXT
 70
     1
  9
$LTSCALE
 40
15.0
  9
$ATTMODE
 70
     1
  9
$TEXTSIZE
 40
4.0
  9
$TRACEWID
 40
0.05
  9
$TEXTSTYLE
  7
Standard
  9
$CLAYER
  8
CSLAYER10
  9
$CELTYPE
  6
ByLayer
  9
$CECOLOR
 62
   256
  9
$CELTSCALE
 40
1.0
  9
$DISPSILH
 70
     0
  9
$DIMSCALE
 40
1.0
  9
$DIMASZ
 40
0.18
  9
$DIMEXO
 40
0.0625
  9
$DIMDLI
 40
0.38
  9
$DIMRND
 40
0.0
  9
$DIMDLE
 40
0.0
  9
$DIMEXE
 40
0.18
  9
$DIMTP
 40
0.0
  9
$DIMTM
 40
0.0
  9
$DIMTXT
 40
0.18
  9
$DIMCEN
 40
0.09
  9
$DIMTSZ
 40
0.0
  9
$DIMTOL
 70
     0
  9
$DIMLIM
 70
     0
  9
$DIMTIH
 70
     1
  9
$DIMTOH
 70
     1
  9
$DIMSE1
 70
     0
  9
$DIMSE2
 70
     0
  9
$DIMTAD
 70
     0
  9
$DIMZIN
 70
     0
  9
$DIMBLK
  1

  9
$DIMASO
 70
     1
  9
$DIMSHO
 70
     1
  9
$DIMPOST
  1

  9
$DIMAPOST
  1

  9
$DIMALT
 70
     0
  9
$DIMALTD
 70
     2
  9
$DIMALTF
 40
25.4
  9
$DIMLFAC
 40
1.0
  9
$DIMTOFL
 70
     0
  9
$DIMTVP
 40
0.0
  9
$DIMTIX
 70
     0
  9
$DIMSOXD
 70
     0
  9
$DIMSAH
 70
     0
  9
$DIMBLK1
  1

  9
$DIMBLK2
  1

  9
$DIMSTYLE
  2
Standard
  9
$DIMCLRD
 70
     0
  9
$DIMCLRE
 70
     0
  9
$DIMCLRT
 70
     0
  9
$DIMTFAC
 40
1.0
  9
$DIMGAP
 40
0.09
  9
$DIMJUST
 70
     0
  9
$DIMSD1
 70
     0
  9
$DIMSD2
 70
     0
  9
$DIMTOLJ
 70
     1
  9
$DIMTZIN
 70
     0
  9
$DIMALTZ
 70
     0
  9
$DIMALTTZ
 70
     0
  9
$DIMUPT
 70
     0
  9
$DIMDEC
 70
     4
  9
$DIMTDEC
 70
     4
  9
$DIMALTU
 70
     2
  9
$DIMALTTD
 70
     2
  9
$DIMTXSTY
  7
Standard
  9
$DIMAUNIT
 70
     0
  9
$DIMADEC
 70
     0
  9
$DIMALTRND
 40
0.0
  9
$DIMAZIN
 70
     0
  9
$DIMDSEP
 70
    46
  9
$DIMATFIT
 70
     3
  9
$DIMFRAC
 70
     0
  9
$DIMLDRBLK
  1

  9
$DIMLUNIT
 70
     2
  9
$DIMLWD
 70
    -2
  9
$DIMLWE
 70
    -2
  9
$DIMTMOVE
 70
     2
  9
$DIMFXL
 40
1.0
  9
$DIMFXLON
 70
     0
  9
$DIMJOGANG
 40
0.785398163397
  9
$DIMTFILL
 70
     0
  9
$DIMTFILLCLR
 70
     0
  9
$DIMARCSYM
 70
     0
  9
$DIMLTYPE
  6

  9
$DIMLTEX1
  6

  9
$DIMLTEX2
  6

  9
$DIMTXTDIRECTION
 70
     0
  9
$LUNITS
 70
     2
  9
$LUPREC
 70
     4
  9
$SKETCHINC
 40
0.1
  9
$FILLETRAD
 40
0.3
  9
$AUNITS
 70
     0
  9
$AUPREC
 70
     0
  9
$MENU
  1
ACAD
  9
$ELEVATION
 40
0.0
  9
$PELEVATION
 40
0.0
  9
$THICKNESS
 40
0.0
  9
$LIMCHECK
 70
     0
  9
$CHAMFERA
 40
0.0
  9
$CHAMFERB
 40
0.0
  9
$CHAMFERC
 40
0.0
  9
$CHAMFERD
 40
0.0
  9
$SKPOLY
 70
     0
  9
$TDCREATE
 40
2451928.0
  9
$TDUCREATE
 40
2451927.625
  9
$TDUPDATE
 40
2457875.582305497
  9
$TDUUPDATE
 40
2457875.207305497
  9
$TDINDWG
 40
0.2101703125
  9
$TDUSRTIMER
 40
0.2101703125
  9
$USRTIMER
 70
     1
  9
$ANGBASE
 50
0.0
  9
$ANGDIR
 70
     0
  9
$PDMODE
 70
     0
  9
$PDSIZE
 40
0.0
  9
$PLINEWID
 40
0.0
  9
$SPLFRAME
 70
     0
  9
$SPLINETYPE
 70
     6
  9
$SPLINESEGS
 70
     8
  9
$HANDSEED
  5
16D3
  9
$SURFTAB1
 70
     6
  9
$SURFTAB2
 70
     6
  9
$SURFTYPE
 70
     6
  9
$SURFU
 70
     6
  9
$SURFV
 70
     6
  9
$UCSBASE
  2

  9
$UCSNAME
  2

  9
$UCSORG
 10
0.0
 20
0.0
 30
0.0
  9
$UCSXDIR
 10
1.0
 20
0.0
 30
0.0
  9
$UCSYDIR
 10
0.0
 20
1.0
 30
0.0
  9
$UCSORTHOREF
  2

  9
$UCSORTHOVIEW
 70
     0
  9
$UCSORGTOP
 10
0.0
 20
0.0
 30
0.0
  9
$UCSORGBOTTOM
 10
0.0
 20
0.0
 30
0.0
  9
$UCSORGLEFT
 10
0.0
 20
0.0
 30
0.0
  9
$UCSORGRIGHT
 10
0.0
 20
0.0
 30
0.0
  9
$UCSORGFRONT
 10
0.0
 20
0.0
 30
0.0
  9
$UCSORGBACK
 10
0.0
 20
0.0
 30
0.0
  9
$PUCSBASE
  2

  9
$PUCSNAME
  2

  9
$PUCSORG
 10
0.0
 20
0.0
 30
0.0
  9
$PUCSXDIR
 10
1.0
 20
0.0
 30
0.0
  9
$PUCSYDIR
 10
0.0
 20
1.0
 30
0.0
  9
$PUCSORTHOREF
  2

  9
$PUCSORTHOVIEW
 70
     0
  9
$PUCSORGTOP
 10
0.0
 20
0.0
 30
0.0
  9
$PUCSORGBOTTOM
 10
0.0
 20
0.0
 30
0.0
  9
$PUCSORGLEFT
 10
0.0
 20
0.0
 30
0.0
  9
$PUCSORGRIGHT
 10
0.0
 20
0.0
 30
0.0
  9
$PUCSORGFRONT
 10
0.0
 20
0.0
 30
0.0
  9
$PUCSORGBACK
 10
0.0
 20
0.0
 30
0.0
  9
$USERI1
 70
     0
  9
$USERI2
 70
     0
  9
$USERI3
 70
     0
  9
$USERI4
 70
     0
  9
$USERI5
 70
     0
  9
$USERR1
 40
0.0
  9
$USERR2
 40
0.0
  9
$USERR3
 40
0.0
  9
$USERR4
 40
0.0
  9
$USERR5
 40
0.0
  9
$WORLDVIEW
 70
     1
  9
$SHADEDGE
 70
     3
  9
$SHADEDIF
 70
    70
  9
$TILEMODE
 70
     1
  9
$MAXACTVP
 70
    64
  9
$PINSBASE
 10
0.0
 20
0.0
 30
0.0
  9
$PLIMCHECK
 70
     0
  9
$PEXTMIN
 10
1.000000000000E+20
 20
1.000000000000E+20
 30
1.000000000000E+20
  9
$PEXTMAX
 10
-1.000000000000E+20
 20
-1.000000000000E+20
 30
-1.000000000000E+20
  9
$PLIMMIN
 10
0.0
 20
0.0
  9
$PLIMMAX
 10
12.0
 20
9.0
  9
$UNITMODE
 70
     0
  9
$VISRETAIN
 70
     1
  9
$PLINEGEN
 70
     0
  9
$PSLTSCALE
 70
     1
  9
$TREEDEPTH
 70
  3020
  9
$CMLSTYLE
  2
Standard
  9
$CMLJUST
 70
     0
  9
$CMLSCALE
 40
1.0
  9
$PROXYGRAPHICS
 70
     1
  9
$MEASUREMENT
 70
     0
  9
$CELWEIGHT
370
    -1
  9
$ENDCAPS
280
     0
  9
$JOINSTYLE
280
     0
  9
$LWDISPLAY
290
     0
  9
$INSUNITS
 70
     0
  9
$HYPERLINKBASE
  1

  9
$STYLESHEET
  1

  9
$XEDIT
290
     1
  9
$CEPSNTYPE
380
     0
  9
$PSTYLEMODE
290
     1
  9
$FINGERPRINTGUID
  2
{69791843-0CE8-4355-BE1C-2B3D2EFCA15A}
  9
$VERSIONGUID
  2
{FAEB1C32-E019-11D5-929B-00C0DF256EC4}
  9
$EXTNAMES
290
     1
  9
$PSVPSCALE
 40
0.0
  9
$OLESTARTUP
290
     0
  9
$SORTENTS
280
   127
  9
$INDEXCTL
280
     0
  9
$HIDETEXT
280
     1
  9
$XCLIPFRAME
280
     2
  9
$HALOGAP
280
     0
  9
$OBSCOLOR
 70
   257
  9
$OBSLTYPE
280
     0
  9
$INTERSECTIONDISPLAY
280
     0
  9
$INTERSECTIONCOLOR
 70
   257
  9
$DIMASSOC
280
     2
  9
$PROJECTNAME
  1

  9
$CAMERADISPLAY
290
     0
  9
$LENSLENGTH
 40
50.0
  9
$CAMERAHEIGHT
 40
0.0
  9
$STEPSPERSEC
 40
2.0
  9
$STEPSIZE
 40
6.0
  9
$3DDWFPREC
 40
2.0
  9
$PSOLWIDTH
 40
0.25
  9
$PSOLHEIGHT
 40
4.0
  9
$LOFTANG1
 40
1.570796326795
  9
$LOFTANG2
 40
1.570796326795
  9
$LOFTMAG1
 40
0.0
  9
$LOFTMAG2
 40
0.0
  9
$LOFTPARAM
 70
     7
  9
$LOFTNORMALS
280
     1
  9
$LATITUDE
 40
37.795
  9
$LONGITUDE
 40
-122.394
  9
$NORTHDIRECTION
 40
0.0
  9
$TIMEZONE
 70
 -8000
  9
$LIGHTGLYPHDISPLAY
280
     1
  9
$TILEMODELIGHTSYNCH
280
     1
  9
$SOLIDHIST
280
     0
  9
$SHOWHIST
280
     1
  9
$DWFFRAME
280
     2
  9
$DGNFRAME
280
     2
  9
$REALWORLDSCALE
290
     1
  9
$INTERFERECOLOR
 62
   256
  9
$CSHADOW
280
     0
  9
$SHADOWPLANELOCATION
 40
0.0
  0
ENDSEC
  0
SECTION
  2
CLASSES
  0
CLASS
  1
ACDBDICTIONARYWDFLT
  2
AcDbDictionaryWithDefault
  3
ObjectDBX Classes
 90
        0
 91
        5
280
     0
281
     0
  0
CLASS
  1
SCALE
  2
AcDbScale
  3
ObjectDBX Classes
 90
     1153
 91
        5
280
     0
281
     0
  0
CLASS
  1
VISUALSTYLE
  2
AcDbVisualStyle
  3
ObjectDBX Classes
 90
     4095
 91
        5
280
     0
281
     0
  0
CLASS
  1
MATERIAL
  2
AcDbMaterial
  3
ObjectDBX Classes
 90
     1153
 91
        5
280
     0
281
     0
  0
CLASS
  1
TABLESTYLE
  2
AcDbTableStyle
  3
ObjectDBX Classes
 90
     4095
 91
        5
280
     0
281
     0
  0
CLASS
  1
MLEADERSTYLE
  2
AcDbMLeaderStyle
  3
ACDB_MLEADERSTYLE_CLASS
 90
     4095
 91
        5
280
     0
281
     0
  0
CLASS
  1
SUN
  2
AcDbSun
  3
SCENEOE
 90
     1153
 91
        5
280
     0
281
     0
  0
CLASS
  1
DICTIONARYVAR
  2
AcDbDictionaryVar
  3
ObjectDBX Classes
 90
        0
 91
        4
280
     0
281
     0
  0
CLASS
  1
SORTENTSTABLE
  2
AcDbSortentsTable
  3
ObjectDBX Classes
 90
        0
 91
        4
280
     0
281
     0
  0
CLASS
  1
DIMASSOC
  2
AcDbDimAssoc
  3
"AcDbDimAssoc|Product Desc:     AcDim ARX App For Dimension|Company:          Autodesk, Inc.|WEB Address:      www.autodesk.com"
 90
        0
 91
        4
280
     0
281
     0
  0
CLASS
  1
CELLSTYLEMAP
  2
AcDbCellStyleMap
  3
ObjectDBX Classes
 90
     1152
 91
        4
280
     0
281
     0
  0
CLASS
  1
XRECORD
  2
AcDbXrecord
  3
ObjectDBX Classes
 90
        0
 91
        1
280
     0
281
     0
  0
CLASS
  1
LWPOLYLINE
  2
AcDbPolyline
  3
ObjectDBX Classes
 90
        0
 91
        1
280
     0
281
     1
  0
CLASS
  1
HATCH
  2
AcDbHatch
  3
ObjectDBX Classes
 90
        0
 91
        1
280
     0
281
     1
  0
CLASS
  1
ACDBPLACEHOLDER
  2
AcDbPlaceHolder
  3
ObjectDBX Classes
 90
        0
 91
        1
280
     0
281
     0
  0
CLASS
  1
LAYOUT
  2
AcDbLayout
  3
ObjectDBX Classes
 90
        0
 91
        1
280
     0
281
     0
  0
ENDSEC
  0
SECTION
  2
TABLES
  0
TABLE
  2
VPORT
  5
8
330
0
100
AcDbSymbolTable
 70
     1
  0
VPORT
  5
3B
330
8
100
AcDbSymbolTableRecord
100
AcDbViewportTableRecord
  2
*Active
 70
     0
 10
0.0
 20
0.0
 11
1.0
 21
1.0
 12
281.725585601216
 22
214.250836959993
 13
0.0
 23
0.0
 14
0.5
 24
0.5
 15
0.5
 25
0.5
 16
0.0
 26
0.0
 36
1.0
 17
0.0
 27
0.0
 37
0.0
 40
398.670202806866
 41
1.489432703003
 42
50.0
 43
0.0
 44
0.0
 50
0.0
 51
0.0
 71
    16
 72
   100
 73
     1
 74
     3
 75
     0
 76
     0
 77
     0
 78
     0
281
     0
 65
     1
110
0.0
120
0.0
130
0.0
111
1.0
121
0.0
131
0.0
112
0.0
122
1.0
132
0.0
 79
     0
146
0.0
348
698
 60
     3
 61
     5
292
     1
282
     1
141
0.0
142
0.0
 63
   256
361
6B5
  0
ENDTAB
  0
TABLE
  2
LTYPE
  5
5
330
0
100
AcDbSymbolTable
 70
    11
  0
LTYPE
  5
14
330
5
100
AcDbSymbolTableRecord
100
AcDbLinetypeTableRecord
  2
ByBlock
 70
     0
  3

 72
    65
 73
     0
 40
0.0
  0
LTYPE
  5
15
330
5
100
AcDbSymbolTableRecord
100
AcDbLinetypeTableRecord
  2
ByLayer
 70
     0
  3

 72
    65
 73
     0
 40
0.0
  0
LTYPE
  5
16
330
5
100
AcDbSymbolTableRecord
100
AcDbLinetypeTableRecord
  2
CONTINUOUS
 70
     0
  3
Solid line
 72
    65
 73
     0
 40
0.0
  0
LTYPE
  5
21
330
5
100
AcDbSymbolTableRecord
100
AcDbLinetypeTableRecord
  2
DASHED
 70
     0
  3
__ __ __ __ __ __ __ __ __ __ __ __ __ __ __
 72
    65
 73
     2
 40
0.75
 49
0.5
 74
     0
 49
-0.25
 74
     0
  0
LTYPE
  5
22
330
5
100
AcDbSymbolTableRecord
100
AcDbLinetypeTableRecord
  2
HIDDEN
 70
     0
  3
_ _ _ _ _ _ _ _ _ _ _ _ _ _ _ _ _ _ _ _ _ _ _
 72
    65
 73
     2
 40
0.375
 49
0.25
 74
     0
 49
-0.125
 74
     0
  0
LTYPE
  5
23
330
5
100
AcDbSymbolTableRecord
100
AcDbLinetypeTableRecord
  2
DOT
 70
     0
  3
...............................................
 72
    65
 73
     2
 40
0.25
 49
0.0
 74
     0
 49
-0.25
 74
     0
  0
LTYPE
  5
24
330
5
100
AcDbSymbolTableRecord
100
AcDbLinetypeTableRecord
  2
DASHDOT
 70
     0
  3
__ . __ . __ . __ . __ . __ . __ . __ . __ . __
 72
    65
 73
     4
 40
1.0
 49
0.5
 74
     0
 49
-0.25
 74
     0
 49
0.0
 74
     0
 49
-0.25
 74
     0
  0
LTYPE
  5
25
330
5
100
AcDbSymbolTableRecord
100
AcDbLinetypeTableRecord
  2
DIVIDE
 70
     0
  3
__ . . __ . . __ . . __ . . __ . . __ . . __
 72
    65
 73
     6
 40
1.25
 49
0.5
 74
     0
 49
-0.25
 74
     0
 49
0.0
 74
     0
 49
-0.25
 74
     0
 49
0.0
 74
     0
 49
-0.25
 74
     0
  0
LTYPE
  5
26
330
5
100
AcDbSymbolTableRecord
100
AcDbLinetypeTableRecord
  2
CENTER
 70
     0
  3
____ _ ____ _ ____ _ ____ _ ____ _ ____ _ ____ 
 72
    65
 73
     4
 40
2.0
 49
1.25
 74
     0
 49
-0.25
 74
     0
 49
0.25
 74
     0
 49
-0.25
 74
     0
  0
LTYPE
  5
27
330
5
100
AcDbSymbolTableRecord
100
AcDbLinetypeTableRecord
  2
PHANTOM
 70
     0
  3
______  __  __  ______  __  __  ______  __  __ 
 72
    65
 73
     6
 40
2.5
 49
1.25
 74
     0
 49
-0.25
 74
     0
 49
0.25
 74
     0
 49
-0.25
 74
     0
 49
0.25
 74
     0
 49
-0.25
 74
     0
  0
LTYPE
  5
28
330
5
100
AcDbSymbolTableRecord
100
AcDbLinetypeTableRecord
  2
BORDER
 70
     0
  3
__ __ . __ __ . __ __ . __ __ . __ __ . __ __ .
 72
    65
 73
     6
 40
1.75
 49
0.5
 74
     0
 49
-0.25
 74
     0
 49
0.5
 74
     0
 49
-0.25
 74
     0
 49
0.0
 74
     0
 49
-0.25
 74
     0
  0
LTYPE
  5
B3D
330
5
100
AcDbSymbolTableRecord
100
AcDbLinetypeTableRecord
  2
DYN_DIM
 70
     0
  3
Dashed dynamic dimension line
 72
    65
 73
     2
 40
0.010630380316
 49
0.003037251519
 74
     0
 49
-0.007593128797
 74
     0
  0
LTYPE
  5
B47
330
5
100
AcDbSymbolTableRecord
100
AcDbLinetypeTableRecord
  2
CENTERX2
 70
     0
  3
Center (2x) ________  __  ________  __  _____
 72
    65
 73
     4
 40
4.0
 49
2.5
 74
     0
 49
-0.5
 74
     0
 49
0.5
 74
     0
 49
-0.5
 74
     0
  0
ENDTAB
  0
TABLE
  2
LAYER
  5
2
102
{ACAD_XDICTIONARY
360
AB8
102
}
330
0
100
AcDbSymbolTable
 70
    18
  0
LAYER
  5
10
330
2
100
AcDbSymbolTableRecord
100
AcDbLayerTableRecord
  2
0
 70
     0
 62
     7
  6
CONTINUOUS
370
    -3
390
F
347
6AF
348
0
  0
LAYER
  5
29
330
2
100
AcDbSymbolTableRecord
100
AcDbLayerTableRecord
  2
CSLAYER1
 70
     0
 62
     7
  6
CONTINUOUS
370
    -3
390
F
347
6AF
348
0
  0
LAYER
  5
32
330
2
100
AcDbSymbolTableRecord
100
AcDbLayerTableRecord
  2
CSLAYER10
 70
     0
 62
     3
  6
CONTINUOUS
370
    -3
390
F
347
6AF
348
0
  0
LAYER
  5
6B6
330
2
100
AcDbSymbolTableRecord
100
AcDbLayerTableRecord
  2
Defpoints
 70
     0
 62
     7
  6
CONTINUOUS
290
     0
370
    -3
390
F
347
6AF
348
0
  0
ENDTAB
  0
TABLE
  2
STYLE
  5
3
330
0
100
AcDbSymbolTable
 70
     4
  0
STYLE
  5
11
330
3
100
AcDbSymbolTableRecord
100
AcDbTextStyleTableRecord
  2
Standard
 70
     0
 40
0.0
 41
1.0
 50
0.0
 71
     0
 42
4.0
  3
txt
  4

  0
STYLE
  5
39
330
3
100
AcDbSymbolTableRecord
100
AcDbTextStyleTableRecord
  2
FX_FONT
 70
     0
 40
1.0
 41
1.0
 50
0.0
 71
     0
 42
1.0
  3
monotxt
  4
bigfont
  0
STYLE
  5
A4C
330
3
100
AcDbSymbolTableRecord
100
AcDbTextStyleTableRecord
  2
EXTFONT
 70
     0
 40
3.0
 41
0.7
 50
0.0
 71
     0
 42
4.0
  3
txt.shx
  4
extfont.shx
  0
STYLE
  5
B3C
330
3
100
AcDbSymbolTableRecord
100
AcDbTextStyleTableRecord
  2
DYN_DIM
 70
     0
 40
0.0
 41
1.0
 50
0.0
 71
     0
 42
4.0
  3
txt
  4

  0
ENDTAB
  0
TABLE
  2
VIEW
  5
6
330
0
100
AcDbSymbolTable
 70
     0
  0
ENDTAB
  0
TABLE
  2
UCS
  5
7
330
0
100
AcDbSymbolTable
 70
     0
  0
ENDTAB
  0
TABLE
  2
APPID
  5
9
330
0
100
AcDbSymbolTable
 70
     3
  0
APPID
  5
12
330
9
100
AcDbSymbolTableRecord
100
AcDbRegAppTableRecord
  2
ACAD
 70
     0
  0
APPID
  5
E7E
330
9
100
AcDbSymbolTableRecord
100
AcDbRegAppTableRecord
  2
ACAD_MLEADERVER
 70
     0
  0
APPID
  5
12F2
330
9
100
AcDbSymbolTableRecord
100
AcDbRegAppTableRecord
  2
AcadAnnotative
 70
     0
  0
ENDTAB
  0
TABLE
  2
DIMSTYLE
  5
A
330
0
100
AcDbSymbolTable
 70
     3
100
AcDbDimStyleTable
  0
DIMSTYLE
105
3A
330
A
100
AcDbSymbolTableRecord
100
AcDbDimStyleTableRecord
  2
Standard
 70
     0
178
     0
340
11
  0
DIMSTYLE
105
A49
330
A
100
AcDbSymbolTableRecord
100
AcDbDimStyleTableRecord
  2
GEN-ISO
 70
     0
 41
2.4
 42
0.5
 43
8.0
 44
1.0
 47
0.1
 48
0.1
 73
     0
 74
     0
 77
     3
 78
     9
 79
     2
140
3.2
141
0.0
146
0.6
147
1.0
172
     1
176
   256
177
   256
178
     0
271
     2
272
     2
284
     8
340
11
  0
DIMSTYLE
105
A4B
330
A
100
AcDbSymbolTableRecord
100
AcDbDimStyleTableRecord
  2
RADIUS-NORMAL
 70
     0
  3
R<> 
 41
2.5
 42
1.0
 43
8.0
 44
2.0
 47
0.1
 48
0.1
 73
     0
 77
     1
 78
     8
140
3.5
141
0.0
146
0.7
147
1.5
178
     2
279
     2
284
     8
285
     8
286
     8
288
     1
340
11
  0
ENDTAB
  0
TABLE
  2
BLOCK_RECORD
  5
1
330
0
100
AcDbSymbolTable
 70
   112
  0
BLOCK_RECORD
  5
1D
102
{ACAD_XDICTIONARY
360
B2F
102
}
330
1
100
AcDbSymbolTableRecord
100
AcDbBlockTableRecord
  2
*Model_Space
340
1E
 70
     0
280
     1
281
     0
  0
BLOCK_RECORD
  5
1B
330
1
100
AcDbSymbolTableRecord
100
AcDbBlockTableRecord
  2
*Paper_Space
340
1C
 70
     0
280
     1
281
     0
  0
BLOCK_RECORD
  5
3D
330
1
100
AcDbSymbolTableRecord
100
AcDbBlockTableRecord
  2
FXDIM0000
340
0
 70
     0
280
     1
281
     0
  0
BLOCK_RECORD
  5
47
330
1
100
AcDbSymbolTableRecord
100
AcDbBlockTableRecord
  2
FXDIM0001
340
0
 70
     0
280
     1
281
     0
  0
BLOCK_RECORD
  5
68
330
1
100
AcDbSymbolTableRecord
100
AcDbBlockTableRecord
  2
FXDIM0002
340
0
 70
     0
280
     1
281
     0
  0
BLOCK_RECORD
  5
85
330
1
100
AcDbSymbolTableRecord
100
AcDbBlockTableRecord
  2
FXDIM0003
340
0
 70
     0
280
     1
281
     0
  0
BLOCK_RECORD
  5
15E
330
1
100
AcDbSymbolTableRecord
100
AcDbBlockTableRecord
  2
FXDIM0004
340
0
 70
     0
280
     1
281
     0
  0
BLOCK_RECORD
  5
162
330
1
100
AcDbSymbolTableRecord
100
AcDbBlockTableRecord
  2
FXDIM0005
340
0
 70
     0
280
     1
281
     0
  0
BLOCK_RECORD
  5
20C
330
1
100
AcDbSymbolTableRecord
100
AcDbBlockTableRecord
  2
FXDIM0006
340
0
 70
     0
280
     1
281
     0
  0
BLOCK_RECORD
  5
214
330
1
100
AcDbSymbolTableRecord
100
AcDbBlockTableRecord
  2
FXDIM0007
340
0
 70
     0
280
     1
281
     0
  0
BLOCK_RECORD
  5
284
330
1
100
AcDbSymbolTableRecord
100
AcDbBlockTableRecord
  2
FXDIM0008
340
0
 70
     0
280
     1
281
     0
  0
BLOCK_RECORD
  5
2A8
330
1
100
AcDbSymbolTableRecord
100
AcDbBlockTableRecord
  2
FXDIM0009
340
0
 70
     0
280
     1
281
     0
  0
BLOCK_RECORD
  5
2BB
330
1
100
AcDbSymbolTableRecord
100
AcDbBlockTableRecord
  2
BLKF0000
340
0
 70
     0
280
     1
281
     0
  0
BLOCK_RECORD
  5
2FD
330
1
100
AcDbSymbolTableRecord
100
AcDbBlockTableRecord
  2
BLKF0001
340
0
 70
     0
280
     1
281
     0
  0
BLOCK_RECORD
  5
306
330
1
100
AcDbSymbolTableRecord
100
AcDbBlockTableRecord
  2
BLKF0002
340
0
 70
     0
280
     1
281
     0
  0
BLOCK_RECORD
  5
30B
330
1
100
AcDbSymbolTableRecord
100
AcDbBlockTableRecord
  2
BLKF0003
340
0
 70
     0
280
     1
281
     0
  0
BLOCK_RECORD
  5
32D
330
1
100
AcDbSymbolTableRecord
100
AcDbBlockTableRecord
  2
BLKF0004
340
0
 70
     0
280
     1
281
     0
  0
BLOCK_RECORD
  5
8BE
330
1
100
AcDbSymbolTableRecord
100
AcDbBlockTableRecord
  2
A780138
340
0
 70
     0
280
     1
281
     0
  0
BLOCK_RECORD
  5
8E8
330
1
100
AcDbSymbolTableRecord
100
AcDbBlockTableRecord
  2
A7800A8
340
0
 70
     0
280
     1
281
     0
  0
BLOCK_RECORD
  5
918
330
1
100
AcDbSymbolTableRecord
100
AcDbBlockTableRecord
  2
A7800E8
340
0
 70
     0
280
     1
281
     0
  0
BLOCK_RECORD
  5
942
330
1
100
AcDbSymbolTableRecord
100
AcDbBlockTableRecord
  2
A7800F8
340
0
 70
     0
280
     1
281
     0
  0
BLOCK_RECORD
  5
96C
330
1
100
AcDbSymbolTableRecord
100
AcDbBlockTableRecord
  2
A7800D8
340
0
 70
     0
280
     1
281
     0
  0
BLOCK_RECORD
  5
9C3
330
1
100
AcDbSymbolTableRecord
100
AcDbBlockTableRecord
  2
A7800C8
340
0
 70
     0
280
     1
281
     0
  0
BLOCK_RECORD
  5
9EE
330
1
100
AcDbSymbolTableRecord
100
AcDbBlockTableRecord
  2
A780178
340
0
 70
     0
280
     1
281
     0
  0
BLOCK_RECORD
  5
A18
330
1
100
AcDbSymbolTableRecord
100
AcDbBlockTableRecord
  2
A780188
340
0
 70
     0
280
     1
281
     0
  0
BLOCK_RECORD
  5
A42
102
{ACAD_XDICTIONARY
360
A6C
102
}
330
1
100
AcDbSymbolTableRecord
100
AcDbBlockTableRecord
  2
14F00270
340
0
 70
     0
280
     1
281
     0
  0
BLOCK_RECORD
  5
AA4
102
{ACAD_XDICTIONARY
360
AA5
102
}
330
1
100
AcDbSymbolTableRecord
100
AcDbBlockTableRecord
  2
ACB0128
340
0
 70
     0
280
     1
281
     0
  0
BLOCK_RECORD
  5
B40
330
1
100
AcDbSymbolTableRecord
100
AcDbBlockTableRecord
  2
14F00150
340
0
 70
     0
280
     1
281
     0
  0
BLOCK_RECORD
  5
B4B
330
1
100
AcDbSymbolTableRecord
100
AcDbBlockTableRecord
  2
_Open30
340
0
 70
     0
280
     1
281
     0
  0
BLOCK_RECORD
  5
B85
330
1
100
AcDbSymbolTableRecord
100
AcDbBlockTableRecord
  2
_DotSmall
340
0
 70
     0
280
     1
281
     0
  0
BLOCK_RECORD
  5
BEF
330
1
100
AcDbSymbolTableRecord
100
AcDbBlockTableRecord
  2
14F001D0
340
0
 70
     0
280
     1
281
     0
  0
BLOCK_RECORD
  5
D06
102
{ACAD_XDICTIONARY
360
D2B
102
}
330
1
100
AcDbSymbolTableRecord
100
AcDbBlockTableRecord
  2
14F001B0
340
0
 70
     0
280
     1
281
     0
  0
BLOCK_RECORD
  5
D46
102
{ACAD_XDICTIONARY
360
D6A
102
}
330
1
100
AcDbSymbolTableRecord
100
AcDbBlockTableRecord
  2
A7800B8
340
0
 70
     0
280
     1
281
     0
  0
BLOCK_RECORD
  5
D71
102
{ACAD_XDICTIONARY
360
D96
102
}
330
1
100
AcDbSymbolTableRecord
100
AcDbBlockTableRecord
  2
A780198
340
0
 70
     0
280
     1
281
     0
  0
BLOCK_RECORD
  5
DA8
102
{ACAD_XDICTIONARY
360
DCE
102
}
330
1
100
AcDbSymbolTableRecord
100
AcDbBlockTableRecord
  2
A7801A8
340
0
 70
     0
280
     1
281
     0
  0
BLOCK_RECORD
  5
DE5
102
{ACAD_XDICTIONARY
360
E0A
102
}
330
1
100
AcDbSymbolTableRecord
100
AcDbBlockTableRecord
  2
14F002F0
340
0
 70
     0
280
     1
281
     0
  0
BLOCK_RECORD
  5
E94
330
1
100
AcDbSymbolTableRecord
100
AcDbBlockTableRecord
  2
14F00330
340
0
 70
     0
280
     1
281
     0
  0
BLOCK_RECORD
  5
EFA
330
1
100
AcDbSymbolTableRecord
100
AcDbBlockTableRecord
  2
A780128
340
0
 70
     0
280
     1
281
     0
  0
BLOCK_RECORD
  5
F28
102
{ACAD_XDICTIONARY
360
F4D
102
}
330
1
100
AcDbSymbolTableRecord
100
AcDbBlockTableRecord
  2
A780118
340
0
 70
     0
280
     1
281
     0
  0
BLOCK_RECORD
  5
F63
102
{ACAD_XDICTIONARY
360
F88
102
}
330
1
100
AcDbSymbolTableRecord
100
AcDbBlockTableRecord
  2
A780108
340
0
 70
     0
280
     1
281
     0
  0
BLOCK_RECORD
  5
F91
102
{ACAD_XDICTIONARY
360
FB6
102
}
330
1
100
AcDbSymbolTableRecord
100
AcDbBlockTableRecord
  2
A780168
340
0
 70
     0
280
     1
281
     0
  0
ENDTAB
  0
ENDSEC
  0
SECTION
  2
BLOCKS
  0
BLOCK
  5
68F
330
1D
100
AcDbEntity
  8
0
100
AcDbBlockBegin
  2
*Model_Space
 70
     0
 10
0.0
 20
0.0
 30
0.0
  3
*Model_Space
  1

  0
ENDBLK
  5
690
330
1D
100
AcDbEntity
  8
0
100
AcDbBlockEnd
  0
BLOCK
  5
691
330
1B
100
AcDbEntity
 67
     1
  8
0
100
AcDbBlockBegin
  2
*Paper_Space
 70
     0
 10
0.0
 20
0.0
 30
0.0
  3
*Paper_Space
  1

  0
ENDBLK
  5
692
330
1B
100
AcDbEntity
 67
     1
  8
0
100
AcDbBlockEnd
  0
BLOCK
  5
3C
330
3D
100
AcDbEntity
  8
CSLAYER1
100
AcDbBlockBegin
  2
FXDIM0000
 70
     0
 10
0.0
 20
0.0
 30
0.0
  3
FXDIM0000
  1

  0
LINE
  5
3E
330
3D
100
AcDbEntity
  8
CSLAYER1
  6
Continuous
 62
     7
100
AcDbLine
 10
100.418883
 20
315.221514
 30
0.0
 11
126.320433
 21
315.221514
 31
0.0
  0
LINE
  5
3F
330
3D
100
AcDbEntity
  8
CSLAYER1
  6
Continuous
 62
     7
100
AcDbLine
 10
99.067077
 20
190.221514
 30
0.0
 11
126.320433
 21
190.221514
 31
0.0
  0
LINE
  5
40
330
3D
100
AcDbEntity
  8
CSLAYER1
  6
Continuous
 62
     7
100
AcDbLine
 10
125.320433
 20
315.221514
 30
0.0
 11
125.320433
 21
190.221514
 31
0.0
  0
LINE
  5
41
330
3D
100
AcDbEntity
  8
CSLAYER1
  6
Continuous
 62
     7
100
AcDbLine
 10
125.320433
 20
315.221514
 30
0.0
 11
125.059381
 21
313.238625
 31
0.0
  0
LINE
  5
42
330
3D
100
AcDbEntity
  8
CSLAYER1
  6
Continuous
 62
     7
100
AcDbLine
 10
125.320433
 20
315.221514
 30
0.0
 11
125.581486
 21
313.238625
 31
0.0
  0
LINE
  5
43
330
3D
100
AcDbEntity
  8
CSLAYER1
  6
Continuous
 62
     7
100
AcDbLine
 10
125.320433
 20
190.221514
 30
0.0
 11
125.059381
 21
192.204404
 31
0.0
  0
LINE
  5
44
330
3D
100
AcDbEntity
  8
CSLAYER1
  6
Continuous
 62
     7
100
AcDbLine
 10
125.320433
 20
190.221514
 30
0.0
 11
125.581486
 21
192.204404
 31
0.0
  0
ENDBLK
  5
45
330
3D
100
AcDbEntity
  8
0
100
AcDbBlockEnd
  0
BLOCK
  5
46
330
47
100
AcDbEntity
  8
CSLAYER1
100
AcDbBlockBegin
  2
FXDIM0001
 70
     0
 10
0.0
 20
0.0
 30
0.0
  3
FXDIM0001
  1

  0
LINE
  5
48
330
47
100
AcDbEntity
  8
CSLAYER1
  6
Continuous
 62
     7
100
AcDbLine
 10
67.327357
 20
249.721514
 30
0.0
 11
52.320433
 21
249.721514
 31
0.0
  0
LINE
  5
49
330
47
100
AcDbEntity
  8
CSLAYER1
  6
Continuous
 62
     7
100
AcDbLine
 10
67.327357
 20
211.721514
 30
0.0
 11
52.320433
 21
211.721514
 31
0.0
  0
LINE
  5
4A
330
47
100
AcDbEntity
  8
CSLAYER1
  6
Continuous
 62
     7
100
AcDbLine
 10
53.320433
 20
249.721514
 30
0.0
 11
53.320433
 21
211.721514
 31
0.0
  0
LINE
  5
4B
330
47
100
AcDbEntity
  8
CSLAYER1
  6
Continuous
 62
     7
100
AcDbLine
 10
53.320433
 20
249.721514
 30
0.0
 11
53.059381
 21
247.738625
 31
0.0
  0
LINE
  5
4C
330
47
100
AcDbEntity
  8
CSLAYER1
  6
Continuous
 62
     7
100
AcDbLine
 10
53.320433
 20
249.721514
 30
0.0
 11
53.581486
 21
247.738625
 31
0.0
  0
LINE
  5
4D
330
47
100
AcDbEntity
  8
CSLAYER1
  6
Continuous
 62
     7
100
AcDbLine
 10
53.320433
 20
211.721514
 30
0.0
 11
53.059381
 21
213.704404
 31
0.0
  0
LINE
  5
4E
330
47
100
AcDbEntity
  8
CSLAYER1
  6
Continuous
 62
     7
100
AcDbLine
 10
53.320433
 20
211.721514
 30
0.0
 11
53.581486
 21
213.704404
 31
0.0
  0
ENDBLK
  5
4F
330
47
100
AcDbEntity
  8
0
100
AcDbBlockEnd
  0
BLOCK
  5
67
330
68
100
AcDbEntity
  8
CSLAYER1
100
AcDbBlockBegin
  2
FXDIM0002
 70
     0
 10
0.0
 20
0.0
 30
0.0
  3
FXDIM0002
  1

  0
LINE
  5
69
330
68
100
AcDbEntity
  8
CSLAYER1
  6
Continuous
 62
     7
100
AcDbLine
 10
85.48663
 20
305.221514
 30
0.0
 11
117.017898
 21
305.221514
 31
0.0
  0
LINE
  5
6A
330
68
100
AcDbEntity
  8
CSLAYER1
  6
Continuous
 62
     7
100
AcDbLine
 10
85.48663
 20
200.221514
 30
0.0
 11
117.017898
 21
200.221514
 31
0.0
  0
LINE
  5
6B
330
68
100
AcDbEntity
  8
CSLAYER1
  6
Continuous
 62
     7
100
AcDbLine
 10
116.017898
 20
305.221514
 30
0.0
 11
116.017898
 21
200.221514
 31
0.0
  0
LINE
  5
6C
330
68
100
AcDbEntity
  8
CSLAYER1
  6
Continuous
 62
     7
100
AcDbLine
 10
116.017898
 20
305.221514
 30
0.0
 11
115.756846
 21
303.238625
 31
0.0
  0
LINE
  5
6D
330
68
100
AcDbEntity
  8
CSLAYER1
  6
Continuous
 62
     7
100
AcDbLine
 10
116.017898
 20
305.221514
 30
0.0
 11
116.278951
 21
303.238625
 31
0.0
  0
LINE
  5
6E
330
68
100
AcDbEntity
  8
CSLAYER1
  6
Continuous
 62
     7
100
AcDbLine
 10
116.017898
 20
200.221514
 30
0.0
 11
115.756846
 21
202.204404
 31
0.0
  0
LINE
  5
6F
330
68
100
AcDbEntity
  8
CSLAYER1
  6
Continuous
 62
     7
100
AcDbLine
 10
116.017898
 20
200.221514
 30
0.0
 11
116.278951
 21
202.204404
 31
0.0
  0
ENDBLK
  5
70
330
68
100
AcDbEntity
  8
0
100
AcDbBlockEnd
  0
BLOCK
  5
84
330
85
100
AcDbEntity
  8
CSLAYER1
100
AcDbBlockBegin
  2
FXDIM0003
 70
     0
 10
0.0
 20
0.0
 30
0.0
  3
FXDIM0003
  1

  0
LINE
  5
86
330
85
100
AcDbEntity
  8
CSLAYER1
  6
Continuous
 62
     7
100
AcDbLine
 10
71.820433
 20
175.221514
 30
0.0
 11
76.820433
 21
175.221514
 31
0.0
  0
LINE
  5
87
330
85
100
AcDbEntity
  8
CSLAYER1
  6
Continuous
 62
     7
100
AcDbLine
 10
76.820433
 20
175.221514
 30
0.0
 11
74.837544
 21
175.482567
 31
0.0
  0
LINE
  5
88
330
85
100
AcDbEntity
  8
CSLAYER1
  6
Continuous
 62
     7
100
AcDbLine
 10
76.820433
 20
175.221514
 30
0.0
 11
74.837544
 21
174.960462
 31
0.0
  0
ENDBLK
  5
89
330
85
100
AcDbEntity
  8
0
100
AcDbBlockEnd
  0
BLOCK
  5
15D
330
15E
100
AcDbEntity
  8
CSLAYER1
100
AcDbBlockBegin
  2
FXDIM0004
 70
     0
 10
0.0
 20
0.0
 30
0.0
  3
FXDIM0004
  1

  0
LINE
  5
15F
330
15E
100
AcDbEntity
  8
CSLAYER1
  6
Continuous
 62
     7
100
AcDbLine
 10
261.580745
 20
317.67212
 30
0.0
 11
261.580745
 21
379.559202
 31
0.0
  0
ENDBLK
  5
160
330
15E
100
AcDbEntity
  8
0
100
AcDbBlockEnd
  0
BLOCK
  5
161
330
162
100
AcDbEntity
  8
CSLAYER1
100
AcDbBlockBegin
  2
FXDIM0005
 70
     0
 10
0.0
 20
0.0
 30
0.0
  3
FXDIM0005
  1

  0
LINE
  5
163
330
162
100
AcDbEntity
  8
CSLAYER1
  6
Continuous
 62
     7
100
AcDbLine
 10
223.580745
 20
363.046959
 30
0.0
 11
223.580745
 21
379.559202
 31
0.0
  0
ENDBLK
  5
164
330
162
100
AcDbEntity
  8
0
100
AcDbBlockEnd
  0
BLOCK
  5
20B
330
20C
100
AcDbEntity
  8
CSLAYER1
100
AcDbBlockBegin
  2
FXDIM0006
 70
     0
 10
0.0
 20
0.0
 30
0.0
  3
FXDIM0006
  1

  0
LINE
  5
20D
330
20C
100
AcDbEntity
  8
CSLAYER1
  6
Continuous
 62
     7
100
AcDbLine
 10
525.939628
 20
261.919505
 30
0.0
 11
540.80031
 21
242.105263
 31
0.0
  0
CIRCLE
  5
20E
330
20C
100
AcDbEntity
  8
CSLAYER1
  6
Continuous
 62
     7
100
AcDbCircle
 10
525.939628
 20
261.919505
 30
0.0
 40
0.5
  0
CIRCLE
  5
20F
330
20C
100
AcDbEntity
  8
CSLAYER1
  6
Continuous
 62
     7
100
AcDbCircle
 10
525.939628
 20
261.919505
 30
0.0
 40
0.25
  0
LINE
  5
210
330
20C
100
AcDbEntity
  8
CSLAYER1
  6
Continuous
 62
     7
100
AcDbLine
 10
540.80031
 20
242.105263
 30
0.0
 11
540.80031
 21
210.105263
 31
0.0
  0
TEXT
  5
211
330
20C
100
AcDbEntity
  8
CSLAYER1
 62
     7
100
AcDbText
 10
539.800293
 20
211.10527
 30
0.0
 40
4.0
  1
リード線４本　L=180
 50
90.0
 41
0.569380008435
  7
FX_FONT
 72
     5
 11
539.800293
 21
241.10527
 31
0.0
100
AcDbText
  0
ENDBLK
  5
212
330
20C
100
AcDbEntity
  8
0
100
AcDbBlockEnd
  0
BLOCK
  5
213
330
214
100
AcDbEntity
  8
CSLAYER1
100
AcDbBlockBegin
  2
FXDIM0007
 70
     0
 10
0.0
 20
0.0
 30
0.0
  3
FXDIM0007
  1

  0
LINE
  5
215
330
214
100
AcDbEntity
  8
CSLAYER1
  6
Continuous
 62
     7
100
AcDbLine
 10
362.4736
 20
342.921514
 30
0.0
 11
347.235721
 21
369.435152
 31
0.0
  0
LINE
  5
216
330
214
100
AcDbEntity
  8
CSLAYER1
  6
Continuous
 62
     7
100
AcDbLine
 10
362.4736
 20
342.921514
 30
0.0
 11
361.259215
 21
344.510624
 31
0.0
  0
LINE
  5
217
330
214
100
AcDbEntity
  8
CSLAYER1
  6
Continuous
 62
     7
100
AcDbLine
 10
362.4736
 20
342.921514
 30
0.0
 11
361.711886
 21
344.770782
 31
0.0
  0
LINE
  5
218
330
214
100
AcDbEntity
  8
CSLAYER1
  6
Continuous
 62
     7
100
AcDbLine
 10
347.235721
 20
369.435152
 30
0.0
 11
322.735721
 21
369.435152
 31
0.0
  0
TEXT
  5
219
330
214
100
AcDbEntity
  8
CSLAYER1
 62
     7
100
AcDbText
 10
323.735718
 20
370.43515
 30
0.0
 40
4.0
  1
2-4mmネジ用穴
 41
0.590034965035
  7
FX_FONT
 72
     5
 11
346.235718
 21
370.43515
 31
0.0
100
AcDbText
  0
ENDBLK
  5
21A
330
214
100
AcDbEntity
  8
0
100
AcDbBlockEnd
  0
BLOCK
  5
283
330
284
100
AcDbEntity
  8
CSLAYER1
100
AcDbBlockBegin
  2
FXDIM0008
 70
     0
 10
0.0
 20
0.0
 30
0.0
  3
FXDIM0008
  1

  0
LINE
  5
285
330
284
100
AcDbEntity
  8
CSLAYER1
  6
Continuous
 62
     7
100
AcDbLine
 10
67.320433
 20
249.721514
 30
0.0
 11
52.155126
 21
249.721514
 31
0.0
  0
LINE
  5
286
330
284
100
AcDbEntity
  8
CSLAYER1
  6
Continuous
 62
     7
100
AcDbLine
 10
67.320433
 20
255.721514
 30
0.0
 11
52.155126
 21
255.721514
 31
0.0
  0
ENDBLK
  5
287
330
284
100
AcDbEntity
  8
0
100
AcDbBlockEnd
  0
BLOCK
  5
2A7
330
2A8
100
AcDbEntity
  8
CSLAYER1
100
AcDbBlockBegin
  2
FXDIM0009
 70
     0
 10
0.0
 20
0.0
 30
0.0
  3
FXDIM0009
  1

  0
LINE
  5
2A9
330
2A8
100
AcDbEntity
  8
CSLAYER1
  6
Continuous
 62
     7
100
AcDbLine
 10
241.580745
 20
180.921514
 30
0.0
 11
241.580745
 21
123.643679
 31
0.0
  0
LINE
  5
2AA
330
2A8
100
AcDbEntity
  8
CSLAYER1
  6
Continuous
 62
     7
100
AcDbLine
 10
205.580745
 20
124.643679
 30
0.0
 11
241.580745
 21
124.643679
 31
0.0
  0
LINE
  5
2AB
330
2A8
100
AcDbEntity
  8
CSLAYER1
  6
Continuous
 62
     7
100
AcDbLine
 10
205.580745
 20
124.643679
 30
0.0
 11
207.563634
 21
124.904732
 31
0.0
  0
LINE
  5
2AC
330
2A8
100
AcDbEntity
  8
CSLAYER1
  6
Continuous
 62
     7
100
AcDbLine
 10
205.580745
 20
124.643679
 30
0.0
 11
207.563634
 21
124.382627
 31
0.0
  0
LINE
  5
2AD
330
2A8
100
AcDbEntity
  8
CSLAYER1
  6
Continuous
 62
     7
100
AcDbLine
 10
241.580745
 20
124.643679
 30
0.0
 11
239.597855
 21
124.904732
 31
0.0
  0
LINE
  5
2AE
330
2A8
100
AcDbEntity
  8
CSLAYER1
  6
Continuous
 62
     7
100
AcDbLine
 10
241.580745
 20
124.643679
 30
0.0
 11
239.597855
 21
124.382627
 31
0.0
  0
ENDBLK
  5
2AF
330
2A8
100
AcDbEntity
  8
0
100
AcDbBlockEnd
  0
BLOCK
  5
2BA
330
2BB
100
AcDbEntity
  8
CSLAYER1
100
AcDbBlockBegin
  2
BLKF0000
 70
     0
 10
0.0
 20
0.0
 30
0.0
  3
BLKF0000
  1

  0
LINE
  5
2BC
330
2BB
100
AcDbEntity
  8
CSLAYER1
  6
Continuous
 62
     3
100
AcDbLine
 10
360.4736
 20
336.421514
 30
0.0
 11
360.552428
 21
336.478513
 31
0.0
  0
LINE
  5
2BD
330
2BB
100
AcDbEntity
  8
CSLAYER1
  6
Continuous
 62
     3
100
AcDbLine
 10
360.552428
 20
336.478513
 30
0.0
 11
360.631248
 21
336.535236
 31
0.0
  0
LINE
  5
2BE
330
2BB
100
AcDbEntity
  8
CSLAYER1
  6
Continuous
 62
     3
100
AcDbLine
 10
360.631248
 20
336.535236
 30
0.0
 11
360.710052
 21
336.59141
 31
0.0
  0
LINE
  5
2BF
330
2BB
100
AcDbEntity
  8
CSLAYER1
  6
Continuous
 62
     3
100
AcDbLine
 10
360.710052
 20
336.59141
 30
0.0
 11
360.788831
 21
336.64676
 31
0.0
  0
LINE
  5
2C0
330
2BB
100
AcDbEntity
  8
CSLAYER1
  6
Continuous
 62
     3
100
AcDbLine
 10
360.788831
 20
336.64676
 30
0.0
 11
360.867577
 21
336.70101
 31
0.0
  0
LINE
  5
2C1
330
2BB
100
AcDbEntity
  8
CSLAYER1
  6
Continuous
 62
     3
100
AcDbLine
 10
360.867577
 20
336.70101
 30
0.0
 11
360.946283
 21
336.753887
 31
0.0
  0
LINE
  5
2C2
330
2BB
100
AcDbEntity
  8
CSLAYER1
  6
Continuous
 62
     3
100
AcDbLine
 10
360.946283
 20
336.753887
 30
0.0
 11
361.02494
 21
336.805116
 31
0.0
  0
LINE
  5
2C3
330
2BB
100
AcDbEntity
  8
CSLAYER1
  6
Continuous
 62
     3
100
AcDbLine
 10
361.02494
 20
336.805116
 30
0.0
 11
361.103541
 21
336.854421
 31
0.0
  0
LINE
  5
2C4
330
2BB
100
AcDbEntity
  8
CSLAYER1
  6
Continuous
 62
     3
100
AcDbLine
 10
361.103541
 20
336.854421
 30
0.0
 11
361.182076
 21
336.901528
 31
0.0
  0
LINE
  5
2C5
330
2BB
100
AcDbEntity
  8
CSLAYER1
  6
Continuous
 62
     3
100
AcDbLine
 10
361.182076
 20
336.901528
 30
0.0
 11
361.260538
 21
336.946162
 31
0.0
  0
LINE
  5
2C6
330
2BB
100
AcDbEntity
  8
CSLAYER1
  6
Continuous
 62
     3
100
AcDbLine
 10
361.260538
 20
336.946162
 30
0.0
 11
361.338919
 21
336.988049
 31
0.0
  0
LINE
  5
2C7
330
2BB
100
AcDbEntity
  8
CSLAYER1
  6
Continuous
 62
     3
100
AcDbLine
 10
361.338919
 20
336.988049
 30
0.0
 11
361.417211
 21
337.026914
 31
0.0
  0
LINE
  5
2C8
330
2BB
100
AcDbEntity
  8
CSLAYER1
  6
Continuous
 62
     3
100
AcDbLine
 10
361.417211
 20
337.026914
 30
0.0
 11
361.495405
 21
337.062481
 31
0.0
  0
LINE
  5
2C9
330
2BB
100
AcDbEntity
  8
CSLAYER1
  6
Continuous
 62
     3
100
AcDbLine
 10
361.495405
 20
337.062481
 30
0.0
 11
361.573493
 21
337.094477
 31
0.0
  0
LINE
  5
2CA
330
2BB
100
AcDbEntity
  8
CSLAYER1
  6
Continuous
 62
     3
100
AcDbLine
 10
361.573493
 20
337.094477
 30
0.0
 11
361.651468
 21
337.122627
 31
0.0
  0
LINE
  5
2CB
330
2BB
100
AcDbEntity
  8
CSLAYER1
  6
Continuous
 62
     3
100
AcDbLine
 10
361.651468
 20
337.122627
 30
0.0
 11
361.72932
 21
337.146655
 31
0.0
  0
LINE
  5
2CC
330
2BB
100
AcDbEntity
  8
CSLAYER1
  6
Continuous
 62
     3
100
AcDbLine
 10
361.72932
 20
337.146655
 30
0.0
 11
361.807043
 21
337.166287
 31
0.0
  0
LINE
  5
2CD
330
2BB
100
AcDbEntity
  8
CSLAYER1
  6
Continuous
 62
     3
100
AcDbLine
 10
361.807043
 20
337.166287
 30
0.0
 11
361.884627
 21
337.181248
 31
0.0
  0
LINE
  5
2CE
330
2BB
100
AcDbEntity
  8
CSLAYER1
  6
Continuous
 62
     3
100
AcDbLine
 10
361.884627
 20
337.181248
 30
0.0
 11
361.962066
 21
337.191264
 31
0.0
  0
LINE
  5
2CF
330
2BB
100
AcDbEntity
  8
CSLAYER1
  6
Continuous
 62
     3
100
AcDbLine
 10
361.962066
 20
337.191264
 30
0.0
 11
362.039349
 21
337.196059
 31
0.0
  0
LINE
  5
2D0
330
2BB
100
AcDbEntity
  8
CSLAYER1
  6
Continuous
 62
     3
100
AcDbLine
 10
362.039349
 20
337.196059
 30
0.0
 11
362.11647
 21
337.19536
 31
0.0
  0
LINE
  5
2D1
330
2BB
100
AcDbEntity
  8
CSLAYER1
  6
Continuous
 62
     3
100
AcDbLine
 10
362.11647
 20
337.19536
 30
0.0
 11
362.23542
 21
337.183192
 31
0.0
  0
LINE
  5
2D2
330
2BB
100
AcDbEntity
  8
CSLAYER1
  6
Continuous
 62
     3
100
AcDbLine
 10
362.23542
 20
337.183192
 30
0.0
 11
362.354027
 21
337.158456
 31
0.0
  0
LINE
  5
2D3
330
2BB
100
AcDbEntity
  8
CSLAYER1
  6
Continuous
 62
     3
100
AcDbLine
 10
362.354027
 20
337.158456
 30
0.0
 11
362.472354
 21
337.122384
 31
0.0
  0
LINE
  5
2D4
330
2BB
100
AcDbEntity
  8
CSLAYER1
  6
Continuous
 62
     3
100
AcDbLine
 10
362.472354
 20
337.122384
 30
0.0
 11
362.590468
 21
337.076208
 31
0.0
  0
LINE
  5
2D5
330
2BB
100
AcDbEntity
  8
CSLAYER1
  6
Continuous
 62
     3
100
AcDbLine
 10
362.590468
 20
337.076208
 30
0.0
 11
362.708433
 21
337.021161
 31
0.0
  0
LINE
  5
2D6
330
2BB
100
AcDbEntity
  8
CSLAYER1
  6
Continuous
 62
     3
100
AcDbLine
 10
362.708433
 20
337.021161
 30
0.0
 11
362.826314
 21
336.958474
 31
0.0
  0
LINE
  5
2D7
330
2BB
100
AcDbEntity
  8
CSLAYER1
  6
Continuous
 62
     3
100
AcDbLine
 10
362.826314
 20
336.958474
 30
0.0
 11
362.944176
 21
336.88938
 31
0.0
  0
LINE
  5
2D8
330
2BB
100
AcDbEntity
  8
CSLAYER1
  6
Continuous
 62
     3
100
AcDbLine
 10
362.944176
 20
336.88938
 30
0.0
 11
363.062084
 21
336.81511
 31
0.0
  0
LINE
  5
2D9
330
2BB
100
AcDbEntity
  8
CSLAYER1
  6
Continuous
 62
     3
100
AcDbLine
 10
363.062084
 20
336.81511
 30
0.0
 11
363.180101
 21
336.736898
 31
0.0
  0
LINE
  5
2DA
330
2BB
100
AcDbEntity
  8
CSLAYER1
  6
Continuous
 62
     3
100
AcDbLine
 10
363.180101
 20
336.736898
 30
0.0
 11
363.298294
 21
336.655975
 31
0.0
  0
LINE
  5
2DB
330
2BB
100
AcDbEntity
  8
CSLAYER1
  6
Continuous
 62
     3
100
AcDbLine
 10
363.298294
 20
336.655975
 30
0.0
 11
363.416728
 21
336.573574
 31
0.0
  0
LINE
  5
2DC
330
2BB
100
AcDbEntity
  8
CSLAYER1
  6
Continuous
 62
     3
100
AcDbLine
 10
363.416728
 20
336.573574
 30
0.0
 11
363.535466
 21
336.490927
 31
0.0
  0
LINE
  5
2DD
330
2BB
100
AcDbEntity
  8
CSLAYER1
  6
Continuous
 62
     3
100
AcDbLine
 10
363.535466
 20
336.490927
 30
0.0
 11
363.654573
 21
336.409265
 31
0.0
  0
LINE
  5
2DE
330
2BB
100
AcDbEntity
  8
CSLAYER1
  6
Continuous
 62
     3
100
AcDbLine
 10
363.654573
 20
336.409265
 30
0.0
 11
363.774115
 21
336.329822
 31
0.0
  0
LINE
  5
2DF
330
2BB
100
AcDbEntity
  8
CSLAYER1
  6
Continuous
 62
     3
100
AcDbLine
 10
363.774115
 20
336.329822
 30
0.0
 11
363.894157
 21
336.253829
 31
0.0
  0
LINE
  5
2E0
330
2BB
100
AcDbEntity
  8
CSLAYER1
  6
Continuous
 62
     3
100
AcDbLine
 10
363.894157
 20
336.253829
 30
0.0
 11
364.014763
 21
336.182519
 31
0.0
  0
LINE
  5
2E1
330
2BB
100
AcDbEntity
  8
CSLAYER1
  6
Continuous
 62
     3
100
AcDbLine
 10
364.014763
 20
336.182519
 30
0.0
 11
364.135998
 21
336.117123
 31
0.0
  0
LINE
  5
2E2
330
2BB
100
AcDbEntity
  8
CSLAYER1
  6
Continuous
 62
     3
100
AcDbLine
 10
364.135998
 20
336.117123
 30
0.0
 11
364.257926
 21
336.058875
 31
0.0
  0
LINE
  5
2E3
330
2BB
100
AcDbEntity
  8
CSLAYER1
  6
Continuous
 62
     3
100
AcDbLine
 10
364.257926
 20
336.058875
 30
0.0
 11
364.380614
 21
336.009005
 31
0.0
  0
LINE
  5
2E4
330
2BB
100
AcDbEntity
  8
CSLAYER1
  6
Continuous
 62
     3
100
AcDbLine
 10
364.380614
 20
336.009005
 30
0.0
 11
364.504125
 21
335.968747
 31
0.0
  0
LINE
  5
2E5
330
2BB
100
AcDbEntity
  8
CSLAYER1
  6
Continuous
 62
     3
100
AcDbLine
 10
364.504125
 20
335.968747
 30
0.0
 11
364.628524
 21
335.939333
 31
0.0
  0
LINE
  5
2E6
330
2BB
100
AcDbEntity
  8
CSLAYER1
  6
Continuous
 62
     3
100
AcDbLine
 10
364.628524
 20
335.939333
 30
0.0
 11
364.713525
 21
335.92606
 31
0.0
  0
LINE
  5
2E7
330
2BB
100
AcDbEntity
  8
CSLAYER1
  6
Continuous
 62
     3
100
AcDbLine
 10
364.713525
 20
335.92606
 30
0.0
 11
364.798944
 21
335.91809
 31
0.0
  0
LINE
  5
2E8
330
2BB
100
AcDbEntity
  8
CSLAYER1
  6
Continuous
 62
     3
100
AcDbLine
 10
364.798944
 20
335.91809
 30
0.0
 11
364.884761
 21
335.915157
 31
0.0
  0
LINE
  5
2E9
330
2BB
100
AcDbEntity
  8
CSLAYER1
  6
Continuous
 62
     3
100
AcDbLine
 10
364.884761
 20
335.915157
 30
0.0
 11
364.970954
 21
335.916997
 31
0.0
  0
LINE
  5
2EA
330
2BB
100
AcDbEntity
  8
CSLAYER1
  6
Continuous
 62
     3
100
AcDbLine
 10
364.970954
 20
335.916997
 30
0.0
 11
365.057504
 21
335.923343
 31
0.0
  0
LINE
  5
2EB
330
2BB
100
AcDbEntity
  8
CSLAYER1
  6
Continuous
 62
     3
100
AcDbLine
 10
365.057504
 20
335.923343
 30
0.0
 11
365.144388
 21
335.933932
 31
0.0
  0
LINE
  5
2EC
330
2BB
100
AcDbEntity
  8
CSLAYER1
  6
Continuous
 62
     3
100
AcDbLine
 10
365.144388
 20
335.933932
 30
0.0
 11
365.231586
 21
335.948497
 31
0.0
  0
LINE
  5
2ED
330
2BB
100
AcDbEntity
  8
CSLAYER1
  6
Continuous
 62
     3
100
AcDbLine
 10
365.231586
 20
335.948497
 30
0.0
 11
365.319077
 21
335.966774
 31
0.0
  0
LINE
  5
2EE
330
2BB
100
AcDbEntity
  8
CSLAYER1
  6
Continuous
 62
     3
100
AcDbLine
 10
365.319077
 20
335.966774
 30
0.0
 11
365.40684
 21
335.988498
 31
0.0
  0
LINE
  5
2EF
330
2BB
100
AcDbEntity
  8
CSLAYER1
  6
Continuous
 62
     3
100
AcDbLine
 10
365.40684
 20
335.988498
 30
0.0
 11
365.494855
 21
336.013403
 31
0.0
  0
LINE
  5
2F0
330
2BB
100
AcDbEntity
  8
CSLAYER1
  6
Continuous
 62
     3
100
AcDbLine
 10
365.494855
 20
336.013403
 30
0.0
 11
365.583099
 21
336.041225
 31
0.0
  0
LINE
  5
2F1
330
2BB
100
AcDbEntity
  8
CSLAYER1
  6
Continuous
 62
     3
100
AcDbLine
 10
365.583099
 20
336.041225
 30
0.0
 11
365.671553
 21
336.071698
 31
0.0
  0
LINE
  5
2F2
330
2BB
100
AcDbEntity
  8
CSLAYER1
  6
Continuous
 62
     3
100
AcDbLine
 10
365.671553
 20
336.071698
 30
0.0
 11
365.760195
 21
336.104557
 31
0.0
  0
LINE
  5
2F3
330
2BB
100
AcDbEntity
  8
CSLAYER1
  6
Continuous
 62
     3
100
AcDbLine
 10
365.760195
 20
336.104557
 30
0.0
 11
365.849004
 21
336.139537
 31
0.0
  0
LINE
  5
2F4
330
2BB
100
AcDbEntity
  8
CSLAYER1
  6
Continuous
 62
     3
100
AcDbLine
 10
365.849004
 20
336.139537
 30
0.0
 11
365.93796
 21
336.176373
 31
0.0
  0
LINE
  5
2F5
330
2BB
100
AcDbEntity
  8
CSLAYER1
  6
Continuous
 62
     3
100
AcDbLine
 10
365.93796
 20
336.176373
 30
0.0
 11
366.027042
 21
336.214799
 31
0.0
  0
LINE
  5
2F6
330
2BB
100
AcDbEntity
  8
CSLAYER1
  6
Continuous
 62
     3
100
AcDbLine
 10
366.027042
 20
336.214799
 30
0.0
 11
366.116228
 21
336.254552
 31
0.0
  0
LINE
  5
2F7
330
2BB
100
AcDbEntity
  8
CSLAYER1
  6
Continuous
 62
     3
100
AcDbLine
 10
366.116228
 20
336.254552
 30
0.0
 11
366.205498
 21
336.295364
 31
0.0
  0
LINE
  5
2F8
330
2BB
100
AcDbEntity
  8
CSLAYER1
  6
Continuous
 62
     3
100
AcDbLine
 10
366.205498
 20
336.295364
 30
0.0
 11
366.29483
 21
336.336972
 31
0.0
  0
LINE
  5
2F9
330
2BB
100
AcDbEntity
  8
CSLAYER1
  6
Continuous
 62
     3
100
AcDbLine
 10
366.29483
 20
336.336972
 30
0.0
 11
366.384205
 21
336.379111
 31
0.0
  0
LINE
  5
2FA
330
2BB
100
AcDbEntity
  8
CSLAYER1
  6
Continuous
 62
     3
100
AcDbLine
 10
366.384205
 20
336.379111
 30
0.0
 11
366.4736
 21
336.421514
 31
0.0
  0
ENDBLK
  5
2FB
330
2BB
100
AcDbEntity
  8
0
100
AcDbBlockEnd
  0
BLOCK
  5
2FC
330
2FD
100
AcDbEntity
  8
CSLAYER1
100
AcDbBlockBegin
  2
BLKF0001
 70
     0
 10
0.0
 20
0.0
 30
0.0
  3
BLKF0001
  1

  0
LINE
  5
2FE
330
2FD
100
AcDbEntity
  8
CSLAYER1
  6
Continuous
 62
     7
100
AcDbLine
 10
364.120047
 20
345.775068
 30
0.0
 11
365.534261
 21
347.189281
 31
0.0
  0
LINE
  5
2FF
330
2FD
100
AcDbEntity
  8
CSLAYER1
  6
Continuous
 62
     7
100
AcDbLine
 10
363.059387
 20
346.835728
 30
0.0
 11
364.4736
 21
348.249941
 31
0.0
  0
LINE
  5
300
330
2FD
100
AcDbEntity
  8
CSLAYER1
  6
Continuous
 62
     7
100
AcDbLine
 10
362.4736
 20
348.371262
 30
0.0
 11
364.4736
 21
350.371262
 31
0.0
  0
LINE
  5
301
330
2FD
100
AcDbEntity
  8
CSLAYER1
  6
Continuous
 62
     7
100
AcDbLine
 10
362.4736
 20
350.492582
 30
0.0
 11
364.4736
 21
352.492582
 31
0.0
  0
LINE
  5
302
330
2FD
100
AcDbEntity
  8
CSLAYER1
  6
Continuous
 62
     7
100
AcDbLine
 10
362.4736
 20
352.613902
 30
0.0
 11
364.4736
 21
354.613902
 31
0.0
  0
LINE
  5
303
330
2FD
100
AcDbEntity
  8
CSLAYER1
  6
Continuous
 62
     7
100
AcDbLine
 10
362.4736
 20
354.735223
 30
0.0
 11
363.159892
 21
355.421514
 31
0.0
  0
ENDBLK
  5
304
330
2FD
100
AcDbEntity
  8
0
100
AcDbBlockEnd
  0
BLOCK
  5
305
330
306
100
AcDbEntity
  8
CSLAYER1
100
AcDbBlockBegin
  2
BLKF0002
 70
     0
 10
0.0
 20
0.0
 30
0.0
  3
BLKF0002
  1

  0
LINE
  5
307
330
306
100
AcDbEntity
  8
CSLAYER1
  6
Continuous
 62
     7
100
AcDbLine
 10
363.600446
 20
336.446375
 30
0.0
 11
364.4736
 21
337.31953
 31
0.0
  0
LINE
  5
308
330
306
100
AcDbEntity
  8
CSLAYER1
  6
Continuous
 62
     7
100
AcDbLine
 10
362.4736
 20
337.44085
 30
0.0
 11
364.963932
 21
339.931182
 31
0.0
  0
ENDBLK
  5
309
330
306
100
AcDbEntity
  8
0
100
AcDbBlockEnd
  0
BLOCK
  5
30A
330
30B
100
AcDbEntity
  8
CSLAYER1
100
AcDbBlockBegin
  2
BLKF0003
 70
     0
 10
0.0
 20
0.0
 30
0.0
  3
BLKF0003
  1

  0
LINE
  5
30C
330
30B
100
AcDbEntity
  8
CSLAYER1
  6
Continuous
 62
     7
100
AcDbLine
 10
425.505988
 20
190.489696
 30
0.0
 11
451.905419
 21
216.889126
 31
0.0
  0
LINE
  5
30D
330
30B
100
AcDbEntity
  8
CSLAYER1
  6
Continuous
 62
     7
100
AcDbLine
 10
423.840319
 20
190.945347
 30
0.0
 11
451.449767
 21
218.554795
 31
0.0
  0
LINE
  5
30E
330
30B
100
AcDbEntity
  8
CSLAYER1
  6
Continuous
 62
     7
100
AcDbLine
 10
422.278498
 20
191.504847
 30
0.0
 11
450.890268
 21
220.116616
 31
0.0
  0
LINE
  5
30F
330
30B
100
AcDbEntity
  8
CSLAYER1
  6
Continuous
 62
     7
100
AcDbLine
 10
420.809911
 20
192.15758
 30
0.0
 11
450.237535
 21
221.585204
 31
0.0
  0
LINE
  5
310
330
30B
100
AcDbEntity
  8
CSLAYER1
  6
Continuous
 62
     7
100
AcDbLine
 10
419.426966
 20
192.895956
 30
0.0
 11
449.499159
 21
222.968148
 31
0.0
  0
LINE
  5
311
330
30B
100
AcDbEntity
  8
CSLAYER1
  6
Continuous
 62
     7
100
AcDbLine
 10
418.124244
 20
193.714554
 30
0.0
 11
448.680561
 21
224.27087
 31
0.0
  0
LINE
  5
312
330
30B
100
AcDbEntity
  8
CSLAYER1
  6
Continuous
 62
     7
100
AcDbLine
 10
416.897972
 20
194.609602
 30
0.0
 11
447.785513
 21
225.497143
 31
0.0
  0
LINE
  5
313
330
30B
100
AcDbEntity
  8
CSLAYER1
  6
Continuous
 62
     7
100
AcDbLine
 10
415.745704
 20
195.578654
 30
0.0
 11
446.81646
 21
226.649411
 31
0.0
  0
LINE
  5
314
330
30B
100
AcDbEntity
  8
CSLAYER1
  6
Continuous
 62
     7
100
AcDbLine
 10
414.666133
 20
196.620404
 30
0.0
 11
445.774711
 21
227.728981
 31
0.0
  0
LINE
  5
315
330
30B
100
AcDbEntity
  8
CSLAYER1
  6
Continuous
 62
     7
100
AcDbLine
 10
413.658993
 20
197.734584
 30
0.0
 11
444.660531
 21
228.736121
 31
0.0
  0
LINE
  5
316
330
30B
100
AcDbEntity
  8
CSLAYER1
  6
Continuous
 62
     7
100
AcDbLine
 10
412.725041
 20
198.921952
 30
0.0
 11
443.473163
 21
229.670074
 31
0.0
  0
LINE
  5
317
330
30B
100
AcDbEntity
  8
CSLAYER1
  6
Continuous
 62
     7
100
AcDbLine
 10
411.866109
 20
200.18434
 30
0.0
 11
442.210774
 21
230.529006
 31
0.0
  0
LINE
  5
318
330
30B
100
AcDbEntity
  8
CSLAYER1
  6
Continuous
 62
     7
100
AcDbLine
 10
411.085246
 20
201.524798
 30
0.0
 11
440.870317
 21
231.309869
 31
0.0
  0
LINE
  5
319
330
30B
100
AcDbEntity
  8
CSLAYER1
  6
Continuous
 62
     7
100
AcDbLine
 10
410.386962
 20
202.947834
 30
0.0
 11
439.447281
 21
232.008153
 31
0.0
  0
LINE
  5
31A
330
30B
100
AcDbEntity
  8
CSLAYER1
  6
Continuous
 62
     7
100
AcDbLine
 10
409.777631
 20
204.459823
 30
0.0
 11
437.935291
 21
232.617484
 31
0.0
  0
LINE
  5
31B
330
30B
100
AcDbEntity
  8
CSLAYER1
  6
Continuous
 62
     7
100
AcDbLine
 10
409.266152
 20
206.069665
 30
0.0
 11
436.32545
 21
233.128963
 31
0.0
  0
LINE
  5
31C
330
30B
100
AcDbEntity
  8
CSLAYER1
  6
Continuous
 62
     7
100
AcDbLine
 10
408.017525
 20
206.942358
 30
0.0
 11
434.605235
 21
233.530068
 31
0.0
  0
LINE
  5
31D
330
30B
100
AcDbEntity
  8
CSLAYER1
  6
Continuous
 62
     7
100
AcDbLine
 10
406.34914
 20
207.395294
 30
0.0
 11
432.756585
 21
233.802739
 31
0.0
  0
LINE
  5
31E
330
30B
100
AcDbEntity
  8
CSLAYER1
  6
Continuous
 62
     7
100
AcDbLine
 10
405.081068
 20
208.248542
 30
0.0
 11
430.752275
 21
233.919749
 31
0.0
  0
LINE
  5
31F
330
30B
100
AcDbEntity
  8
CSLAYER1
  6
Continuous
 62
     7
100
AcDbLine
 10
404.139542
 20
209.428336
 30
0.0
 11
428.548314
 21
233.837109
 31
0.0
  0
LINE
  5
320
330
30B
100
AcDbEntity
  8
CSLAYER1
  6
Continuous
 62
     7
100
AcDbLine
 10
403.564149
 20
210.974263
 30
0.0
 11
426.065191
 21
233.475306
 31
0.0
  0
LINE
  5
321
330
30B
100
AcDbEntity
  8
CSLAYER1
  6
Continuous
 62
     7
100
AcDbLine
 10
403.629704
 20
213.161139
 30
0.0
 11
407.233975
 21
216.76541
 31
0.0
  0
LINE
  5
322
330
30B
100
AcDbEntity
  8
CSLAYER1
  6
Continuous
 62
     7
100
AcDbLine
 10
409.736397
 20
219.267832
 30
0.0
 11
423.127283
 21
232.658718
 31
0.0
  0
LINE
  5
323
330
30B
100
AcDbEntity
  8
CSLAYER1
  6
Continuous
 62
     7
100
AcDbLine
 10
411.640645
 20
223.2934
 30
0.0
 11
419.101714
 21
230.75447
 31
0.0
  0
LINE
  5
324
330
30B
100
AcDbEntity
  8
CSLAYER1
  6
Continuous
 62
     7
100
AcDbLine
 10
427.290605
 20
190.152993
 30
0.0
 11
453.862384
 21
216.724772
 31
0.0
  0
LINE
  5
325
330
30B
100
AcDbEntity
  8
CSLAYER1
  6
Continuous
 62
     7
100
AcDbLine
 10
429.216398
 20
189.957465
 30
0.0
 11
455.302932
 21
216.043999
 31
0.0
  0
LINE
  5
326
330
30B
100
AcDbEntity
  8
CSLAYER1
  6
Continuous
 62
     7
100
AcDbLine
 10
431.317977
 20
189.937724
 30
0.0
 11
456.398885
 21
215.018632
 31
0.0
  0
LINE
  5
327
330
30B
100
AcDbEntity
  8
CSLAYER1
  6
Continuous
 62
     7
100
AcDbLine
 10
433.654219
 20
190.152645
 30
0.0
 11
457.161618
 21
213.660045
 31
0.0
  0
LINE
  5
328
330
30B
100
AcDbEntity
  8
CSLAYER1
  6
Continuous
 62
     7
100
AcDbLine
 10
436.341355
 20
190.718461
 30
0.0
 11
451.676653
 21
206.053759
 31
0.0
  0
LINE
  5
329
330
30B
100
AcDbEntity
  8
CSLAYER1
  6
Continuous
 62
     7
100
AcDbLine
 10
452.544917
 20
206.922023
 30
0.0
 11
457.473092
 21
211.850198
 31
0.0
  0
LINE
  5
32A
330
30B
100
AcDbEntity
  8
CSLAYER1
  6
Continuous
 62
     7
100
AcDbLine
 10
439.688688
 20
191.944473
 30
0.0
 11
450.450641
 21
202.706427
 31
0.0
  0
ENDBLK
  5
32B
330
30B
100
AcDbEntity
  8
0
100
AcDbBlockEnd
  0
BLOCK
  5
32C
330
32D
100
AcDbEntity
  8
CSLAYER1
100
AcDbBlockBegin
  2
BLKF0004
 70
     0
 10
0.0
 20
0.0
 30
0.0
  3
BLKF0004
  1

  0
LINE
  5
32E
330
32D
100
AcDbEntity
  8
CSLAYER1
  6
Continuous
 62
     7
100
AcDbLine
 10
429.352703
 20
279.958508
 30
0.0
 11
447.436607
 21
298.042412
 31
0.0
  0
LINE
  5
32F
330
32D
100
AcDbEntity
  8
CSLAYER1
  6
Continuous
 62
     7
100
AcDbLine
 10
427.463078
 20
280.190204
 30
0.0
 11
447.204911
 21
299.932036
 31
0.0
  0
LINE
  5
330
330
32D
100
AcDbEntity
  8
CSLAYER1
  6
Continuous
 62
     7
100
AcDbLine
 10
425.744181
 20
280.592626
 30
0.0
 11
446.802489
 21
301.650934
 31
0.0
  0
LINE
  5
331
330
32D
100
AcDbEntity
  8
CSLAYER1
  6
Continuous
 62
     7
100
AcDbLine
 10
424.16545
 20
281.135215
 30
0.0
 11
446.259899
 21
303.229665
 31
0.0
  0
LINE
  5
332
330
32D
100
AcDbEntity
  8
CSLAYER1
  6
Continuous
 62
     7
100
AcDbLine
 10
422.707834
 20
281.79892
 30
0.0
 11
445.596195
 21
304.687281
 31
0.0
  0
LINE
  5
333
330
32D
100
AcDbEntity
  8
CSLAYER1
  6
Continuous
 62
     7
100
AcDbLine
 10
421.359033
 20
282.571439
 30
0.0
 11
444.823675
 21
306.036082
 31
0.0
  0
LINE
  5
334
330
32D
100
AcDbEntity
  8
CSLAYER1
  6
Continuous
 62
     7
100
AcDbLine
 10
420.111153
 20
283.44488
 30
0.0
 11
443.950235
 21
307.283962
 31
0.0
  0
LINE
  5
335
330
32D
100
AcDbEntity
  8
CSLAYER1
  6
Continuous
 62
     7
100
AcDbLine
 10
418.959474
 20
284.414521
 30
0.0
 11
442.980594
 21
308.435641
 31
0.0
  0
LINE
  5
336
330
32D
100
AcDbEntity
  8
CSLAYER1
  6
Continuous
 62
     7
100
AcDbLine
 10
417.901807
 20
285.478175
 30
0.0
 11
441.91694
 21
309.493307
 31
0.0
  0
LINE
  5
337
330
32D
100
AcDbEntity
  8
CSLAYER1
  6
Continuous
 62
     7
100
AcDbLine
 10
416.938225
 20
286.635913
 30
0.0
 11
440.759202
 21
310.45689
 31
0.0
  0
LINE
  5
338
330
32D
100
AcDbEntity
  8
CSLAYER1
  6
Continuous
 62
     7
100
AcDbLine
 10
416.071064
 20
287.890072
 30
0.0
 11
439.505042
 21
311.324051
 31
0.0
  0
LINE
  5
339
330
32D
100
AcDbEntity
  8
CSLAYER1
  6
Continuous
 62
     7
100
AcDbLine
 10
415.305225
 20
289.245553
 30
0.0
 11
438.149561
 21
312.08989
 31
0.0
  0
LINE
  5
33A
330
32D
100
AcDbEntity
  8
CSLAYER1
  6
Continuous
 62
     7
100
AcDbLine
 10
414.648837
 20
290.710486
 30
0.0
 11
436.684629
 21
312.746277
 31
0.0
  0
LINE
  5
33B
330
32D
100
AcDbEntity
  8
CSLAYER1
  6
Continuous
 62
     7
100
AcDbLine
 10
414.114547
 20
292.297516
 30
0.0
 11
435.097599
 21
313.280568
 31
0.0
  0
LINE
  5
33C
330
32D
100
AcDbEntity
  8
CSLAYER1
  6
Continuous
 62
     7
100
AcDbLine
 10
413.72196
 20
294.02625
 30
0.0
 11
433.368865
 21
313.673154
 31
0.0
  0
LINE
  5
33D
330
32D
100
AcDbEntity
  8
CSLAYER1
  6
Continuous
 62
     7
100
AcDbLine
 10
413.502642
 20
295.928252
 30
0.0
 11
431.466863
 21
313.892473
 31
0.0
  0
LINE
  5
33E
330
32D
100
AcDbEntity
  8
CSLAYER1
  6
Continuous
 62
     7
100
AcDbLine
 10
413.511671
 20
298.058602
 30
0.0
 11
429.336513
 21
313.883443
 31
0.0
  0
LINE
  5
33F
330
32D
100
AcDbEntity
  8
CSLAYER1
  6
Continuous
 62
     7
100
AcDbLine
 10
413.860779
 20
300.52903
 30
0.0
 11
426.866085
 21
313.534336
 31
0.0
  0
LINE
  5
340
330
32D
100
AcDbEntity
  8
CSLAYER1
  6
Continuous
 62
     7
100
AcDbLine
 10
414.862886
 20
303.652457
 30
0.0
 11
423.742658
 21
312.532229
 31
0.0
  0
LINE
  5
341
330
32D
100
AcDbEntity
  8
CSLAYER1
  6
Continuous
 62
     7
100
AcDbLine
 10
431.466022
 20
279.950507
 30
0.0
 11
447.444608
 21
295.929092
 31
0.0
  0
LINE
  5
342
330
32D
100
AcDbEntity
  8
CSLAYER1
  6
Continuous
 62
     7
100
AcDbLine
 10
433.909107
 20
280.272271
 30
0.0
 11
447.122843
 21
293.486007
 31
0.0
  0
LINE
  5
343
330
32D
100
AcDbEntity
  8
CSLAYER1
  6
Continuous
 62
     7
100
AcDbLine
 10
436.969835
 20
281.211679
 30
0.0
 11
446.183436
 21
290.42528
 31
0.0
  0
ENDBLK
  5
344
330
32D
100
AcDbEntity
  8
0
100
AcDbBlockEnd
  0
BLOCK
  5
8E4
330
8BE
100
AcDbEntity
  8
0
100
AcDbBlockBegin
  2
A780138
 70
     0
 10
0.0
 20
0.0
 30
0.0
  3
A780138
  1

  0
TEXT
  5
8E3
330
8BE
100
AcDbEntity
  8
CSLAYER1
 62
     7
100
AcDbText
 10
-0.5
 20
0.0
 30
0.0
 40
4.0
  1
H
 41
0.75
  7
FX_FONT
 72
     5
 11
2.0
 21
0.0
 31
0.0
100
AcDbText
  0
ENDBLK
  5
8E5
330
8BE
100
AcDbEntity
  8
0
100
AcDbBlockEnd
  0
BLOCK
  5
90E
330
8E8
100
AcDbEntity
  8
0
100
AcDbBlockBegin
  2
A7800A8
 70
     0
 10
0.0
 20
0.0
 30
0.0
  3
A7800A8
  1

  0
TEXT
  5
90D
330
8E8
100
AcDbEntity
  8
CSLAYER1
 62
     7
100
AcDbText
 10
4.0
 20
-0.5
 30
0.0
 40
4.0
  1
D
 50
90.0
 41
0.75
  7
FX_FONT
 72
     5
 11
4.0
 21
2.0
 31
0.0
100
AcDbText
  0
ENDBLK
  5
90F
330
8E8
100
AcDbEntity
  8
0
100
AcDbBlockEnd
  0
BLOCK
  5
93E
330
918
100
AcDbEntity
  8
0
100
AcDbBlockBegin
  2
A7800E8
 70
     0
 10
0.0
 20
0.0
 30
0.0
  3
A7800E8
  1

  0
TEXT
  5
93D
330
918
100
AcDbEntity
  8
CSLAYER1
 62
     7
100
AcDbText
 10
-0.435287289611
 20
0.0
 30
0.0
 40
4.0
  1
35~50
 41
0.652930934417
  7
FX_FONT
 72
     5
 11
12.064712710389
 21
0.0
 31
0.0
100
AcDbText
  0
ENDBLK
  5
93F
330
918
100
AcDbEntity
  8
0
100
AcDbBlockEnd
  0
BLOCK
  5
968
330
942
100
AcDbEntity
  8
0
100
AcDbBlockBegin
  2
A7800F8
 70
     0
 10
0.0
 20
0.0
 30
0.0
  3
A7800F8
  1

  0
TEXT
  5
967
330
942
100
AcDbEntity
  8
CSLAYER1
 62
     7
100
AcDbText
 10
-0.6
 20
0.0
 30
0.0
 40
4.0
  1
D
 41
0.9
  7
FX_FONT
 72
     5
 11
2.4
 21
0.0
 31
0.0
100
AcDbText
  0
ENDBLK
  5
969
330
942
100
AcDbEntity
  8
0
100
AcDbBlockEnd
  0
BLOCK
  5
993
330
96C
100
AcDbEntity
  8
0
100
AcDbBlockBegin
  2
A7800D8
 70
     0
 10
0.0
 20
0.0
 30
0.0
  3
A7800D8
  1

  0
TEXT
  5
991
330
96C
100
AcDbEntity
  8
CSLAYER1
 62
     7
100
AcDbText
 10
-0.6
 20
0.0
 30
0.0
 40
4.0
  1
H
 41
0.9
  7
FX_FONT
 72
     5
 11
2.4
 21
0.0
 31
0.0
100
AcDbText
  0
TEXT
  5
992
330
96C
100
AcDbEntity
  8
CSLAYER1
 62
     7
100
AcDbText
 10
14.4
 20
0.0
 30
0.0
 40
4.0
  1
D
 41
0.9
  7
FX_FONT
 72
     5
 11
17.4
 21
0.0
 31
0.0
100
AcDbText
  0
ENDBLK
  5
994
330
96C
100
AcDbEntity
  8
0
100
AcDbBlockEnd
  0
BLOCK
  5
9E9
330
9C3
100
AcDbEntity
  8
0
100
AcDbBlockBegin
  2
A7800C8
 70
     0
 10
0.0
 20
0.0
 30
0.0
  3
A7800C8
  1

  0
TEXT
  5
9E8
330
9C3
100
AcDbEntity
  8
CSLAYER1
 62
     7
100
AcDbText
 10
0.0
 20
0.0
 30
0.0
 40
5.0
  1
扉　厚
 41
0.72
  7
FX_FONT
 72
     5
 11
12.0
 21
0.0
 31
0.0
100
AcDbText
  0
ENDBLK
  5
9EA
330
9C3
100
AcDbEntity
  8
0
100
AcDbBlockEnd
  0
BLOCK
  5
A14
330
9EE
100
AcDbEntity
  8
0
100
AcDbBlockBegin
  2
A780178
 70
     0
 10
0.0
 20
0.0
 30
0.0
  3
A780178
  1

  0
TEXT
  5
A13
330
9EE
100
AcDbEntity
  8
CSLAYER1
100
AcDbText
 10
0.0
 20
0.0
 30
0.0
 40
4.0
  1
高さ（H)
 41
0.7
  7
FX_FONT
100
AcDbText
  0
ENDBLK
  5
A15
330
9EE
100
AcDbEntity
  8
0
100
AcDbBlockEnd
  0
BLOCK
  5
A3F
330
A18
100
AcDbEntity
  8
0
100
AcDbBlockBegin
  2
A780188
 70
     0
 10
0.0
 20
0.0
 30
0.0
  3
A780188
  1

  0
TEXT
  5
A3D
330
A18
100
AcDbEntity
  8
CSLAYER1
100
AcDbText
 10
0.0
 20
0.0
 30
0.0
 40
4.0
  1
高さ（H)
 41
0.6
  7
FX_FONT
100
AcDbText
  0
TEXT
  5
A3E
330
A18
100
AcDbEntity
  8
CSLAYER1
100
AcDbText
 10
14.758595566247
 20
0.130772365777
 30
0.0
 40
4.0
  1
直径（D)
 41
0.6
  7
FX_FONT
100
AcDbText
  0
ENDBLK
  5
A40
330
A18
100
AcDbEntity
  8
0
100
AcDbBlockEnd
  0
BLOCK
  5
ABA
330
A42
100
AcDbEntity
  8
0
100
AcDbBlockBegin
  2
14F00270
 70
     0
 10
0.0
 20
0.0
 30
0.0
  3
14F00270
  1

  0
CIRCLE
  5
A6F
330
A42
100
AcDbEntity
  8
0
100
AcDbCircle
 10
12.0
 20
20.740521736559
 30
0.0
 40
12.0
  0
CIRCLE
  5
A70
330
A42
100
AcDbEntity
  8
0
100
AcDbCircle
 10
12.0
 20
20.740521736559
 30
0.0
 40
7.5
  0
LINE
  5
A71
330
A42
100
AcDbEntity
  8
0
100
AcDbLine
 10
118.0
 20
32.740521736559
 30
0.0
 11
118.5
 21
32.740521736559
 31
0.0
  0
LINE
  5
A72
330
A42
100
AcDbEntity
  8
0
100
AcDbLine
 10
118.0
 20
8.740521736559
 30
0.0
 11
118.5
 21
8.740521736559
 31
0.0
  0
LINE
  5
A73
330
A42
100
AcDbEntity
  8
0
100
AcDbLine
 10
113.5
 20
13.240521736559
 30
0.0
 11
113.5
 21
28.240521736559
 31
0.0
  0
ARC
  5
A74
330
A42
100
AcDbEntity
  8
0
100
AcDbCircle
 10
118.0
 20
28.240521736559
 30
0.0
 40
4.5
100
AcDbArc
 50
90.0
 51
180.0
  0
ARC
  5
A75
330
A42
100
AcDbEntity
  8
0
100
AcDbCircle
 10
118.0
 20
13.240521736559
 30
0.0
 40
4.5
100
AcDbArc
 50
180.0
 51
270.0
  0
LINE
  5
A76
330
A42
100
AcDbEntity
  8
0
100
AcDbLine
 10
12.0
 20
32.740521736559
 30
0.0
 11
118.522356066671
 21
32.740521736559
 31
0.0
  0
LINE
  5
A77
330
A42
100
AcDbEntity
  8
0
100
AcDbLine
 10
12.0
 20
8.740521736559
 30
0.0
 11
118.51610362489
 21
8.740521736559
 31
0.0
  0
ARC
  5
A78
330
A42
100
AcDbEntity
  8
0
100
AcDbCircle
 10
12.0
 20
20.740521736559
 30
0.0
 40
7.95
100
AcDbArc
 50
90.0
 51
167.120951966205
  0
LWPOLYLINE
  5
A86
330
A42
100
AcDbEntity
  8
0
100
AcDbPolyline
 90
        4
 70
     1
 43
0.0
 10
7.95
 20
24.790521736559
 10
16.05
 20
24.790521736559
 10
16.05
 20
16.690521736559
 10
7.95
 20
16.690521736559
  0
LINE
  5
A9B
330
A42
100
AcDbEntity
  8
0
100
AcDbLine
 10
4.25
 20
22.512526251227
 30
0.0
 11
4.25
 21
18.968517221893
 31
0.0
  0
LINE
  5
A9C
330
A42
100
AcDbEntity
  8
0
100
AcDbLine
 10
19.75
 20
22.512526251226
 30
0.0
 11
19.75
 21
18.968517221893
 31
0.0
  0
ARC
  5
A9D
330
A42
100
AcDbEntity
  8
0
100
AcDbCircle
 10
12.0
 20
20.740521736559
 30
0.0
 40
7.95
100
AcDbArc
 50
192.879048033795
 51
270.0
  0
ARC
  5
A9E
330
A42
100
AcDbEntity
  8
0
100
AcDbCircle
 10
12.0
 20
20.740521736559
 30
0.0
 40
7.95
100
AcDbArc
 50
12.879048033794
 51
90.0
  0
ARC
  5
A9F
330
A42
100
AcDbEntity
  8
0
100
AcDbCircle
 10
12.0
 20
20.740521736559
 30
0.0
 40
7.95
100
AcDbArc
 50
270.0
 51
347.120951966206
  0
ARC
  5
AA0
330
A42
100
AcDbEntity
  8
0
100
AcDbCircle
 10
-156.87864017608
 20
20.855315679825
 30
0.0
 40
280.0
100
AcDbArc
 50
358.416148361909
 51
1.536086504096
  0
ARC
  5
AA1
330
A42
100
AcDbEntity
  8
0
100
AcDbCircle
 10
118.522356066671
 20
28.240521736559
 30
0.0
 40
4.5
100
AcDbArc
 50
1.536086504096
 51
90.0
  0
ARC
  5
AA2
330
A42
100
AcDbEntity
  8
0
100
AcDbCircle
 10
118.51610362489
 20
13.240521736559
 30
0.0
 40
4.5
100
AcDbArc
 50
270.0
 51
358.416148361909
  0
ENDBLK
  5
ABB
330
A42
100
AcDbEntity
  8
0
100
AcDbBlockEnd
  0
BLOCK
  5
AC2
330
AA4
100
AcDbEntity
  8
0
100
AcDbBlockBegin
  2
ACB0128
 70
     0
 10
0.0
 20
0.0
 30
0.0
  3
ACB0128
  1

  0
ENDBLK
  5
AC3
330
AA4
100
AcDbEntity
  8
0
100
AcDbBlockEnd
  0
BLOCK
  5
BAC
330
B40
100
AcDbEntity
  8
0
100
AcDbBlockBegin
  2
14F00150
 70
     0
 10
0.0
 20
0.0
 30
0.0
  3
14F00150
  1

  0
ENDBLK
  5
BAD
330
B40
100
AcDbEntity
  8
0
100
AcDbBlockEnd
  0
BLOCK
  5
BAE
330
B4B
100
AcDbEntity
  8
0
100
AcDbBlockBegin
  2
_Open30
 70
     0
 10
0.0
 20
0.0
 30
0.0
  3
_Open30
  1

  0
LINE
  5
B4D
330
B4B
100
AcDbEntity
  8
0
  6
ByBlock
 62
     0
370
    -2
100
AcDbLine
 10
-1.0
 20
0.26794919
 30
0.0
 11
0.0
 21
0.0
 31
0.0
  0
LINE
  5
B4E
330
B4B
100
AcDbEntity
  8
0
  6
ByBlock
 62
     0
370
    -2
100
AcDbLine
 10
0.0
 20
0.0
 30
0.0
 11
-1.0
 21
-0.26794919
 31
0.0
  0
LINE
  5
B4F
330
B4B
100
AcDbEntity
  8
0
  6
ByBlock
 62
     0
370
    -2
100
AcDbLine
 10
0.0
 20
0.0
 30
0.0
 11
-1.0
 21
0.0
 31
0.0
  0
ENDBLK
  5
BAF
330
B4B
100
AcDbEntity
  8
0
100
AcDbBlockEnd
  0
BLOCK
  5
BB0
330
B85
100
AcDbEntity
  8
0
100
AcDbBlockBegin
  2
_DotSmall
 70
     0
 10
0.0
 20
0.0
 30
0.0
  3
_DotSmall
  1

  0
LWPOLYLINE
  5
B87
330
B85
100
AcDbEntity
  8
0
  6
ByBlock
 62
     0
100
AcDbPolyline
 90
        2
 70
     1
 43
0.5
 10
-0.0625
 20
0.0
 42
1.0
 10
0.0625
 20
0.0
 42
1.0
  0
ENDBLK
  5
BB1
330
B85
100
AcDbEntity
  8
0
100
AcDbBlockEnd
  0
BLOCK
  5
C67
330
BEF
100
AcDbEntity
  8
0
100
AcDbBlockBegin
  2
14F001D0
 70
     0
 10
0.0
 20
0.0
 30
0.0
  3
14F001D0
  1

  0
CIRCLE
  5
C21
330
BEF
100
AcDbEntity
  8
CSLAYER1
  6
Continuous
 62
     2
100
AcDbCircle
 10
18.647989539797
 20
71.954496
 30
0.0
 40
5.0
  0
LINE
  5
C33
330
BEF
100
AcDbEntity
  8
CSLAYER1
  6
Continuous
 62
     7
100
AcDbLine
 10
53.246026
 20
107.001333
 30
0.0
 11
53.246026
 21
124.501333
 31
0.0
  0
TEXT
  5
C5F
330
BEF
100
AcDbEntity
  8
CSLAYER1
 62
     7
100
AcDbText
 10
15.947885448218
 20
70.217508
 30
0.0
 40
3.2
  1
15
 41
1.090909090909
  7
FX_FONT
 72
     5
 11
22.347885448218
 21
70.217508
 31
0.0
100
AcDbText
  0
TEXT
  5
C60
330
BEF
100
AcDbEntity
  8
CSLAYER1
 62
     7
100
AcDbText
 10
42.638356632684
 20
136.477275176825
 30
0.0
 40
3.2
  1
9
 41
1.142421743712
  7
FX_FONT
 72
     5
 11
45.686507092572
 21
136.477275176825
 31
0.0
100
AcDbText
  0
CIRCLE
  5
C61
330
BEF
100
AcDbEntity
  8
CSLAYER1
  6
Continuous
 62
     2
100
AcDbCircle
 10
44.342121382245
 20
138.214263176825
 30
0.0
 40
5.0
  0
ENDBLK
  5
C68
330
BEF
100
AcDbEntity
  8
0
100
AcDbBlockEnd
  0
BLOCK
  5
D38
330
D06
100
AcDbEntity
  8
0
100
AcDbBlockBegin
  2
14F001B0
 70
     0
 10
0.0
 20
0.0
 30
0.0
  3
14F001B0
  1

  0
LINE
  5
D2D
330
D06
100
AcDbEntity
  8
CSLAYER1
  6
Continuous
 62
     7
100
AcDbLine
 10
14.0
 20
0.0
 30
0.0
 11
14.0
 21
51.561558
 31
0.0
  0
TEXT
  5
D2E
330
D06
100
AcDbEntity
  8
CSLAYER1
 62
     7
100
AcDbText
 10
4.500002
 20
1.999998
 30
0.0
 40
4.0
  1
14
 41
0.681818181818
  7
FX_FONT
 72
     5
 11
9.500002
 21
1.999998
 31
0.0
100
AcDbText
  0
LINE
  5
D2F
330
D06
100
AcDbEntity
  8
CSLAYER1
  6
Continuous
 62
     7
100
AcDbLine
 10
0.0
 20
16.0
 30
0.0
 11
0.0
 21
0.059536
 31
0.0
  0
LINE
  5
D30
330
D06
100
AcDbEntity
  8
CSLAYER1
  6
Continuous
 62
     7
100
AcDbLine
 10
0.0
 20
1.0
 30
0.0
 11
14.0
 21
1.0
 31
0.0
  0
LINE
  5
D31
330
D06
100
AcDbEntity
  8
CSLAYER1
  6
Continuous
 62
     7
100
AcDbLine
 10
0.0
 20
1.0
 30
0.0
 11
1.98289
 21
1.261053
 31
0.0
  0
LINE
  5
D32
330
D06
100
AcDbEntity
  8
CSLAYER1
  6
Continuous
 62
     7
100
AcDbLine
 10
0.0
 20
1.0
 30
0.0
 11
1.98289
 21
0.738948
 31
0.0
  0
LINE
  5
D33
330
D06
100
AcDbEntity
  8
CSLAYER1
  6
Continuous
 62
     7
100
AcDbLine
 10
14.0
 20
1.0
 30
0.0
 11
12.017111
 21
1.261053
 31
0.0
  0
LINE
  5
D34
330
D06
100
AcDbEntity
  8
CSLAYER1
  6
Continuous
 62
     7
100
AcDbLine
 10
14.0
 20
1.0
 30
0.0
 11
12.017111
 21
0.738948
 31
0.0
  0
LINE
  5
D35
330
D06
100
AcDbEntity
  8
CSLAYER1
  6
Continuous
 62
     7
100
AcDbLine
 10
9.0
 20
1.0
 30
0.0
 11
14.0
 21
1.0
 31
0.0
  0
LINE
  5
D36
330
D06
100
AcDbEntity
  8
CSLAYER1
  6
Continuous
 62
     7
100
AcDbLine
 10
14.0
 20
1.0
 30
0.0
 11
12.017111
 21
1.261053
 31
0.0
  0
LINE
  5
D37
330
D06
100
AcDbEntity
  8
CSLAYER1
  6
Continuous
 62
     7
100
AcDbLine
 10
14.0
 20
1.0
 30
0.0
 11
12.017111
 21
0.738948
 31
0.0
  0
ENDBLK
  5
D39
330
D06
100
AcDbEntity
  8
0
100
AcDbBlockEnd
  0
BLOCK
  5
D6D
330
D46
100
AcDbEntity
  8
0
100
AcDbBlockBegin
  2
A7800B8
 70
     0
 10
0.0
 20
0.0
 30
0.0
  3
A7800B8
  1

  0
LINE
  5
D6C
330
D46
100
AcDbEntity
  8
CSLAYER1
  6
Continuous
 62
     7
100
AcDbLine
 10
0.0
 20
0.0
 30
0.0
 11
0.0
 21
51.561558
 31
0.0
  0
ENDBLK
  5
D6E
330
D46
100
AcDbEntity
  8
0
100
AcDbBlockEnd
  0
BLOCK
  5
D99
330
D71
100
AcDbEntity
  8
0
100
AcDbBlockBegin
  2
A780198
 70
     0
 10
0.0
 20
0.0
 30
0.0
  3
A780198
  1

  0
TEXT
  5
D98
330
D71
100
AcDbEntity
  8
CSLAYER1
 62
     7
100
AcDbText
 10
4.0
 20
-0.5
 30
0.0
 40
4.0
  1
6
 50
90.0
 41
0.75
  7
FX_FONT
 72
     5
 11
4.0
 21
2.0
 31
0.0
100
AcDbText
  0
ENDBLK
  5
D9A
330
D71
100
AcDbEntity
  8
0
100
AcDbBlockEnd
  0
BLOCK
  5
DD1
330
DA8
100
AcDbEntity
  8
0
100
AcDbBlockBegin
  2
A7801A8
 70
     0
 10
0.0
 20
0.0
 30
0.0
  3
A7801A8
  1

  0
TEXT
  5
DD0
330
DA8
100
AcDbEntity
  8
CSLAYER1
 62
     7
100
AcDbText
 10
-0.393356643357
 20
0.0
 30
0.0
 40
4.0
  1
2-4mmネジ用穴
 41
0.590034965035
  7
FX_FONT
 72
     5
 11
22.106643356643
 21
0.0
 31
0.0
100
AcDbText
  0
ENDBLK
  5
DD2
330
DA8
100
AcDbEntity
  8
0
100
AcDbBlockEnd
  0
BLOCK
  5
E16
330
DE5
100
AcDbEntity
  8
0
100
AcDbBlockBegin
  2
14F002F0
 70
     0
 10
0.0
 20
0.0
 30
0.0
  3
14F002F0
  1

  0
LINE
  5
E0C
330
DE5
100
AcDbEntity
  8
CSLAYER10
  6
Continuous
 62
     7
100
AcDbLine
 10
4.999998
 20
1.982889
 30
0.0
 11
4.738946
 21
0.0
 31
0.0
  0
LINE
  5
E0D
330
DE5
100
AcDbEntity
  8
CSLAYER10
  6
Continuous
 62
     7
100
AcDbLine
 10
4.999998
 20
1.982889
 30
0.0
 11
5.261051
 21
0.0
 31
0.0
  0
LINE
  5
E0E
330
DE5
100
AcDbEntity
  8
CSLAYER10
  6
Continuous
 62
     7
100
AcDbLine
 10
18.999998
 20
1.982889
 30
0.0
 11
3.834691
 21
1.982889
 31
0.0
  0
TEXT
  5
E0F
330
DE5
100
AcDbEntity
  8
CSLAYER10
 62
     7
100
AcDbText
 10
4.0
 20
3.732887
 30
0.0
 40
4.0
  1
6
 50
90.0
 41
0.75
  7
FX_FONT
 72
     5
 11
4.0
 21
6.232887
 31
0.0
100
AcDbText
  0
LINE
  5
E10
330
DE5
100
AcDbEntity
  8
CSLAYER10
  6
Continuous
 62
     7
100
AcDbLine
 10
18.999998
 20
7.982889
 30
0.0
 11
3.999998
 21
7.982889
 31
0.0
  0
LINE
  5
E11
330
DE5
100
AcDbEntity
  8
CSLAYER10
  6
Continuous
 62
     7
100
AcDbLine
 10
4.999998
 20
1.982889
 30
0.0
 11
4.999998
 21
7.982889
 31
0.0
  0
LINE
  5
E12
330
DE5
100
AcDbEntity
  8
CSLAYER10
  6
Continuous
 62
     7
100
AcDbLine
 10
4.999998
 20
1.982889
 30
0.0
 11
4.738946
 21
3.965779
 31
0.0
  0
LINE
  5
E13
330
DE5
100
AcDbEntity
  8
CSLAYER10
  6
Continuous
 62
     7
100
AcDbLine
 10
4.999998
 20
1.982889
 30
0.0
 11
5.261051
 21
3.965779
 31
0.0
  0
LINE
  5
E14
330
DE5
100
AcDbEntity
  8
CSLAYER10
  6
Continuous
 62
     7
100
AcDbLine
 10
4.999998
 20
7.982889
 30
0.0
 11
4.738946
 21
6.0
 31
0.0
  0
LINE
  5
E15
330
DE5
100
AcDbEntity
  8
CSLAYER10
  6
Continuous
 62
     7
100
AcDbLine
 10
4.999998
 20
7.982889
 30
0.0
 11
5.261051
 21
6.0
 31
0.0
  0
ENDBLK
  5
E17
330
DE5
100
AcDbEntity
  8
0
100
AcDbBlockEnd
  0
BLOCK
  5
EBB
330
E94
100
AcDbEntity
  8
0
100
AcDbBlockBegin
  2
14F00330
 70
     0
 10
0.0
 20
0.0
 30
0.0
  3
14F00330
  1

  0
TEXT
  5
EB9
330
E94
100
AcDbEntity
  8
CSLAYER1
 62
     3
100
AcDbText
 10
-0.517863448276
 20
5.574837
 30
0.0
 40
2.797103
  1
SHOWA
 41
1.110856729143
  7
FX_FONT
 72
     5
 11
14.500176551724
 21
5.574837
 31
0.0
100
AcDbText
  0
TEXT
  5
EBA
330
E94
100
AcDbEntity
  8
CSLAYER1
 62
     3
100
AcDbText
 10
3.147223551724
 20
0.0
 30
0.0
 40
4.0
  1
ECH
 41
0.661764705882
  7
FX_FONT
 72
     5
 11
10.647223551724
 21
0.0
 31
0.0
100
AcDbText
  0
ENDBLK
  5
EBC
330
E94
100
AcDbEntity
  8
0
100
AcDbBlockEnd
  0
BLOCK
  5
F22
330
EFA
100
AcDbEntity
  8
0
100
AcDbBlockBegin
  2
A780128
 70
     0
 10
0.0
 20
0.0
 30
0.0
  3
A780128
  1

  0
TEXT
  5
F1F
330
EFA
100
AcDbEntity
  8
CSLAYER1
 62
     3
100
AcDbText
 10
-0.517863448276
 20
153.503494
 30
0.0
 40
2.797103
  1
SHOWA
 41
1.110856729143
  7
FX_FONT
 72
     5
 11
14.500176551724
 21
153.503494
 31
0.0
100
AcDbText
  0
TEXT
  5
F20
330
EFA
100
AcDbEntity
  8
CSLAYER1
 62
     3
100
AcDbText
 10
3.147223551724
 20
147.928657
 30
0.0
 40
4.0
  1
ECH
 41
0.661764705882
  7
FX_FONT
 72
     5
 11
10.647223551724
 21
147.928657
 31
0.0
100
AcDbText
  0
LINE
  5
F21
330
EFA
100
AcDbEntity
  8
CSLAYER1
100
AcDbLine
 10
6.897218551724
 20
196.6
 30
0.0
 11
6.897218551724
 21
0.0
 31
0.0
  0
ENDBLK
  5
F23
330
EFA
100
AcDbEntity
  8
0
100
AcDbBlockEnd
  0
BLOCK
  5
F57
330
F28
100
AcDbEntity
  8
0
100
AcDbBlockBegin
  2
A780118
 70
     0
 10
0.0
 20
0.0
 30
0.0
  3
A780118
  1

  0
TEXT
  5
F4F
330
F28
100
AcDbEntity
  8
CSLAYER10
 62
     7
100
AcDbText
 10
4.500005
 20
2.000003
 30
0.0
 40
4.0
  1
14
 41
0.681818181818
  7
FX_FONT
 72
     5
 11
9.500005
 21
2.000003
 31
0.0
100
AcDbText
  0
LINE
  5
F50
330
F28
100
AcDbEntity
  8
CSLAYER10
  6
Continuous
 62
     7
100
AcDbLine
 10
0.0
 20
15.460164
 30
0.0
 11
0.0
 21
0.0
 31
0.0
  0
LINE
  5
F51
330
F28
100
AcDbEntity
  8
CSLAYER10
  6
Continuous
 62
     7
100
AcDbLine
 10
14.0
 20
15.460164
 30
0.0
 11
14.0
 21
0.0
 31
0.0
  0
LINE
  5
F52
330
F28
100
AcDbEntity
  8
CSLAYER10
  6
Continuous
 62
     7
100
AcDbLine
 10
0.0
 20
1.0
 30
0.0
 11
14.0
 21
1.0
 31
0.0
  0
LINE
  5
F53
330
F28
100
AcDbEntity
  8
CSLAYER10
  6
Continuous
 62
     7
100
AcDbLine
 10
0.0
 20
1.0
 30
0.0
 11
1.982889
 21
1.261052
 31
0.0
  0
LINE
  5
F54
330
F28
100
AcDbEntity
  8
CSLAYER10
  6
Continuous
 62
     7
100
AcDbLine
 10
0.0
 20
1.0
 30
0.0
 11
1.982889
 21
0.738948
 31
0.0
  0
LINE
  5
F55
330
F28
100
AcDbEntity
  8
CSLAYER10
  6
Continuous
 62
     7
100
AcDbLine
 10
14.0
 20
1.0
 30
0.0
 11
12.01711
 21
1.261052
 31
0.0
  0
LINE
  5
F56
330
F28
100
AcDbEntity
  8
CSLAYER10
  6
Continuous
 62
     7
100
AcDbLine
 10
14.0
 20
1.0
 30
0.0
 11
12.01711
 21
0.738948
 31
0.0
  0
ENDBLK
  5
F58
330
F28
100
AcDbEntity
  8
0
100
AcDbBlockEnd
  0
BLOCK
  5
F8B
330
F63
100
AcDbEntity
  8
0
100
AcDbBlockBegin
  2
A780108
 70
     0
 10
0.0
 20
0.0
 30
0.0
  3
A780108
  1

  0
TEXT
  5
F8A
330
F63
100
AcDbEntity
  8
CSLAYER10
 62
     7
100
AcDbText
 10
-0.326086956522
 20
0.0
 30
0.0
 40
4.0
  1
X・NXキーシリンダー
 41
0.489130434783
  7
FX_FONT
 72
     5
 11
23.673913043478
 21
0.0
 31
0.0
100
AcDbText
  0
ENDBLK
  5
F8C
330
F63
100
AcDbEntity
  8
0
100
AcDbBlockEnd
  0
BLOCK
  5
FB9
330
F91
100
AcDbEntity
  8
0
100
AcDbBlockBegin
  2
A780168
 70
     0
 10
0.0
 20
0.0
 30
0.0
  3
A780168
  1

  0
TEXT
  5
FB8
330
F91
100
AcDbEntity
  8
CSLAYER10
 62
     7
100
AcDbText
 10
-0.53778588857
 20
0.0
 30
0.0
 40
4.0
  1
A=43.5
 41
0.806678832855
  7
FX_FONT
 72
     5
 11
18.284720211372
 21
0.0
 31
0.0
100
AcDbText
  0
ENDBLK
  5
FBA
330
F91
100
AcDbEntity
  8
0
100
AcDbBlockEnd
  0
ENDSEC
  0
SECTION
  2
ENTITIES
  0
LINE
  5
396
330
1D
100
AcDbEntity
  8
CSLAYER10
  6
Continuous
100
AcDbLine
 10
87.183709
 20
77.819404
 30
0.0
 11
187.639416092036
 21
77.819404
 31
0.0
  0
LINE
  5
398
330
1D
100
AcDbEntity
  8
CSLAYER10
  6
Continuous
100
AcDbLine
 10
87.183709
 20
20.819404
 30
0.0
 11
188.811008583043
 21
20.819404
 31
0.0
  0
LINE
  5
39A
330
1D
100
AcDbEntity
  8
CSLAYER1
  6
Continuous
100
AcDbLine
 10
88.318299
 20
132.721514
 30
0.0
 11
65.320433
 21
132.721514
 31
0.0
  0
LINE
  5
39B
330
1D
100
AcDbEntity
  8
CSLAYER1
  6
Continuous
100
AcDbLine
 10
64.820433
 20
133.221514
 30
0.0
 11
64.820433
 21
150.721514
 31
0.0
  0
LINE
  5
39C
330
1D
100
AcDbEntity
  8
CSLAYER1
  6
Continuous
100
AcDbLine
 10
64.820433
 20
150.221514
 30
0.0
 11
88.820433
 21
150.221514
 31
0.0
  0
LINE
  5
39D
330
1D
100
AcDbEntity
  8
CSLAYER1
  6
Continuous
100
AcDbLine
 10
88.820433
 20
150.721514
 30
0.0
 11
88.818299
 21
133.183702
 31
0.0
  0
ARC
  5
39E
330
1D
100
AcDbEntity
  8
CSLAYER1
  6
Continuous
100
AcDbCircle
 10
88.318299
 20
133.221514
 30
0.0
 40
0.5
100
AcDbArc
 50
270.0
 51
0.0
  0
LINE
  5
39F
330
1D
100
AcDbEntity
  8
CSLAYER1
  6
Continuous
100
AcDbLine
 10
80.320433
 20
150.221514
 30
0.0
 11
80.320433
 21
150.721514
 31
0.0
  0
LINE
  5
3A0
330
1D
100
AcDbEntity
  8
CSLAYER1
  6
Continuous
100
AcDbLine
 10
73.320433
 20
150.721514
 30
0.0
 11
73.320433
 21
150.221514
 31
0.0
  0
LINE
  5
3A1
330
1D
100
AcDbEntity
  8
CSLAYER1
  6
Continuous
100
AcDbLine
 10
63.093886
 20
150.721514
 30
0.0
 11
63.093886
 21
152.721514
 31
0.0
  0
LINE
  5
3A2
330
1D
100
AcDbEntity
  8
CSLAYER1
  6
Continuous
100
AcDbLine
 10
63.093886
 20
152.721514
 30
0.0
 11
100.320433
 21
152.721514
 31
0.0
  0
LINE
  5
3A3
330
1D
100
AcDbEntity
  8
CSLAYER1
  6
Continuous
100
AcDbLine
 10
102.320433
 20
150.721514
 30
0.0
 11
63.093886
 21
150.721514
 31
0.0
  0
ARC
  5
3A4
330
1D
100
AcDbEntity
  8
CSLAYER1
  6
Continuous
100
AcDbCircle
 10
65.320433
 20
133.221514
 30
0.0
 40
0.5
100
AcDbArc
 50
180.0
 51
270.0
  0
ARC
  5
3A5
330
1D
100
AcDbEntity
  8
CSLAYER1
  6
Continuous
100
AcDbCircle
 10
100.320433
 20
150.721514
 30
0.0
 40
2.0
100
AcDbArc
 50
0.0
 51
90.0
  0
LINE
  5
3A6
330
1D
100
AcDbEntity
  8
CSLAYER1
  6
Continuous
100
AcDbLine
 10
100.320433
 20
190.221514
 30
0.0
 11
63.820433
 21
190.221514
 31
0.0
  0
LINE
  5
3A7
330
1D
100
AcDbEntity
  8
CSLAYER1
  6
Continuous
100
AcDbLine
 10
62.820433
 20
191.221514
 30
0.0
 11
62.820433
 21
314.221514
 31
0.0
  0
LINE
  5
3A8
330
1D
100
AcDbEntity
  8
CSLAYER1
  6
Continuous
100
AcDbLine
 10
63.820433
 20
315.221514
 30
0.0
 11
100.320433
 21
315.221514
 31
0.0
  0
LINE
  5
3A9
330
1D
100
AcDbEntity
  8
CSLAYER1
  6
Continuous
100
AcDbLine
 10
102.320433
 20
313.221514
 30
0.0
 11
102.320433
 21
192.221514
 31
0.0
  0
ARC
  5
3AA
330
1D
100
AcDbEntity
  8
CSLAYER1
  6
Continuous
100
AcDbCircle
 10
100.320433
 20
192.221514
 30
0.0
 40
2.0
100
AcDbArc
 50
270.0
 51
0.0
  0
CIRCLE
  5
3AB
330
1D
100
AcDbEntity
  8
CSLAYER1
  6
Continuous
100
AcDbCircle
 10
76.820433
 20
200.221514
 30
0.0
 40
4.1
  0
CIRCLE
  5
3AC
330
1D
100
AcDbEntity
  8
CSLAYER1
  6
Continuous
100
AcDbCircle
 10
76.820433
 20
200.221514
 30
0.0
 40
2.75
  0
LINE
  5
3AD
330
1D
100
AcDbEntity
  8
CSLAYER1
  6
Continuous
100
AcDbLine
 10
85.320433
 20
211.721514
 30
0.0
 11
68.320433
 21
211.721514
 31
0.0
  0
LINE
  5
3AE
330
1D
100
AcDbEntity
  8
CSLAYER1
  6
Continuous
100
AcDbLine
 10
67.320433
 20
212.721514
 30
0.0
 11
67.320433
 21
248.721514
 31
0.0
  0
LINE
  5
3AF
330
1D
100
AcDbEntity
  8
CSLAYER1
  6
Continuous
100
AcDbLine
 10
68.320433
 20
249.721514
 30
0.0
 11
85.320433
 21
249.721514
 31
0.0
  0
LINE
  5
3B0
330
1D
100
AcDbEntity
  8
CSLAYER1
  6
Continuous
100
AcDbLine
 10
87.320433
 20
247.721514
 30
0.0
 11
87.320433
 21
246.721514
 31
0.0
  0
ARC
  5
3B1
330
1D
100
AcDbEntity
  8
CSLAYER1
  6
Continuous
100
AcDbCircle
 10
85.320433
 20
247.721514
 30
0.0
 40
2.0
100
AcDbArc
 50
0.0
 51
90.0
  0
LINE
  5
3B2
330
1D
100
AcDbEntity
  8
CSLAYER1
  6
Continuous
100
AcDbLine
 10
85.320433
 20
244.721514
 30
0.0
 11
85.320433
 21
216.721514
 31
0.0
  0
LINE
  5
3B3
330
1D
100
AcDbEntity
  8
CSLAYER1
  6
Continuous
100
AcDbLine
 10
87.320433
 20
214.721514
 30
0.0
 11
87.320433
 21
213.721514
 31
0.0
  0
ARC
  5
3B4
330
1D
100
AcDbEntity
  8
CSLAYER1
  6
Continuous
100
AcDbCircle
 10
85.320433
 20
214.721514
 30
0.0
 40
2.0
100
AcDbArc
 50
0.0
 51
90.0
  0
ARC
  5
3B5
330
1D
100
AcDbEntity
  8
CSLAYER1
  6
Continuous
100
AcDbCircle
 10
85.320433
 20
213.721514
 30
0.0
 40
2.0
100
AcDbArc
 50
270.0
 51
0.0
  0
ARC
  5
3B6
330
1D
100
AcDbEntity
  8
CSLAYER1
  6
Continuous
100
AcDbCircle
 10
68.320433
 20
212.721514
 30
0.0
 40
1.0
100
AcDbArc
 50
180.0
 51
270.0
  0
ARC
  5
3B7
330
1D
100
AcDbEntity
  8
CSLAYER1
  6
Continuous
100
AcDbCircle
 10
63.820433
 20
191.221514
 30
0.0
 40
1.0
100
AcDbArc
 50
180.0
 51
270.0
  0
LINE
  5
3B8
330
1D
100
AcDbEntity
  8
CSLAYER1
  6
Continuous
100
AcDbLine
 10
40.4525
 20
190.221514
 30
0.0
 11
38.4525
 21
190.221514
 31
0.0
  0
LINE
  5
3B9
330
1D
100
AcDbEntity
  8
CSLAYER1
  6
Continuous
100
AcDbLine
 10
38.4525
 20
190.221514
 30
0.0
 11
38.4525
 21
315.221514
 31
0.0
  0
LINE
  5
3BA
330
1D
100
AcDbEntity
  8
CSLAYER1
  6
Continuous
100
AcDbLine
 10
38.4525
 20
315.221514
 30
0.0
 11
40.4525
 21
315.221514
 31
0.0
  0
LINE
  5
3BB
330
1D
100
AcDbEntity
  8
CSLAYER1
  6
Continuous
100
AcDbLine
 10
40.4525
 20
315.221514
 30
0.0
 11
40.4525
 21
190.221514
 31
0.0
  0
LINE
  5
3BC
330
1D
100
AcDbEntity
  8
CSLAYER1
  6
Continuous
100
AcDbLine
 10
38.4525
 20
191.221514
 30
0.0
 11
37.9525
 21
191.221514
 31
0.0
  0
LINE
  5
3BD
330
1D
100
AcDbEntity
  8
CSLAYER1
  6
Continuous
100
AcDbLine
 10
37.9525
 20
191.221514
 30
0.0
 11
37.9525
 21
210.221514
 31
0.0
  0
LINE
  5
3BE
330
1D
100
AcDbEntity
  8
CSLAYER1
  6
Continuous
100
AcDbLine
 10
37.9525
 20
210.221514
 30
0.0
 11
20.9525
 21
210.221514
 31
0.0
  0
LINE
  5
3BF
330
1D
100
AcDbEntity
  8
CSLAYER1
  6
Continuous
100
AcDbLine
 10
20.4525
 20
210.721514
 30
0.0
 11
38.4525
 21
210.721514
 31
0.0
  0
LINE
  5
3C0
330
1D
100
AcDbEntity
  8
CSLAYER1
  6
Continuous
100
AcDbLine
 10
20.4525
 20
210.721514
 30
0.0
 11
20.4525
 21
294.721514
 31
0.0
  0
LINE
  5
3C1
330
1D
100
AcDbEntity
  8
CSLAYER1
  6
Continuous
100
AcDbLine
 10
20.4525
 20
294.721514
 30
0.0
 11
38.4525
 21
294.721514
 31
0.0
  0
LINE
  5
3C2
330
1D
100
AcDbEntity
  8
CSLAYER1
  6
Continuous
100
AcDbLine
 10
37.9525
 20
295.221514
 30
0.0
 11
37.9525
 21
314.221514
 31
0.0
  0
LINE
  5
3C3
330
1D
100
AcDbEntity
  8
CSLAYER1
  6
Continuous
100
AcDbLine
 10
37.9525
 20
314.221514
 30
0.0
 11
38.4525
 21
314.221514
 31
0.0
  0
LINE
  5
3C4
330
1D
100
AcDbEntity
  8
CSLAYER1
  6
Continuous
100
AcDbLine
 10
37.9525
 20
295.221514
 30
0.0
 11
20.9525
 21
295.221514
 31
0.0
  0
ARC
  5
3C5
330
1D
100
AcDbEntity
  8
CSLAYER1
  6
Continuous
100
AcDbCircle
 10
20.9525
 20
294.721514
 30
0.0
 40
0.5
100
AcDbArc
 50
90.0
 51
180.0
  0
LINE
  5
3C6
330
1D
100
AcDbEntity
  8
CSLAYER1
  6
Continuous
100
AcDbLine
 10
534.908599
 20
297.16578
 30
0.0
 11
534.908599
 21
306.86578
 31
0.0
  0
LINE
  5
3C7
330
1D
100
AcDbEntity
  8
CSLAYER1
  6
Continuous
100
AcDbLine
 10
534.908599
 20
306.86578
 30
0.0
 11
528.908599
 21
306.86578
 31
0.0
  0
LINE
  5
3C8
330
1D
100
AcDbEntity
  8
CSLAYER1
  6
Continuous
100
AcDbLine
 10
528.908599
 20
306.86578
 30
0.0
 11
528.908599
 21
299.16578
 31
0.0
  0
LINE
  5
3C9
330
1D
100
AcDbEntity
  8
CSLAYER1
  6
Continuous
100
AcDbLine
 10
528.908599
 20
299.16578
 30
0.0
 11
525.908599
 21
299.16578
 31
0.0
  0
LINE
  5
3CA
330
1D
100
AcDbEntity
  8
CSLAYER1
  6
Continuous
100
AcDbLine
 10
525.908599
 20
299.16578
 30
0.0
 11
525.908599
 21
306.86578
 31
0.0
  0
LINE
  5
3CB
330
1D
100
AcDbEntity
  8
CSLAYER1
  6
Continuous
100
AcDbLine
 10
525.908599
 20
306.86578
 30
0.0
 11
519.908599
 21
306.86578
 31
0.0
  0
LINE
  5
3CC
330
1D
100
AcDbEntity
  8
CSLAYER1
  6
Continuous
100
AcDbLine
 10
519.908599
 20
306.86578
 30
0.0
 11
519.908599
 21
297.16578
 31
0.0
  0
LINE
  5
3CD
330
1D
100
AcDbEntity
  8
CSLAYER1
  6
Continuous
100
AcDbLine
 10
519.908599
 20
297.16578
 30
0.0
 11
534.908599
 21
297.16578
 31
0.0
  0
LINE
  5
3CE
330
1D
100
AcDbEntity
  8
CSLAYER1
  6
Continuous
100
AcDbLine
 10
533.658599
 20
297.16578
 30
0.0
 11
533.658599
 21
284.66578
 31
0.0
  0
LINE
  5
3CF
330
1D
100
AcDbEntity
  8
CSLAYER1
  6
Continuous
100
AcDbLine
 10
533.658599
 20
284.66578
 30
0.0
 11
521.158599
 21
284.66578
 31
0.0
  0
LINE
  5
3D0
330
1D
100
AcDbEntity
  8
CSLAYER1
  6
Continuous
100
AcDbLine
 10
521.158599
 20
284.66578
 30
0.0
 11
521.158599
 21
297.16578
 31
0.0
  0
LINE
  5
3D1
330
1D
100
AcDbEntity
  8
CSLAYER1
  6
Continuous
100
AcDbLine
 10
525.908599
 20
304.86578
 30
0.0
 11
528.908599
 21
304.86578
 31
0.0
  0
LINE
  5
3D2
330
1D
100
AcDbEntity
  8
CSLAYER1
  6
Continuous
100
AcDbLine
 10
533.658599
 20
306.86578
 30
0.0
 11
533.658599
 21
316.36578
 31
0.0
  0
LINE
  5
3D3
330
1D
100
AcDbEntity
  8
CSLAYER1
  6
Continuous
100
AcDbLine
 10
533.658599
 20
316.36578
 30
0.0
 11
521.158599
 21
316.36578
 31
0.0
  0
LINE
  5
3D4
330
1D
100
AcDbEntity
  8
CSLAYER1
  6
Continuous
100
AcDbLine
 10
521.158599
 20
316.36578
 30
0.0
 11
521.158599
 21
306.86578
 31
0.0
  0
LINE
  5
3D5
330
1D
100
AcDbEntity
  8
CSLAYER1
  6
Continuous
100
AcDbLine
 10
482.4736
 20
310.671514
 30
0.0
 11
458.8736
 21
310.671514
 31
0.0
  0
LINE
  5
3D6
330
1D
100
AcDbEntity
  8
CSLAYER1
  6
Continuous
100
AcDbLine
 10
458.8736
 20
310.671514
 30
0.0
 11
458.8736
 21
257.671514
 31
0.0
  0
LINE
  5
3D7
330
1D
100
AcDbEntity
  8
CSLAYER1
  6
Continuous
100
AcDbLine
 10
458.8736
 20
257.671514
 30
0.0
 11
482.4736
 21
257.671514
 31
0.0
  0
LINE
  5
3D8
330
1D
100
AcDbEntity
  8
CSLAYER1
  6
Continuous
100
AcDbLine
 10
482.4736
 20
241.821514
 30
0.0
 11
482.4736
 21
322.921514
 31
0.0
  0
ARC
  5
3D9
330
1D
100
AcDbEntity
  8
CSLAYER1
  6
Continuous
100
AcDbCircle
 10
481.4736
 20
322.921514
 30
0.0
 40
1.0
100
AcDbArc
 50
0.0
 51
90.0
  0
LINE
  5
3DA
330
1D
100
AcDbEntity
  8
CSLAYER1
  6
Continuous
100
AcDbLine
 10
481.4736
 20
323.921514
 30
0.0
 11
443.4736
 21
323.921514
 31
0.0
  0
LINE
  5
3DB
330
1D
100
AcDbEntity
  8
CSLAYER1
  6
Continuous
100
AcDbLine
 10
443.4736
 20
323.921514
 30
0.0
 11
443.4736
 21
314.921514
 31
0.0
  0
LINE
  5
3DC
330
1D
100
AcDbEntity
  8
CSLAYER1
  6
Continuous
100
AcDbLine
 10
442.4736
 20
313.921514
 30
0.0
 11
366.4736
 21
313.921514
 31
0.0
  0
LINE
  5
3DD
330
1D
100
AcDbEntity
  8
CSLAYER1
  6
Continuous
100
AcDbLine
 10
371.8736
 20
320.421514
 30
0.0
 11
379.4736
 21
320.421514
 31
0.0
  0
LINE
  5
3DE
330
1D
100
AcDbEntity
  8
CSLAYER1
  6
Continuous
100
AcDbLine
 10
379.4736
 20
320.421514
 30
0.0
 11
379.4736
 21
324.521514
 31
0.0
  0
LINE
  5
3DF
330
1D
100
AcDbEntity
  8
CSLAYER1
  6
Continuous
100
AcDbLine
 10
379.4736
 20
324.521514
 30
0.0
 11
440.4736
 21
324.521514
 31
0.0
  0
LINE
  5
3E0
330
1D
100
AcDbEntity
  8
CSLAYER1
  6
Continuous
100
AcDbLine
 10
440.4736
 20
324.521514
 30
0.0
 11
440.4736
 21
314.921514
 31
0.0
  0
LINE
  5
3E1
330
1D
100
AcDbEntity
  8
CSLAYER1
  6
Continuous
100
AcDbLine
 10
440.4736
 20
315.421514
 30
0.0
 11
442.0736
 21
315.421514
 31
0.0
  0
LINE
  5
3E2
330
1D
100
AcDbEntity
  8
CSLAYER1
  6
Continuous
100
AcDbLine
 10
442.0736
 20
315.421514
 30
0.0
 11
442.0736
 21
322.921514
 31
0.0
  0
ARC
  5
3E3
330
1D
100
AcDbEntity
  8
CSLAYER1
  6
Continuous
100
AcDbCircle
 10
440.4736
 20
322.921514
 30
0.0
 40
1.6
100
AcDbArc
 50
0.0
 51
90.0
  0
LINE
  5
3E4
330
1D
100
AcDbEntity
  8
CSLAYER1
  6
Continuous
100
AcDbLine
 10
434.4736
 20
325.021514
 30
0.0
 11
426.4736
 21
325.021514
 31
0.0
  0
LINE
  5
3E5
330
1D
100
AcDbEntity
  8
CSLAYER1
  6
Continuous
100
AcDbLine
 10
426.4736
 20
325.021514
 30
0.0
 11
426.9736
 21
324.521514
 31
0.0
  0
LINE
  5
3E6
330
1D
100
AcDbEntity
  8
CSLAYER1
  6
Continuous
100
AcDbLine
 10
427.8236
 20
318.921514
 30
0.0
 11
427.8236
 21
318.421514
 31
0.0
  0
LINE
  5
3E7
330
1D
100
AcDbEntity
  8
CSLAYER1
  6
Continuous
100
AcDbLine
 10
431.746828
 20
318.421514
 30
0.0
 11
410.4736
 21
318.421514
 31
0.0
  0
LINE
  5
3E8
330
1D
100
AcDbEntity
  8
CSLAYER1
  6
Continuous
100
AcDbLine
 10
410.4736
 20
318.921514
 30
0.0
 11
410.4736
 21
316.421514
 31
0.0
  0
LINE
  5
3E9
330
1D
100
AcDbEntity
  8
CSLAYER1
  6
Continuous
100
AcDbLine
 10
410.4736
 20
316.421514
 30
0.0
 11
435.4736
 21
316.421514
 31
0.0
  0
LINE
  5
3EA
330
1D
100
AcDbEntity
  8
CSLAYER1
  6
Continuous
100
AcDbLine
 10
435.4736
 20
316.421514
 30
0.0
 11
435.4736
 21
318.921514
 31
0.0
  0
LINE
  5
3EB
330
1D
100
AcDbEntity
  8
CSLAYER1
  6
Continuous
100
AcDbLine
 10
435.4736
 20
318.921514
 30
0.0
 11
410.4736
 21
318.921514
 31
0.0
  0
LINE
  5
3EC
330
1D
100
AcDbEntity
  8
CSLAYER1
  6
Continuous
100
AcDbLine
 10
431.746828
 20
318.421514
 30
0.0
 11
431.746828
 21
316.421514
 31
0.0
  0
LINE
  5
3ED
330
1D
100
AcDbEntity
  8
CSLAYER1
  6
Continuous
100
AcDbLine
 10
433.1236
 20
316.421514
 30
0.0
 11
433.1236
 21
318.921514
 31
0.0
  0
LINE
  5
3EE
330
1D
100
AcDbEntity
  8
CSLAYER1
  6
Continuous
100
AcDbLine
 10
433.9736
 20
324.521514
 30
0.0
 11
434.4736
 21
325.021514
 31
0.0
  0
ARC
  5
3EF
330
1D
100
AcDbEntity
  8
CSLAYER1
  6
Continuous
100
AcDbCircle
 10
439.4736
 20
314.921514
 30
0.0
 40
1.0
100
AcDbArc
 50
270.0
 51
0.0
  0
ARC
  5
3F0
330
1D
100
AcDbEntity
  8
CSLAYER1
  6
Continuous
100
AcDbCircle
 10
442.4736
 20
314.921514
 30
0.0
 40
1.0
100
AcDbArc
 50
270.0
 51
0.0
  0
LINE
  5
3F1
330
1D
100
AcDbEntity
  8
CSLAYER1
  6
Continuous
100
AcDbLine
 10
455.9736
 20
323.921514
 30
0.0
 11
455.9736
 21
324.621514
 31
0.0
  0
LINE
  5
3F2
330
1D
100
AcDbEntity
  8
CSLAYER1
  6
Continuous
100
AcDbLine
 10
456.4736
 20
325.121514
 30
0.0
 11
466.4736
 21
325.121514
 31
0.0
  0
LINE
  5
3F3
330
1D
100
AcDbEntity
  8
CSLAYER1
  6
Continuous
100
AcDbLine
 10
466.9736
 20
324.621514
 30
0.0
 11
466.9736
 21
323.921514
 31
0.0
  0
ARC
  5
3F4
330
1D
100
AcDbEntity
  8
CSLAYER1
  6
Continuous
100
AcDbCircle
 10
466.4736
 20
324.621514
 30
0.0
 40
0.5
100
AcDbArc
 50
0.0
 51
90.0
  0
ARC
  5
3F5
330
1D
100
AcDbEntity
  8
CSLAYER1
  6
Continuous
100
AcDbCircle
 10
456.4736
 20
324.621514
 30
0.0
 40
0.5
100
AcDbArc
 50
90.0
 51
180.0
  0
LINE
  5
3F6
330
1D
100
AcDbEntity
  8
CSLAYER1
  6
Continuous
100
AcDbLine
 10
482.4736
 20
321.921514
 30
0.0
 11
484.4736
 21
321.921514
 31
0.0
  0
LINE
  5
3F7
330
1D
100
AcDbEntity
  8
CSLAYER1
  6
Continuous
100
AcDbLine
 10
484.4736
 20
321.921514
 30
0.0
 11
484.4736
 21
190.921514
 31
0.0
  0
LINE
  5
3F8
330
1D
100
AcDbEntity
  8
CSLAYER1
  6
Continuous
100
AcDbLine
 10
483.4736
 20
189.921514
 30
0.0
 11
366.4736
 21
189.921514
 31
0.0
  0
LINE
  5
3F9
330
1D
100
AcDbEntity
  8
CSLAYER1
  6
Continuous
100
AcDbLine
 10
360.4736
 20
219.971514
 30
0.0
 11
347.3736
 21
219.971514
 31
0.0
  0
LINE
  5
3FA
330
1D
100
AcDbEntity
  8
CSLAYER1
  6
Continuous
100
AcDbLine
 10
347.3736
 20
219.971514
 30
0.0
 11
347.3736
 21
228.721514
 31
0.0
  0
LINE
  5
3FB
330
1D
100
AcDbEntity
  8
CSLAYER1
  6
Continuous
100
AcDbLine
 10
347.3736
 20
228.721514
 30
0.0
 11
360.4736
 21
228.721514
 31
0.0
  0
LINE
  5
3FC
330
1D
100
AcDbEntity
  8
CSLAYER1
  6
Continuous
100
AcDbLine
 10
360.3736
 20
228.721514
 30
0.0
 11
360.3736
 21
235.121514
 31
0.0
  0
LINE
  5
3FD
330
1D
100
AcDbEntity
  8
CSLAYER1
  6
Continuous
100
AcDbLine
 10
360.4736
 20
235.121514
 30
0.0
 11
347.3736
 21
235.121514
 31
0.0
  0
LINE
  5
3FE
330
1D
100
AcDbEntity
  8
CSLAYER1
  6
Continuous
100
AcDbLine
 10
347.3736
 20
235.121514
 30
0.0
 11
347.3736
 21
243.871514
 31
0.0
  0
LINE
  5
3FF
330
1D
100
AcDbEntity
  8
CSLAYER1
  6
Continuous
100
AcDbLine
 10
347.3736
 20
243.871514
 30
0.0
 11
360.4736
 21
243.871514
 31
0.0
  0
LINE
  5
400
330
1D
100
AcDbEntity
  8
CSLAYER1
  6
Continuous
100
AcDbLine
 10
359.3736
 20
243.871514
 30
0.0
 11
359.3736
 21
235.121514
 31
0.0
  0
LINE
  5
401
330
1D
100
AcDbEntity
  8
CSLAYER1
  6
Continuous
100
AcDbLine
 10
360.3736
 20
234.971514
 30
0.0
 11
349.714118
 21
234.971514
 31
0.0
  0
LINE
  5
402
330
1D
100
AcDbEntity
  8
CSLAYER1
  6
Continuous
100
AcDbLine
 10
349.714118
 20
234.971514
 30
0.0
 11
349.714118
 21
233.971514
 31
0.0
  0
LINE
  5
403
330
1D
100
AcDbEntity
  8
CSLAYER1
  6
Continuous
100
AcDbLine
 10
349.548318
 20
233.971514
 30
0.0
 11
349.548318
 21
229.871514
 31
0.0
  0
LINE
  5
404
330
1D
100
AcDbEntity
  8
CSLAYER1
  6
Continuous
100
AcDbLine
 10
349.548318
 20
229.871514
 30
0.0
 11
360.3736
 21
229.871514
 31
0.0
  0
LINE
  5
405
330
1D
100
AcDbEntity
  8
CSLAYER1
  6
Continuous
100
AcDbLine
 10
360.3736
 20
228.871514
 30
0.0
 11
349.714118
 21
228.871514
 31
0.0
  0
LINE
  5
406
330
1D
100
AcDbEntity
  8
CSLAYER1
  6
Continuous
100
AcDbLine
 10
349.714118
 20
228.871514
 30
0.0
 11
349.714118
 21
229.871514
 31
0.0
  0
LINE
  5
407
330
1D
100
AcDbEntity
  8
CSLAYER1
  6
Continuous
100
AcDbLine
 10
349.548318
 20
233.971514
 30
0.0
 11
360.3736
 21
233.971514
 31
0.0
  0
LINE
  5
408
330
1D
100
AcDbEntity
  8
CSLAYER1
  6
Continuous
100
AcDbLine
 10
359.3736
 20
228.721514
 30
0.0
 11
359.3736
 21
219.971514
 31
0.0
  0
LINE
  5
409
330
1D
100
AcDbEntity
  8
CSLAYER1
  6
Continuous
100
AcDbLine
 10
360.4736
 20
251.421514
 30
0.0
 11
350.1736
 21
251.421514
 31
0.0
  0
LINE
  5
40A
330
1D
100
AcDbEntity
  8
CSLAYER1
  6
Continuous
100
AcDbLine
 10
350.1736
 20
251.421514
 30
0.0
 11
350.1736
 21
256.421514
 31
0.0
  0
LINE
  5
40B
330
1D
100
AcDbEntity
  8
CSLAYER1
  6
Continuous
100
AcDbLine
 10
350.1736
 20
256.421514
 30
0.0
 11
360.4736
 21
256.421514
 31
0.0
  0
LINE
  5
414
330
1D
100
AcDbEntity
  8
CSLAYER1
  6
Continuous
100
AcDbLine
 10
230.280745
 20
243.921514
 30
0.0
 11
216.880745
 21
243.921514
 31
0.0
  0
ARC
  5
415
330
1D
100
AcDbEntity
  8
CSLAYER1
  6
Continuous
100
AcDbCircle
 10
216.880745
 20
243.621514
 30
0.0
 40
0.3
100
AcDbArc
 50
90.0
 51
180.0
  0
LINE
  5
416
330
1D
100
AcDbEntity
  8
CSLAYER1
  6
Continuous
100
AcDbLine
 10
216.580745
 20
243.621514
 30
0.0
 11
216.580745
 21
220.221514
 31
0.0
  0
ARC
  5
417
330
1D
100
AcDbEntity
  8
CSLAYER1
  6
Continuous
100
AcDbCircle
 10
216.880745
 20
220.221514
 30
0.0
 40
0.3
100
AcDbArc
 50
180.0
 51
270.0
  0
LINE
  5
418
330
1D
100
AcDbEntity
  8
CSLAYER1
  6
Continuous
100
AcDbLine
 10
216.880745
 20
219.921514
 30
0.0
 11
230.280745
 21
219.921514
 31
0.0
  0
ARC
  5
419
330
1D
100
AcDbEntity
  8
CSLAYER1
  6
Continuous
100
AcDbCircle
 10
230.280745
 20
220.221514
 30
0.0
 40
0.3
100
AcDbArc
 50
270.0
 51
0.0
  0
LINE
  5
41A
330
1D
100
AcDbEntity
  8
CSLAYER1
  6
Continuous
100
AcDbLine
 10
230.580745
 20
220.221514
 30
0.0
 11
230.580745
 21
228.221514
 31
0.0
  0
ARC
  5
41B
330
1D
100
AcDbEntity
  8
CSLAYER1
  6
Continuous
100
AcDbCircle
 10
230.880745
 20
228.221514
 30
0.0
 40
0.3
100
AcDbArc
 50
90.0
 51
180.0
  0
LINE
  5
41C
330
1D
100
AcDbEntity
  8
CSLAYER1
  6
Continuous
100
AcDbLine
 10
230.880745
 20
228.521514
 30
0.0
 11
232.280745
 21
228.521514
 31
0.0
  0
ARC
  5
41D
330
1D
100
AcDbEntity
  8
CSLAYER1
  6
Continuous
100
AcDbCircle
 10
232.280745
 20
228.821514
 30
0.0
 40
0.3
100
AcDbArc
 50
270.0
 51
0.0
  0
LINE
  5
41E
330
1D
100
AcDbEntity
  8
CSLAYER1
  6
Continuous
100
AcDbLine
 10
232.580745
 20
228.821514
 30
0.0
 11
232.580745
 21
235.021514
 31
0.0
  0
ARC
  5
41F
330
1D
100
AcDbEntity
  8
CSLAYER1
  6
Continuous
100
AcDbCircle
 10
232.280745
 20
235.021514
 30
0.0
 40
0.3
100
AcDbArc
 50
0.0
 51
90.0
  0
LINE
  5
420
330
1D
100
AcDbEntity
  8
CSLAYER1
  6
Continuous
100
AcDbLine
 10
232.280745
 20
235.321514
 30
0.0
 11
230.880745
 21
235.321514
 31
0.0
  0
ARC
  5
421
330
1D
100
AcDbEntity
  8
CSLAYER1
  6
Continuous
100
AcDbCircle
 10
230.880745
 20
235.621514
 30
0.0
 40
0.3
100
AcDbArc
 50
180.0
 51
270.0
  0
LINE
  5
422
330
1D
100
AcDbEntity
  8
CSLAYER1
  6
Continuous
100
AcDbLine
 10
230.580745
 20
235.621514
 30
0.0
 11
230.580745
 21
243.621514
 31
0.0
  0
ARC
  5
423
330
1D
100
AcDbEntity
  8
CSLAYER1
  6
Continuous
100
AcDbCircle
 10
230.280745
 20
243.621514
 30
0.0
 40
0.3
100
AcDbArc
 50
0.0
 51
90.0
  0
LINE
  5
424
330
1D
100
AcDbEntity
  8
CSLAYER1
  6
Continuous
100
AcDbLine
 10
229.173486
 20
235.021514
 30
0.0
 11
229.173486
 21
233.971514
 31
0.0
  0
LINE
  5
425
330
1D
100
AcDbEntity
  8
CSLAYER1
  6
Continuous
100
AcDbLine
 10
229.566202
 20
233.971514
 30
0.0
 11
229.566202
 21
229.871514
 31
0.0
  0
LINE
  5
426
330
1D
100
AcDbEntity
  8
CSLAYER1
  6
Continuous
100
AcDbLine
 10
229.173486
 20
229.871514
 30
0.0
 11
229.173486
 21
228.821514
 31
0.0
  0
LINE
  5
427
330
1D
100
AcDbEntity
  8
CSLAYER1
  6
Continuous
100
AcDbLine
 10
232.580745
 20
228.821514
 30
0.0
 11
219.05459
 21
228.821514
 31
0.0
  0
LINE
  5
428
330
1D
100
AcDbEntity
  8
CSLAYER1
  6
Continuous
100
AcDbLine
 10
219.05459
 20
228.871514
 30
0.0
 11
219.05459
 21
229.871514
 31
0.0
  0
LINE
  5
429
330
1D
100
AcDbEntity
  8
CSLAYER1
  6
Continuous
100
AcDbLine
 10
218.912083
 20
229.871514
 30
0.0
 11
218.912083
 21
233.971514
 31
0.0
  0
LINE
  5
42A
330
1D
100
AcDbEntity
  8
CSLAYER1
  6
Continuous
100
AcDbLine
 10
218.912083
 20
233.971514
 30
0.0
 11
232.580745
 21
233.971514
 31
0.0
  0
LINE
  5
42B
330
1D
100
AcDbEntity
  8
CSLAYER1
  6
Continuous
100
AcDbLine
 10
232.580745
 20
235.021514
 30
0.0
 11
219.05459
 21
235.021514
 31
0.0
  0
LINE
  5
42C
330
1D
100
AcDbEntity
  8
CSLAYER1
  6
Continuous
100
AcDbLine
 10
219.05459
 20
235.021514
 30
0.0
 11
219.05459
 21
233.971514
 31
0.0
  0
LINE
  5
42D
330
1D
100
AcDbEntity
  8
CSLAYER1
  6
Continuous
100
AcDbLine
 10
218.380745
 20
235.121514
 30
0.0
 11
218.380745
 21
243.921514
 31
0.0
  0
ARC
  5
42E
330
1D
100
AcDbEntity
  8
CSLAYER1
  6
Continuous
100
AcDbCircle
 10
216.280745
 20
235.621514
 30
0.0
 40
0.3
100
AcDbArc
 50
270.0
 51
0.0
  0
LINE
  5
42F
330
1D
100
AcDbEntity
  8
CSLAYER1
  6
Continuous
100
AcDbLine
 10
216.280745
 20
235.321514
 30
0.0
 11
214.880745
 21
235.321514
 31
0.0
  0
ARC
  5
430
330
1D
100
AcDbEntity
  8
CSLAYER1
  6
Continuous
100
AcDbCircle
 10
214.880745
 20
235.021514
 30
0.0
 40
0.3
100
AcDbArc
 50
90.0
 51
180.0
  0
LINE
  5
431
330
1D
100
AcDbEntity
  8
CSLAYER1
  6
Continuous
100
AcDbLine
 10
214.580745
 20
235.021514
 30
0.0
 11
214.580745
 21
228.821514
 31
0.0
  0
ARC
  5
432
330
1D
100
AcDbEntity
  8
CSLAYER1
  6
Continuous
100
AcDbCircle
 10
214.880745
 20
228.821514
 30
0.0
 40
0.3
100
AcDbArc
 50
180.0
 51
270.0
  0
LINE
  5
433
330
1D
100
AcDbEntity
  8
CSLAYER1
  6
Continuous
100
AcDbLine
 10
214.880745
 20
228.521514
 30
0.0
 11
216.280745
 21
228.521514
 31
0.0
  0
LINE
  5
434
330
1D
100
AcDbEntity
  8
CSLAYER1
  6
Continuous
100
AcDbLine
 10
216.580745
 20
228.721514
 30
0.0
 11
232.580745
 21
228.721514
 31
0.0
  0
LINE
  5
435
330
1D
100
AcDbEntity
  8
CSLAYER1
  6
Continuous
100
AcDbLine
 10
232.580745
 20
229.871514
 30
0.0
 11
218.912083
 21
229.871514
 31
0.0
  0
LINE
  5
436
330
1D
100
AcDbEntity
  8
CSLAYER1
  6
Continuous
100
AcDbLine
 10
218.380745
 20
228.721514
 30
0.0
 11
218.380745
 21
219.921514
 31
0.0
  0
ARC
  5
437
330
1D
100
AcDbEntity
  8
CSLAYER1
  6
Continuous
100
AcDbCircle
 10
216.280745
 20
228.221514
 30
0.0
 40
0.3
100
AcDbArc
 50
0.0
 51
90.0
  0
LINE
  5
438
330
1D
100
AcDbEntity
  8
CSLAYER1
  6
Continuous
100
AcDbLine
 10
216.580745
 20
228.921514
 30
0.0
 11
215.580745
 21
228.921514
 31
0.0
  0
LINE
  5
439
330
1D
100
AcDbEntity
  8
CSLAYER1
  6
Continuous
100
AcDbLine
 10
215.580745
 20
228.921514
 30
0.0
 11
215.580745
 21
234.921514
 31
0.0
  0
LINE
  5
43A
330
1D
100
AcDbEntity
  8
CSLAYER1
  6
Continuous
100
AcDbLine
 10
215.580745
 20
234.921514
 30
0.0
 11
216.580745
 21
234.921514
 31
0.0
  0
LINE
  5
43B
330
1D
100
AcDbEntity
  8
CSLAYER1
  6
Continuous
100
AcDbLine
 10
216.580745
 20
235.121514
 30
0.0
 11
232.580745
 21
235.121514
 31
0.0
  0
LINE
  5
43C
330
1D
100
AcDbEntity
  8
CSLAYER1
  6
Continuous
100
AcDbLine
 10
223.580745
 20
251.371514
 30
0.0
 11
223.580745
 21
256.471514
 31
0.0
  0
LINE
  5
43D
330
1D
100
AcDbEntity
  8
CSLAYER1
  6
Continuous
100
AcDbLine
 10
205.580745
 20
271.956324
 30
0.0
 11
186.155007
 21
275.503368
 31
0.0
  0
LINE
  5
43E
330
1D
100
AcDbEntity
  8
CSLAYER1
  6
Continuous
100
AcDbLine
 10
185.580745
 20
276.191982
 30
0.0
 11
185.580745
 21
316.608225
 31
0.0
  0
LINE
  5
43F
330
1D
100
AcDbEntity
  8
CSLAYER1
  6
Continuous
100
AcDbLine
 10
185.580745
 20
316.608225
 30
0.0
 11
205.580745
 21
320.178546
 31
0.0
  0
LINE
  5
440
330
1D
100
AcDbEntity
  8
CSLAYER1
  6
Continuous
100
AcDbLine
 10
205.580745
 20
320.178546
 30
0.0
 11
205.580745
 21
271.956324
 31
0.0
  0
ARC
  5
441
330
1D
100
AcDbEntity
  8
CSLAYER1
  6
Continuous
100
AcDbCircle
 10
186.280745
 20
276.191982
 30
0.0
 40
0.7
100
AcDbArc
 50
180.0
 51
259.652073
  0
LINE
  5
442
330
1D
100
AcDbEntity
  8
CSLAYER1
  6
Continuous
100
AcDbLine
 10
185.580745
 20
283.121514
 30
0.0
 11
184.080745
 21
284.621514
 31
0.0
  0
LINE
  5
443
330
1D
100
AcDbEntity
  8
CSLAYER1
  6
Continuous
100
AcDbLine
 10
184.080745
 20
284.621514
 30
0.0
 11
184.080745
 21
295.921514
 31
0.0
  0
LINE
  5
444
330
1D
100
AcDbEntity
  8
CSLAYER1
  6
Continuous
100
AcDbLine
 10
184.080745
 20
295.921514
 30
0.0
 11
185.580745
 21
297.421514
 31
0.0
  0
ARC
  5
445
330
1D
100
AcDbEntity
  8
CSLAYER1
  6
Continuous
100
AcDbCircle
 10
186.280745
 20
316.02212
 30
0.0
 40
0.7
100
AcDbArc
 50
100.121598
 51
180.0
  0
LINE
  5
446
330
1D
100
AcDbEntity
  8
CSLAYER1
  6
Continuous
100
AcDbLine
 10
221.380745
 20
330.450926
 30
0.0
 11
222.451333
 21
330.450926
 31
0.0
  0
ARC
  5
447
330
1D
100
AcDbEntity
  8
CSLAYER1
  6
Continuous
100
AcDbCircle
 10
222.451333
 20
329.792103
 30
0.0
 40
0.658824
100
AcDbArc
 50
0.0
 51
90.0
  0
LINE
  5
448
330
1D
100
AcDbEntity
  8
CSLAYER1
  6
Continuous
100
AcDbLine
 10
223.110156
 20
329.792103
 30
0.0
 11
223.110156
 21
328.721514
 31
0.0
  0
LINE
  5
449
330
1D
100
AcDbEntity
  8
CSLAYER1
  6
Continuous
100
AcDbLine
 10
223.110156
 20
328.721514
 30
0.0
 11
224.051333
 21
328.721514
 31
0.0
  0
LINE
  5
44A
330
1D
100
AcDbEntity
  8
CSLAYER1
  6
Continuous
100
AcDbLine
 10
224.051333
 20
328.721514
 30
0.0
 11
224.051333
 21
329.792103
 31
0.0
  0
LINE
  5
44B
330
1D
100
AcDbEntity
  8
CSLAYER1
  6
Continuous
100
AcDbLine
 10
224.710156
 20
330.450926
 30
0.0
 11
225.780745
 21
330.450926
 31
0.0
  0
LINE
  5
44C
330
1D
100
AcDbEntity
  8
CSLAYER1
  6
Continuous
100
AcDbLine
 10
225.780745
 20
330.450926
 30
0.0
 11
225.780745
 21
331.392103
 31
0.0
  0
LINE
  5
44D
330
1D
100
AcDbEntity
  8
CSLAYER1
  6
Continuous
100
AcDbLine
 10
225.780745
 20
331.392103
 30
0.0
 11
224.710156
 21
331.392103
 31
0.0
  0
LINE
  5
44E
330
1D
100
AcDbEntity
  8
CSLAYER1
  6
Continuous
100
AcDbLine
 10
224.051333
 20
332.050926
 30
0.0
 11
224.051333
 21
333.121514
 31
0.0
  0
LINE
  5
44F
330
1D
100
AcDbEntity
  8
CSLAYER1
  6
Continuous
100
AcDbLine
 10
224.051333
 20
333.121514
 30
0.0
 11
223.110156
 21
333.121514
 31
0.0
  0
LINE
  5
450
330
1D
100
AcDbEntity
  8
CSLAYER1
  6
Continuous
100
AcDbLine
 10
223.110156
 20
333.121514
 30
0.0
 11
223.110156
 21
332.050926
 31
0.0
  0
ARC
  5
451
330
1D
100
AcDbEntity
  8
CSLAYER1
  6
Continuous
100
AcDbCircle
 10
222.451333
 20
332.050926
 30
0.0
 40
0.658824
100
AcDbArc
 50
270.0
 51
0.0
  0
LINE
  5
452
330
1D
100
AcDbEntity
  8
CSLAYER1
  6
Continuous
100
AcDbLine
 10
222.451333
 20
331.392103
 30
0.0
 11
221.380745
 21
331.392103
 31
0.0
  0
LINE
  5
453
330
1D
100
AcDbEntity
  8
CSLAYER1
  6
Continuous
100
AcDbLine
 10
221.380745
 20
331.392103
 30
0.0
 11
221.380745
 21
330.450926
 31
0.0
  0
ARC
  5
454
330
1D
100
AcDbEntity
  8
CSLAYER1
  6
Continuous
100
AcDbCircle
 10
224.710156
 20
332.050926
 30
0.0
 40
0.658824
100
AcDbArc
 50
180.0
 51
270.0
  0
ARC
  5
455
330
1D
100
AcDbEntity
  8
CSLAYER1
  6
Continuous
100
AcDbCircle
 10
224.710156
 20
329.792103
 30
0.0
 40
0.658824
100
AcDbArc
 50
90.0
 51
180.0
  0
CIRCLE
  5
456
330
1D
100
AcDbEntity
  8
CSLAYER1
  6
Continuous
100
AcDbCircle
 10
223.580745
 20
330.921514
 30
0.0
 40
4.25
  0
LINE
  5
457
330
1D
100
AcDbEntity
  8
CSLAYER1
  6
Continuous
100
AcDbLine
 10
241.580745
 20
320.828546
 30
0.0
 11
261.580745
 21
317.258225
 31
0.0
  0
LINE
  5
458
330
1D
100
AcDbEntity
  8
CSLAYER1
  6
Continuous
100
AcDbLine
 10
261.580745
 20
316.67212
 30
0.0
 11
261.580745
 21
276.841982
 31
0.0
  0
LINE
  5
459
330
1D
100
AcDbEntity
  8
CSLAYER1
  6
Continuous
100
AcDbLine
 10
261.006482
 20
276.153368
 30
0.0
 11
241.580745
 21
272.606324
 31
0.0
  0
LINE
  5
45A
330
1D
100
AcDbEntity
  8
CSLAYER1
  6
Continuous
100
AcDbLine
 10
241.580745
 20
272.606324
 30
0.0
 11
241.580745
 21
320.828546
 31
0.0
  0
ARC
  5
45B
330
1D
100
AcDbEntity
  8
CSLAYER1
  6
Continuous
100
AcDbCircle
 10
260.880745
 20
316.67212
 30
0.0
 40
0.7
100
AcDbArc
 50
0.0
 51
79.878402
  0
LINE
  5
45C
330
1D
100
AcDbEntity
  8
CSLAYER1
  6
Continuous
100
AcDbLine
 10
265.580745
 20
308.921514
 30
0.0
 11
265.580745
 21
300.620084
 31
0.0
  0
LINE
  5
45D
330
1D
100
AcDbEntity
  8
CSLAYER1
  6
Continuous
100
AcDbLine
 10
263.580745
 20
298.921514
 30
0.0
 11
263.580745
 21
282.921514
 31
0.0
  0
LINE
  5
45E
330
1D
100
AcDbEntity
  8
CSLAYER1
  6
Continuous
100
AcDbLine
 10
263.580745
 20
282.921514
 30
0.0
 11
261.580745
 21
282.921514
 31
0.0
  0
LINE
  5
45F
330
1D
100
AcDbEntity
  8
CSLAYER1
  6
Continuous
100
AcDbLine
 10
265.580745
 20
280.921514
 30
0.0
 11
265.580745
 21
277.921514
 31
0.0
  0
LINE
  5
460
330
1D
100
AcDbEntity
  8
CSLAYER1
  6
Continuous
100
AcDbLine
 10
265.580745
 20
277.921514
 30
0.0
 11
279.767426
 21
279.251516
 31
0.0
  0
ARC
  5
461
330
1D
100
AcDbEntity
  8
CSLAYER1
  6
Continuous
100
AcDbCircle
 10
279.580745
 20
281.242784
 30
0.0
 40
2.0
100
AcDbArc
 50
275.355825
 51
0.0
  0
LINE
  5
462
330
1D
100
AcDbEntity
  8
CSLAYER1
  6
Continuous
100
AcDbLine
 10
281.580745
 20
281.242784
 30
0.0
 11
281.580745
 21
305.144927
 31
0.0
  0
ARC
  5
463
330
1D
100
AcDbEntity
  8
CSLAYER1
  6
Continuous
100
AcDbCircle
 10
279.080745
 20
305.144927
 30
0.0
 40
2.5
100
AcDbArc
 50
0.0
 51
84.644175
  0
LINE
  5
464
330
1D
100
AcDbEntity
  8
CSLAYER1
  6
Continuous
100
AcDbLine
 10
279.314096
 20
307.634013
 30
0.0
 11
265.580745
 21
308.921514
 31
0.0
  0
LINE
  5
465
330
1D
100
AcDbEntity
  8
CSLAYER1
  6
Continuous
100
AcDbLine
 10
263.580745
 20
298.921514
 30
0.0
 11
261.580745
 21
298.921514
 31
0.0
  0
ARC
  5
466
330
1D
100
AcDbEntity
  8
CSLAYER1
  6
Continuous
100
AcDbCircle
 10
263.580745
 20
300.921514
 30
0.0
 40
2.0
100
AcDbArc
 50
270.0
 51
0.0
  0
ARC
  5
467
330
1D
100
AcDbEntity
  8
CSLAYER1
  6
Continuous
100
AcDbCircle
 10
263.580745
 20
280.921514
 30
0.0
 40
2.0
100
AcDbArc
 50
0.0
 51
90.0
  0
ARC
  5
468
330
1D
100
AcDbEntity
  8
CSLAYER1
  6
Continuous
100
AcDbCircle
 10
260.880745
 20
276.841982
 30
0.0
 40
0.7
100
AcDbArc
 50
280.347927
 51
0.0
  0
CIRCLE
  5
469
330
1D
100
AcDbEntity
  8
CSLAYER1
  6
Continuous
100
AcDbCircle
 10
223.580745
 20
182.921514
 30
0.0
 40
4.25
  0
LINE
  5
46A
330
1D
100
AcDbEntity
  8
CSLAYER1
  6
Continuous
100
AcDbLine
 10
225.780745
 20
182.450926
 30
0.0
 11
224.710156
 21
182.450926
 31
0.0
  0
ARC
  5
46B
330
1D
100
AcDbEntity
  8
CSLAYER1
  6
Continuous
100
AcDbCircle
 10
224.710156
 20
181.792103
 30
0.0
 40
0.658824
100
AcDbArc
 50
90.0
 51
180.0
  0
LINE
  5
46C
330
1D
100
AcDbEntity
  8
CSLAYER1
  6
Continuous
100
AcDbLine
 10
224.051333
 20
181.792103
 30
0.0
 11
224.051333
 21
180.721514
 31
0.0
  0
LINE
  5
46D
330
1D
100
AcDbEntity
  8
CSLAYER1
  6
Continuous
100
AcDbLine
 10
224.051333
 20
180.721514
 30
0.0
 11
223.110156
 21
180.721514
 31
0.0
  0
LINE
  5
46E
330
1D
100
AcDbEntity
  8
CSLAYER1
  6
Continuous
100
AcDbLine
 10
223.110156
 20
180.721514
 30
0.0
 11
223.110156
 21
181.792103
 31
0.0
  0
ARC
  5
46F
330
1D
100
AcDbEntity
  8
CSLAYER1
  6
Continuous
100
AcDbCircle
 10
222.451333
 20
181.792103
 30
0.0
 40
0.658824
100
AcDbArc
 50
0.0
 51
90.0
  0
LINE
  5
470
330
1D
100
AcDbEntity
  8
CSLAYER1
  6
Continuous
100
AcDbLine
 10
222.451333
 20
182.450926
 30
0.0
 11
221.380745
 21
182.450926
 31
0.0
  0
LINE
  5
471
330
1D
100
AcDbEntity
  8
CSLAYER1
  6
Continuous
100
AcDbLine
 10
221.380745
 20
182.450926
 30
0.0
 11
221.380745
 21
183.392103
 31
0.0
  0
LINE
  5
472
330
1D
100
AcDbEntity
  8
CSLAYER1
  6
Continuous
100
AcDbLine
 10
221.380745
 20
183.392103
 30
0.0
 11
222.451333
 21
183.392103
 31
0.0
  0
ARC
  5
473
330
1D
100
AcDbEntity
  8
CSLAYER1
  6
Continuous
100
AcDbCircle
 10
222.451333
 20
184.050926
 30
0.0
 40
0.658824
100
AcDbArc
 50
270.0
 51
0.0
  0
LINE
  5
474
330
1D
100
AcDbEntity
  8
CSLAYER1
  6
Continuous
100
AcDbLine
 10
223.110156
 20
184.050926
 30
0.0
 11
223.110156
 21
185.121514
 31
0.0
  0
LINE
  5
475
330
1D
100
AcDbEntity
  8
CSLAYER1
  6
Continuous
100
AcDbLine
 10
223.110156
 20
185.121514
 30
0.0
 11
224.051333
 21
185.121514
 31
0.0
  0
LINE
  5
476
330
1D
100
AcDbEntity
  8
CSLAYER1
  6
Continuous
100
AcDbLine
 10
224.051333
 20
185.121514
 30
0.0
 11
224.051333
 21
184.050926
 31
0.0
  0
ARC
  5
477
330
1D
100
AcDbEntity
  8
CSLAYER1
  6
Continuous
100
AcDbCircle
 10
224.710156
 20
184.050926
 30
0.0
 40
0.658824
100
AcDbArc
 50
180.0
 51
270.0
  0
LINE
  5
478
330
1D
100
AcDbEntity
  8
CSLAYER1
  6
Continuous
100
AcDbLine
 10
224.710156
 20
183.392103
 30
0.0
 11
225.780745
 21
183.392103
 31
0.0
  0
LINE
  5
479
330
1D
100
AcDbEntity
  8
CSLAYER1
  6
Continuous
100
AcDbLine
 10
225.780745
 20
183.392103
 30
0.0
 11
225.780745
 21
182.450926
 31
0.0
  0
LINE
  5
47A
330
1D
100
AcDbEntity
  8
CSLAYER1
  6
Continuous
100
AcDbLine
 10
210.780745
 20
158.621514
 30
0.0
 11
210.780745
 21
355.221514
 31
0.0
  0
LINE
  5
47B
330
1D
100
AcDbEntity
  8
CSLAYER1
  6
Continuous
100
AcDbLine
 10
210.780745
 20
355.221514
 30
0.0
 11
236.380745
 21
355.221514
 31
0.0
  0
LINE
  5
47C
330
1D
100
AcDbEntity
  8
CSLAYER1
  6
Continuous
100
AcDbLine
 10
236.380745
 20
355.221514
 30
0.0
 11
236.380745
 21
158.621514
 31
0.0
  0
LINE
  5
47D
330
1D
100
AcDbEntity
  8
CSLAYER1
  6
Continuous
100
AcDbLine
 10
236.380745
 20
158.621514
 30
0.0
 11
210.780745
 21
158.621514
 31
0.0
  0
LINE
  5
47E
102
{ACAD_REACTORS
330
1516
102
}
330
1D
100
AcDbEntity
  8
CSLAYER1
  6
Continuous
100
AcDbLine
 10
360.4736
 20
158.621514
 30
0.0
 11
360.4736
 21
355.221514
 31
0.0
  0
LINE
  5
47F
102
{ACAD_REACTORS
330
1516
102
}
330
1D
100
AcDbEntity
  8
CSLAYER1
  6
Continuous
100
AcDbLine
 10
360.4736
 20
355.221514
 30
0.0
 11
362.4736
 21
355.221514
 31
0.0
  0
LINE
  5
480
102
{ACAD_REACTORS
330
14A9
330
1516
102
}
330
1D
100
AcDbEntity
  8
CSLAYER1
  6
Continuous
100
AcDbLine
 10
362.4736
 20
355.421514
 30
0.0
 11
362.4736
 21
158.421514
 31
0.0
  0
LINE
  5
481
330
1D
100
AcDbEntity
  8
CSLAYER1
  6
Continuous
100
AcDbLine
 10
362.4736
 20
158.421514
 30
0.0
 11
366.4736
 21
158.421514
 31
0.0
  0
LINE
  5
482
330
1D
100
AcDbEntity
  8
CSLAYER1
  6
Continuous
100
AcDbLine
 10
366.4736
 20
158.421514
 30
0.0
 11
366.4736
 21
355.421514
 31
0.0
  0
LINE
  5
483
102
{ACAD_REACTORS
330
14A9
102
}
330
1D
100
AcDbEntity
  8
CSLAYER1
  6
Continuous
100
AcDbLine
 10
366.4736
 20
355.421514
 30
0.0
 11
362.4736
 21
355.421514
 31
0.0
  0
LINE
  5
484
102
{ACAD_REACTORS
330
14A9
102
}
330
1D
100
AcDbEntity
  8
CSLAYER1
  6
Continuous
100
AcDbLine
 10
364.4736
 20
355.421514
 30
0.0
 11
364.4736
 21
348.249941
 31
0.0
  0
LINE
  5
485
102
{ACAD_REACTORS
330
14A9
102
}
330
1D
100
AcDbEntity
  8
CSLAYER1
  6
Continuous
100
AcDbLine
 10
364.4736
 20
348.249941
 30
0.0
 11
365.887814
 21
346.835728
 31
0.0
  0
LINE
  5
486
102
{ACAD_REACTORS
330
14A9
102
}
330
1D
100
AcDbEntity
  8
CSLAYER1
  6
Continuous
100
AcDbLine
 10
365.887814
 20
346.835728
 30
0.0
 11
364.4736
 21
345.421514
 31
0.0
  0
LINE
  5
487
330
1D
100
AcDbEntity
  8
CSLAYER1
  6
Continuous
100
AcDbLine
 10
364.4736
 20
345.421514
 30
0.0
 11
364.4736
 21
340.421514
 31
0.0
  0
LINE
  5
488
102
{ACAD_REACTORS
330
14A9
102
}
330
1D
100
AcDbEntity
  8
CSLAYER1
  6
Continuous
100
AcDbLine
 10
364.4736
 20
340.421514
 30
0.0
 11
365.887814
 21
339.007301
 31
0.0
  0
LINE
  5
489
330
1D
100
AcDbEntity
  8
CSLAYER1
  6
Continuous
100
AcDbLine
 10
365.887814
 20
339.007301
 30
0.0
 11
365.887814
 21
346.835728
 31
0.0
  0
LINE
  5
48A
102
{ACAD_REACTORS
330
14A9
102
}
330
1D
100
AcDbEntity
  8
CSLAYER1
  6
Continuous
100
AcDbLine
 10
364.4736
 20
345.421514
 30
0.0
 11
363.022146
 21
346.872968
 31
0.0
  0
ARC
  5
48B
102
{ACAD_REACTORS
330
14A9
102
}
330
1D
100
AcDbEntity
  8
CSLAYER1
  6
Continuous
100
AcDbCircle
 10
364.4736
 20
348.249941
 30
0.0
 40
2.0
100
AcDbArc
 50
180.0
 51
225.0
  0
LINE
  5
48C
102
{ACAD_REACTORS
330
14A9
102
}
330
1D
100
AcDbEntity
  8
CSLAYER1
  6
Continuous
100
AcDbLine
 10
364.4736
 20
340.421514
 30
0.0
 11
363.059387
 21
339.007301
 31
0.0
  0
ARC
  5
48D
102
{ACAD_REACTORS
330
14A9
102
}
330
1D
100
AcDbEntity
  8
CSLAYER1
  6
Continuous
100
AcDbCircle
 10
364.4736
 20
337.593087
 30
0.0
 40
2.0
100
AcDbArc
 50
135.0
 51
180.0
  0
LINE
  5
48E
102
{ACAD_REACTORS
330
14A9
102
}
330
1D
100
AcDbEntity
  8
CSLAYER1
  6
Continuous
100
AcDbLine
 10
364.4736
 20
337.593087
 30
0.0
 11
365.887814
 21
339.007301
 31
0.0
  0
LINE
  5
48F
102
{ACAD_REACTORS
330
14A9
102
}
330
1D
100
AcDbEntity
  8
CSLAYER1
  6
Continuous
100
AcDbLine
 10
364.4736
 20
337.593087
 30
0.0
 11
364.4736
 21
335.978697
 31
0.0
  0
LINE
  5
490
330
1D
100
AcDbEntity
  8
CSLAYER1
  6
Continuous
100
AcDbLine
 10
366.4736
 20
324.521514
 30
0.0
 11
371.8736
 21
324.521514
 31
0.0
  0
LINE
  5
491
330
1D
100
AcDbEntity
  8
CSLAYER1
  6
Continuous
100
AcDbLine
 10
371.8736
 20
324.521514
 30
0.0
 11
371.8736
 21
320.421514
 31
0.0
  0
LINE
  5
492
330
1D
100
AcDbEntity
  8
CSLAYER1
  6
Continuous
100
AcDbLine
 10
373.4736
 20
320.421514
 30
0.0
 11
373.4736
 21
322.921514
 31
0.0
  0
ARC
  5
493
330
1D
100
AcDbEntity
  8
CSLAYER1
  6
Continuous
100
AcDbCircle
 10
371.8736
 20
322.921514
 30
0.0
 40
1.6
100
AcDbArc
 50
0.0
 51
90.0
  0
LINE
  5
494
330
1D
100
AcDbEntity
  8
CSLAYER1
  6
Continuous
100
AcDbLine
 10
482.4736
 20
241.821514
 30
0.0
 11
483.4736
 21
241.821514
 31
0.0
  0
ARC
  5
495
330
1D
100
AcDbEntity
  8
CSLAYER1
  6
Continuous
100
AcDbCircle
 10
483.4736
 20
240.821514
 30
0.0
 40
1.0
100
AcDbArc
 50
0.0
 51
90.0
  0
ARC
  5
496
330
1D
100
AcDbEntity
  8
CSLAYER1
  6
Continuous
100
AcDbCircle
 10
483.4736
 20
190.921514
 30
0.0
 40
1.0
100
AcDbArc
 50
270.0
 51
0.0
  0
ARC
  5
497
330
1D
100
AcDbEntity
  8
CSLAYER1
  6
Continuous
100
AcDbCircle
 10
20.9525
 20
210.721514
 30
0.0
 40
0.5
100
AcDbArc
 50
180.0
 51
270.0
  0
ARC
  5
498
330
1D
100
AcDbEntity
  8
CSLAYER1
  6
Continuous
100
AcDbCircle
 10
68.320433
 20
248.721514
 30
0.0
 40
1.0
100
AcDbArc
 50
90.0
 51
180.0
  0
ARC
  5
499
330
1D
100
AcDbEntity
  8
CSLAYER1
  6
Continuous
100
AcDbCircle
 10
85.320433
 20
246.721514
 30
0.0
 40
2.0
100
AcDbArc
 50
270.0
 51
0.0
  0
CIRCLE
  5
49A
330
1D
100
AcDbEntity
  8
CSLAYER1
  6
Continuous
100
AcDbCircle
 10
76.820433
 20
305.221514
 30
0.0
 40
4.1
  0
CIRCLE
  5
49B
330
1D
100
AcDbEntity
  8
CSLAYER1
  6
Continuous
100
AcDbCircle
 10
76.820433
 20
305.221514
 30
0.0
 40
2.75
  0
ARC
  5
49C
330
1D
100
AcDbEntity
  8
CSLAYER1
  6
Continuous
100
AcDbCircle
 10
63.820433
 20
314.221514
 30
0.0
 40
1.0
100
AcDbArc
 50
90.0
 51
180.0
  0
ARC
  5
49D
330
1D
100
AcDbEntity
  8
CSLAYER1
  6
Continuous
100
AcDbCircle
 10
100.320433
 20
313.221514
 30
0.0
 40
2.0
100
AcDbArc
 50
0.0
 51
90.0
  0
LINE
  5
49E
330
1D
100
AcDbEntity
  8
CSLAYER1
  6
Continuous
100
AcDbLine
 10
360.4736
 20
158.621514
 30
0.0
 11
362.4736
 21
158.621514
 31
0.0
  0
LINE
  5
49F
330
1D
100
AcDbEntity
  8
CSLAYER1
  6
Continuous
100
AcDbLine
 10
362.4736
 20
108.650284
 30
0.0
 11
362.4736
 21
82.650284
 31
0.0
  0
LINE
  5
4A0
330
1D
100
AcDbEntity
  8
CSLAYER1
  6
Continuous
100
AcDbLine
 10
362.4736
 20
82.650284
 30
0.0
 11
360.4736
 21
82.650284
 31
0.0
  0
LINE
  5
4A1
330
1D
100
AcDbEntity
  8
CSLAYER1
  6
Continuous
100
AcDbLine
 10
360.4736
 20
82.650284
 30
0.0
 11
360.4736
 21
108.650284
 31
0.0
  0
LINE
  5
4A2
330
1D
100
AcDbEntity
  8
CSLAYER1
  6
Continuous
100
AcDbLine
 10
360.4736
 20
108.650284
 30
0.0
 11
362.4736
 21
108.650284
 31
0.0
  0
LINE
  5
4A3
330
1D
100
AcDbEntity
  8
CSLAYER1
  6
Continuous
100
AcDbLine
 10
364.4736
 20
108.650284
 30
0.0
 11
366.4736
 21
108.650284
 31
0.0
  0
LINE
  5
4A4
330
1D
100
AcDbEntity
  8
CSLAYER1
  6
Continuous
100
AcDbLine
 10
366.4736
 20
108.650284
 30
0.0
 11
366.4736
 21
82.650284
 31
0.0
  0
LINE
  5
4A5
330
1D
100
AcDbEntity
  8
CSLAYER1
  6
Continuous
100
AcDbLine
 10
366.4736
 20
82.650284
 30
0.0
 11
364.4736
 21
82.650284
 31
0.0
  0
LINE
  5
4A6
330
1D
100
AcDbEntity
  8
CSLAYER1
  6
Continuous
100
AcDbLine
 10
364.4736
 20
85.150284
 30
0.0
 11
482.4736
 21
85.150284
 31
0.0
  0
LINE
  5
4A7
330
1D
100
AcDbEntity
  8
CSLAYER1
  6
Continuous
100
AcDbLine
 10
482.4736
 20
85.150284
 30
0.0
 11
482.4736
 21
83.650284
 31
0.0
  0
LINE
  5
4A8
330
1D
100
AcDbEntity
  8
CSLAYER1
  6
Continuous
100
AcDbLine
 10
482.4736
 20
83.650284
 30
0.0
 11
460.3736
 21
83.650284
 31
0.0
  0
ARC
  5
4A9
330
1D
100
AcDbEntity
  8
CSLAYER1
  6
Continuous
100
AcDbCircle
 10
460.3736
 20
85.150284
 30
0.0
 40
1.5
100
AcDbArc
 50
180.0
 51
270.0
  0
ARC
  5
4AA
330
1D
100
AcDbEntity
  8
CSLAYER1
  6
Continuous
100
AcDbCircle
 10
482.4736
 20
87.150284
 30
0.0
 40
2.0
100
AcDbArc
 50
270.0
 51
0.0
  0
LINE
  5
4AB
330
1D
100
AcDbEntity
  8
CSLAYER1
  6
Continuous
100
AcDbLine
 10
484.4736
 20
87.150284
 30
0.0
 11
484.4736
 21
106.150284
 31
0.0
  0
LINE
  5
4AC
330
1D
100
AcDbEntity
  8
CSLAYER1
  6
Continuous
100
AcDbLine
 10
364.4736
 20
106.150284
 30
0.0
 11
484.4736
 21
106.150284
 31
0.0
  0
LINE
  5
4AD
330
1D
100
AcDbEntity
  8
CSLAYER1
  6
Continuous
100
AcDbLine
 10
364.4736
 20
106.150284
 30
0.0
 11
364.4736
 21
85.150284
 31
0.0
  0
ARC
  5
4AE
330
1D
100
AcDbEntity
  8
CSLAYER1
  6
Continuous
100
AcDbCircle
 10
364.4736
 20
84.650284
 30
0.0
 40
2.0
100
AcDbArc
 50
180.0
 51
270.0
  0
LINE
  5
4AF
330
1D
100
AcDbEntity
  8
CSLAYER1
  6
Continuous
100
AcDbLine
 10
360.4736
 20
88.650284
 30
0.0
 11
347.4736
 21
88.650284
 31
0.0
  0
LINE
  5
4B0
330
1D
100
AcDbEntity
  8
CSLAYER1
  6
Continuous
100
AcDbLine
 10
347.4736
 20
88.650284
 30
0.0
 11
347.4736
 21
90.450284
 31
0.0
  0
LINE
  5
4B1
330
1D
100
AcDbEntity
  8
CSLAYER1
  6
Continuous
100
AcDbLine
 10
347.4736
 20
90.450284
 30
0.0
 11
359.4736
 21
102.650284
 31
0.0
  0
LINE
  5
4B2
330
1D
100
AcDbEntity
  8
CSLAYER1
  6
Continuous
100
AcDbLine
 10
359.4736
 20
102.650284
 30
0.0
 11
360.4736
 21
102.650284
 31
0.0
  0
LINE
  5
4B3
330
1D
100
AcDbEntity
  8
CSLAYER1
  6
Continuous
100
AcDbLine
 10
360.4736
 20
103.294255
 30
0.0
 11
350.4736
 21
101.650284
 31
0.0
  0
ARC
  5
4B4
330
1D
100
AcDbEntity
  8
CSLAYER1
  6
Continuous
100
AcDbCircle
 10
350.4736
 20
100.650284
 30
0.0
 40
1.0
100
AcDbArc
 50
90.0
 51
210.15613
  0
ARC
  5
4B5
330
1D
100
AcDbEntity
  8
CSLAYER1
  6
Continuous
100
AcDbCircle
 10
364.4736
 20
104.650284
 30
0.0
 40
15.531559
100
AcDbArc
 50
196.85104
 51
217.471354
  0
ARC
  5
4B6
330
1D
100
AcDbEntity
  8
CSLAYER1
  6
Continuous
100
AcDbCircle
 10
350.4736
 20
100.650284
 30
0.0
 40
1.0
100
AcDbArc
 50
219.771659
 51
220.107626
  0
ARC
  5
4B7
330
1D
100
AcDbEntity
  8
CSLAYER1
  6
Continuous
100
AcDbCircle
 10
350.4736
 20
100.650284
 30
0.0
 40
1.0
100
AcDbArc
 50
74.818397
 51
75.377041
  0
ARC
  5
4B8
330
1D
100
AcDbEntity
  8
CSLAYER1
  6
Continuous
100
AcDbCircle
 10
364.4736
 20
106.650284
 30
0.0
 40
2.0
100
AcDbArc
 50
90.0
 51
180.0
  0
ARC
  5
4BD
330
1D
100
AcDbEntity
  8
CSLAYER1
  6
Continuous
100
AcDbCircle
 10
460.3736
 20
106.150284
 30
0.0
 40
1.5
100
AcDbArc
 50
90.0
 51
180.0
  0
LINE
  5
4BE
330
1D
100
AcDbEntity
  8
CSLAYER1
  6
Continuous
100
AcDbLine
 10
460.3736
 20
107.650284
 30
0.0
 11
482.4736
 21
107.650284
 31
0.0
  0
LINE
  5
4BF
330
1D
100
AcDbEntity
  8
CSLAYER1
  6
Continuous
100
AcDbLine
 10
482.4736
 20
107.650284
 30
0.0
 11
482.4736
 21
106.150284
 31
0.0
  0
LINE
  5
4C2
330
1D
100
AcDbEntity
  8
CSLAYER1
  6
Continuous
100
AcDbLine
 10
377.4736
 20
320.421514
 30
0.0
 11
377.4736
 21
320.821514
 31
0.0
  0
ARC
  5
4C3
330
1D
100
AcDbEntity
  8
CSLAYER1
  6
Continuous
100
AcDbCircle
 10
379.4736
 20
320.821514
 30
0.0
 40
2.0
100
AcDbArc
 50
90.0
 51
180.0
  0
TEXT
  5
4D1
330
1D
100
AcDbEntity
  8
CSLAYER10
100
AcDbText
 10
509.15
 20
13.781873
 30
0.0
 40
2.7
  1
 
 41
1.666666666667
  7
FX_FONT
 72
     5
 11
511.85
 21
13.781873
 31
0.0
100
AcDbText
  0
TEXT
  5
4F1
330
1D
100
AcDbEntity
  8
CSLAYER10
  6
Continuous
100
AcDbText
 10
91.321197162858
 20
62.956878162858
 30
0.0
 40
5.0
  1
扉　厚
 41
0.72
  7
FX_FONT
 72
     5
 11
103.321197162858
 21
62.956878162858
 31
0.0
100
AcDbText
  0
TEXT
  5
4F3
330
1D
100
AcDbEntity
  8
CSLAYER10
  6
Continuous
100
AcDbText
 10
89.821197162858
 20
38.956894162858
 30
0.0
 40
4.0
  1
37~42
 41
0.775862068966
  7
FX_FONT
 72
     5
 11
104.821197162858
 21
38.956894162858
 31
0.0
100
AcDbText
  0
TEXT
  5
4F4
330
1D
100
AcDbEntity
  8
CSLAYER10
  6
Continuous
100
AcDbText
 10
89.821197162858
 20
30.956894162858
 30
0.0
 40
4.0
  1
42~47
 41
0.775862068966
  7
FX_FONT
 72
     5
 11
104.821197162858
 21
30.956894162858
 31
0.0
100
AcDbText
  0
TEXT
  5
4F5
330
1D
100
AcDbEntity
  8
CSLAYER10
  6
Continuous
100
AcDbText
 10
89.821197162858
 20
22.956896162858
 30
0.0
 40
4.0
  1
47~50
 41
0.784655623365
  7
FX_FONT
 72
     5
 11
104.821197162858
 21
22.956896162858
 31
0.0
100
AcDbText
  0
TEXT
  5
4F6
330
1D
100
AcDbEntity
  8
CSLAYER10
  6
Continuous
100
AcDbText
 10
115.785818709684
 20
71.619917383864
 30
0.0
 40
4.0
  1
X・NXキーシリンダー
 41
0.489130434783
  7
FX_FONT
 72
     5
 11
139.785818709684
 21
71.619917383864
 31
0.0
100
AcDbText
  0
TEXT
  5
4F7
330
1D
100
AcDbEntity
  8
CSLAYER10
  6
Continuous
100
AcDbText
 10
154.541904164449
 20
71.576735254206
 30
0.0
 40
4.0
  1
ピンシリンダー及びサムターン
 41
0.389316690031
  7
FX_FONT
 72
     5
 11
180.184896814509
 21
71.576735254206
 31
0.0
100
AcDbText
  0
TEXT
  5
4FA
330
1D
100
AcDbEntity
  8
CSLAYER10
  6
Continuous
100
AcDbText
 10
89.821197162858
 20
46.956894162858
 30
0.0
 40
4.0
  1
35~37
 41
0.77474892396
  7
FX_FONT
 72
     5
 11
104.821197162858
 21
46.956894162858
 31
0.0
100
AcDbText
  0
TEXT
  5
4FB
330
1D
100
AcDbEntity
  8
CSLAYER10
  6
Continuous
100
AcDbText
 10
110.817210206393
 20
46.819405
 30
0.0
 40
4.0
  1
26.5
 41
0.781193490054
  7
FX_FONT
 72
     5
 11
122.817210206393
 21
46.819405
 31
0.0
100
AcDbText
  0
TEXT
  5
4FC
330
1D
100
AcDbEntity
  8
CSLAYER10
  6
Continuous
100
AcDbText
 10
130.62047958273
 20
46.819405
 30
0.0
 40
4.0
  1
%%c50.5
 41
0.619621342513
  7
FX_FONT
 72
     5
 11
142.62047958273
 21
46.819405
 31
0.0
100
AcDbText
  0
TEXT
  5
4FD
330
1D
100
AcDbEntity
  8
CSLAYER10
  6
Continuous
100
AcDbText
 10
110.817210206393
 20
38.819405
 30
0.0
 40
4.0
  1
23.5
 41
0.782608695652
  7
FX_FONT
 72
     5
 11
122.817210206393
 21
38.819405
 31
0.0
100
AcDbText
  0
TEXT
  5
4FE
330
1D
100
AcDbEntity
  8
CSLAYER10
  6
Continuous
100
AcDbText
 10
130.62047958273
 20
38.819405
 30
0.0
 40
4.0
  1
%%C49.5
 41
0.620630207834
  7
FX_FONT
 72
     5
 11
142.62047958273
 21
38.819405
 31
0.0
100
AcDbText
  0
TEXT
  5
4FF
330
1D
100
AcDbEntity
  8
CSLAYER10
  6
Continuous
100
AcDbText
 10
110.817210206393
 20
30.819405
 30
0.0
 40
4.0
  1
21.0
 41
0.79528718704
  7
FX_FONT
 72
     5
 11
122.817210206393
 21
30.819405
 31
0.0
100
AcDbText
  0
TEXT
  5
500
330
1D
100
AcDbEntity
  8
CSLAYER10
  6
Continuous
100
AcDbText
 10
130.62047958273
 20
30.819405
 30
0.0
 40
4.0
  1
%%C48.5
 41
0.620689655172
  7
FX_FONT
 72
     5
 11
142.62047958273
 21
30.819405
 31
0.0
100
AcDbText
  0
TEXT
  5
501
330
1D
100
AcDbEntity
  8
CSLAYER10
  6
Continuous
100
AcDbText
 10
110.817210206393
 20
22.819407
 30
0.0
 40
4.0
  1
18.5
 41
0.782608695652
  7
FX_FONT
 72
     5
 11
122.817210206393
 21
22.819407
 31
0.0
100
AcDbText
  0
TEXT
  5
502
330
1D
100
AcDbEntity
  8
CSLAYER10
  6
Continuous
100
AcDbText
 10
130.62047958273
 20
22.819407
 30
0.0
 40
4.0
  1
%%C47.5
 41
0.620689655172
  7
FX_FONT
 72
     5
 11
142.62047958273
 21
22.819407
 31
0.0
100
AcDbText
  0
TEXT
  5
503
330
1D
100
AcDbEntity
  8
CSLAYER10
  6
Continuous
100
AcDbText
 10
150.396399122107
 20
46.933583874807
 30
0.0
 40
4.0
  1
21.0
 41
0.79528718704
  7
FX_FONT
 72
     5
 11
162.396399122107
 21
46.933583874807
 31
0.0
100
AcDbText
  0
TEXT
  5
504
330
1D
100
AcDbEntity
  8
CSLAYER10
  6
Continuous
100
AcDbText
 10
170.624756871721
 20
46.933583874807
 30
0.0
 40
4.0
  1
%%C48.5
 41
0.620689655172
  7
FX_FONT
 72
     5
 11
182.624756871721
 21
46.933583874807
 31
0.0
100
AcDbText
  0
TEXT
  5
505
330
1D
100
AcDbEntity
  8
CSLAYER10
  6
Continuous
100
AcDbText
 10
150.396399122107
 20
38.933583874807
 30
0.0
 40
4.0
  1
18.5
 41
0.782608695652
  7
FX_FONT
 72
     5
 11
162.396399122107
 21
38.933583874807
 31
0.0
100
AcDbText
  0
TEXT
  5
506
330
1D
100
AcDbEntity
  8
CSLAYER10
  6
Continuous
100
AcDbText
 10
170.624756871721
 20
38.933583874807
 30
0.0
 40
4.0
  1
%%C47.5
 41
0.620689655172
  7
FX_FONT
 72
     5
 11
182.624756871721
 21
38.933583874807
 31
0.0
100
AcDbText
  0
TEXT
  5
507
330
1D
100
AcDbEntity
  8
CSLAYER10
  6
Continuous
100
AcDbText
 10
150.396399122107
 20
30.933583874807
 30
0.0
 40
4.0
  1
16.0
 41
0.793825799338
  7
FX_FONT
 72
     5
 11
162.396399122107
 21
30.933583874807
 31
0.0
100
AcDbText
  0
TEXT
  5
508
330
1D
100
AcDbEntity
  8
CSLAYER10
  6
Continuous
100
AcDbText
 10
170.624756871721
 20
30.933583874807
 30
0.0
 40
4.0
  1
%%C46.5
 41
0.619799139168
  7
FX_FONT
 72
     5
 11
182.624756871721
 21
30.933583874807
 31
0.0
100
AcDbText
  0
TEXT
  5
509
330
1D
100
AcDbEntity
  8
CSLAYER10
  6
Continuous
100
AcDbText
 10
150.396399122107
 20
22.933585874807
 30
0.0
 40
4.0
  1
13.5
 41
0.782608695652
  7
FX_FONT
 72
     5
 11
162.396399122107
 21
22.933585874807
 31
0.0
100
AcDbText
  0
TEXT
  5
50A
330
1D
100
AcDbEntity
  8
CSLAYER10
  6
Continuous
100
AcDbText
 10
170.624756871721
 20
22.933585874807
 30
0.0
 40
4.0
  1
%%C45.5
 41
0.619799139168
  7
FX_FONT
 72
     5
 11
182.624756871721
 21
22.933585874807
 31
0.0
100
AcDbText
  0
TEXT
  5
510
330
1D
100
AcDbEntity
  8
CSLAYER10
  6
Continuous
100
AcDbText
 10
86.033452627004
 20
82.171154761181
 30
0.0
 40
4.0
  1
●カラー寸法
 41
0.894505253897
  7
FX_FONT
 72
     5
 11
110.84106500174
 21
82.171154761181
 31
0.0
100
AcDbText
  0
TEXT
  5
53C
330
1D
100
AcDbEntity
  8
CSLAYER10
100
AcDbText
 10
123.363716
 20
248.470886
 30
0.0
 40
4.0
  1
125
 50
90.0
 41
0.794117647059
  7
FX_FONT
 72
     5
 11
123.363716
 21
257.470886
 31
0.0
100
AcDbText
  0
TEXT
  5
53D
330
1D
100
AcDbEntity
  8
CSLAYER10
100
AcDbText
 10
114.090622
 20
248.627686
 30
0.0
 40
4.0
  1
105
 50
90.0
 41
0.793728564429
  7
FX_FONT
 72
     5
 11
114.090622
 21
257.627686
 31
0.0
100
AcDbText
  0
TEXT
  5
53E
330
1D
100
AcDbEntity
  8
CSLAYER10
100
AcDbText
 10
51.866821
 20
229.543198
 30
0.0
 40
4.0
  1
38
 50
90.0
 41
0.818181818182
  7
FX_FONT
 72
     5
 11
51.866821
 21
235.543198
 31
0.0
100
AcDbText
  0
LINE
  5
55E
330
1D
100
AcDbEntity
  8
CSLAYER10
  6
Continuous
100
AcDbLine
 10
87.183709
 20
52.819404
 30
0.0
 11
187.639416092036
 21
52.819404
 31
0.0
  0
LINE
  5
55F
330
1D
100
AcDbEntity
  8
CSLAYER10
  6
Continuous
100
AcDbLine
 10
107.183709
 20
62.819404
 30
0.0
 11
187.639416092036
 21
62.819404
 31
0.0
  0
LINE
  5
560
330
1D
100
AcDbEntity
  8
CSLAYER10
  6
Continuous
100
AcDbLine
 10
127.183709
 20
62.819404
 30
0.0
 11
127.183709
 21
20.819404
 31
0.0
  0
LINE
  5
561
330
1D
100
AcDbEntity
  8
CSLAYER10
  6
Continuous
100
AcDbLine
 10
107.183709
 20
20.819404
 30
0.0
 11
107.183709
 21
77.819404
 31
0.0
  0
LINE
  5
562
330
1D
100
AcDbEntity
  8
CSLAYER10
  6
Continuous
100
AcDbLine
 10
102.320365
 20
106.803155
 30
0.0
 11
102.320365
 21
150.09255
 31
0.0
  0
LINE
  5
563
330
1D
100
AcDbEntity
  8
CSLAYER10
  6
Continuous
100
AcDbLine
 10
88.818299
 20
132.00146
 30
0.0
 11
88.818299
 21
116.817866
 31
0.0
  0
LINE
  5
564
330
1D
100
AcDbEntity
  8
CSLAYER10
  6
Continuous
100
AcDbLine
 10
76.820433
 20
116.158047
 30
0.0
 11
76.820433
 21
106.721514
 31
0.0
  0
LINE
  5
565
330
1D
100
AcDbEntity
  8
CSLAYER10
  6
Continuous
100
AcDbLine
 10
76.820433
 20
123.405435
 30
0.0
 11
76.820433
 21
154.154523
 31
0.0
  0
LINE
  5
566
330
1D
100
AcDbEntity
  8
CSLAYER10
  6
Continuous
100
AcDbLine
 10
76.820433
 20
174.221514
 30
0.0
 11
76.820433
 21
225.783072
 31
0.0
  0
LINE
  5
567
330
1D
100
AcDbEntity
  8
CSLAYER10
  6
Continuous
100
AcDbLine
 10
76.820433
 20
233.218002
 30
0.0
 11
76.820433
 21
275.982709
 31
0.0
  0
LINE
  5
568
330
1D
100
AcDbEntity
  8
CSLAYER10
  6
Continuous
 48
0.3
100
AcDbLine
 10
69.608995384652
 20
305.221514
 30
0.0
 11
83.949389384652
 21
305.221514
 31
0.0
  0
LINE
  5
569
330
1D
100
AcDbEntity
  8
CSLAYER10
  6
Continuous
 48
0.3
100
AcDbLine
 10
45.634799
 20
305.221514
 30
0.0
 11
32.146627
 21
305.221514
 31
0.0
  0
LINE
  5
56A
330
1D
100
AcDbEntity
  8
CSLAYER10
  6
Continuous
 48
0.3
100
AcDbLine
 10
43.182087
 20
252.721514
 30
0.0
 11
18.598553
 21
252.721514
 31
0.0
  0
LINE
  5
56B
330
1D
100
AcDbEntity
  8
CSLAYER10
  6
Continuous
100
AcDbLine
 10
59.460174
 20
252.721514
 30
0.0
 11
105.994365
 21
252.721514
 31
0.0
  0
LINE
  5
56D
330
1D
100
AcDbEntity
  8
CSLAYER10
  6
Continuous
100
AcDbLine
 10
223.580745
 20
148.514394
 30
0.0
 11
223.580745
 21
205.141425
 31
0.0
  0
LINE
  5
56F
330
1D
100
AcDbEntity
  8
CSLAYER10
  6
Continuous
100
AcDbLine
 10
223.580745
 20
210.704316486154
 30
0.0
 11
223.580745
 21
362.046959
 31
0.0
  0
LINE
  5
570
330
1D
100
AcDbEntity
  8
CSLAYER10
  6
Continuous
100
AcDbLine
 10
185.580745
 20
380.283526
 30
0.0
 11
185.580745
 21
317.528204
 31
0.0
  0
LINE
  5
576
330
1D
100
AcDbEntity
  8
CSLAYER10
  6
Continuous
100
AcDbLine
 10
147.183709
 20
20.819404
 30
0.0
 11
147.183709
 21
77.819404
 31
0.0
  0
LINE
  5
578
330
1D
100
AcDbEntity
  8
CSLAYER10
  6
Continuous
100
AcDbLine
 10
187.639416092036
 20
28.819404
 30
0.0
 11
87.183709
 21
28.819404
 31
0.0
  0
LINE
  5
579
330
1D
100
AcDbEntity
  8
CSLAYER10
  6
Continuous
100
AcDbLine
 10
87.183709
 20
36.819404
 30
0.0
 11
187.639416092036
 21
36.819404
 31
0.0
  0
LINE
  5
57A
330
1D
100
AcDbEntity
  8
CSLAYER10
  6
Continuous
100
AcDbLine
 10
187.639416092036
 20
44.819404
 30
0.0
 11
87.183709
 21
44.819404
 31
0.0
  0
LINE
  5
57B
330
1D
100
AcDbEntity
  8
CSLAYER10
  6
Continuous
100
AcDbLine
 10
167.183709
 20
62.819404
 30
0.0
 11
167.183709
 21
20.819404
 31
0.0
  0
LINE
  5
5A9
330
1D
100
AcDbEntity
  8
CSLAYER10
  6
PHANTOM
100
AcDbLine
 10
431.124788
 20
71.984671
 30
0.0
 11
425.4736
 21
81.650284
 31
0.0
  0
LINE
  5
5AA
330
1D
100
AcDbEntity
  8
CSLAYER10
  6
PHANTOM
100
AcDbLine
 10
425.4736
 20
81.650284
 30
0.0
 11
420.858416
 21
85.111672
 31
0.0
  0
LINE
  5
5AB
330
1D
100
AcDbEntity
  8
CSLAYER10
  6
Continuous
 48
0.5
100
AcDbLine
 10
430.4736
 20
80.951379
 30
0.0
 11
430.4736
 21
110.349189
 31
0.0
  0
LINE
  5
5AC
330
1D
100
AcDbEntity
  8
CSLAYER10
  6
PHANTOM
100
AcDbLine
 10
425.4736
 20
109.650284
 30
0.0
 11
431.124788
 21
119.315897
 31
0.0
  0
ARC
  5
5AD
330
1D
100
AcDbEntity
  8
CSLAYER10
  6
PHANTOM
100
AcDbCircle
 10
433.9736
 20
117.650284
 30
0.0
 40
3.3
100
AcDbArc
 50
356.171622
 51
149.686484
  0
LINE
  5
5AE
330
1D
100
AcDbEntity
  8
CSLAYER10
  6
PHANTOM
100
AcDbLine
 10
425.4736
 20
109.650284
 30
0.0
 11
420.940725
 21
106.250627
 31
0.0
  0
ARC
  5
5AF
330
1D
100
AcDbEntity
  8
CSLAYER10
  6
PHANTOM
100
AcDbCircle
 10
407.333181
 20
119.432992
 30
0.0
 40
30.0
100
AcDbArc
 50
333.745573
 51
356.171622
  0
ARC
  5
5B0
330
1D
100
AcDbEntity
  8
CSLAYER10
  6
PHANTOM
100
AcDbCircle
 10
407.333181
 20
71.867576
 30
0.0
 40
30.0
100
AcDbArc
 50
3.828378
 51
26.363401
  0
ARC
  5
5B1
330
1D
100
AcDbEntity
  8
CSLAYER10
  6
PHANTOM
100
AcDbCircle
 10
433.9736
 20
73.650284
 30
0.0
 40
3.3
100
AcDbArc
 50
210.313516
 51
3.828378
  0
ARC
  5
5B2
102
{ACAD_REACTORS
330
12FE
102
}
330
1D
100
AcDbEntity
  8
CSLAYER10
  6
PHANTOM
100
AcDbCircle
 10
452.4736
 20
211.921514
 30
0.0
 40
5.0
100
AcDbArc
 50
263.475021
 51
96.524979
  0
ARC
  5
5B3
102
{ACAD_REACTORS
330
12FE
102
}
330
1D
100
AcDbEntity
  8
CSLAYER10
  6
PHANTOM
100
AcDbCircle
 10
430.4736
 20
211.921514
 30
0.0
 40
22.0
100
AcDbArc
 50
13.049958
 51
166.950042
  0
ARC
  5
5B4
102
{ACAD_REACTORS
330
12FE
102
}
330
1D
100
AcDbEntity
  8
CSLAYER10
  6
PHANTOM
100
AcDbCircle
 10
408.4736
 20
211.921514
 30
0.0
 40
5.0
100
AcDbArc
 50
83.475021
 51
276.524979
  0
ARC
  5
5B5
102
{ACAD_REACTORS
330
12FE
102
}
330
1D
100
AcDbEntity
  8
CSLAYER10
  6
PHANTOM
100
AcDbCircle
 10
430.4736
 20
211.921514
 30
0.0
 40
22.0
100
AcDbArc
 50
193.049958
 51
346.950042
  0
LINE
  5
5B6
330
1D
100
AcDbEntity
  8
CSLAYER1
  6
Continuous
100
AcDbLine
 10
525.508599
 20
249.66578
 30
0.0
 11
525.508599
 21
254.66578
 31
0.0
  0
LINE
  5
5B7
330
1D
100
AcDbEntity
  8
CSLAYER1
  6
Continuous
100
AcDbLine
 10
525.158599
 20
254.66578
 30
0.0
 11
525.158599
 21
284.66578
 31
0.0
  0
LINE
  5
5B8
330
1D
100
AcDbEntity
  8
CSLAYER1
  6
Continuous
100
AcDbLine
 10
526.658599
 20
284.66578
 30
0.0
 11
526.658599
 21
254.66578
 31
0.0
  0
LINE
  5
5B9
330
1D
100
AcDbEntity
  8
CSLAYER1
  6
Continuous
100
AcDbLine
 10
526.308599
 20
254.66578
 30
0.0
 11
526.308599
 21
249.66578
 31
0.0
  0
LINE
  5
5BA
330
1D
100
AcDbEntity
  8
CSLAYER1
  6
Continuous
100
AcDbLine
 10
526.308599
 20
249.66578
 30
0.0
 11
525.508599
 21
249.66578
 31
0.0
  0
LINE
  5
5BB
330
1D
100
AcDbEntity
  8
CSLAYER1
  6
Continuous
100
AcDbLine
 10
527.008599
 20
249.66578
 30
0.0
 11
527.008599
 21
254.66578
 31
0.0
  0
LINE
  5
5BC
330
1D
100
AcDbEntity
  8
CSLAYER1
  6
Continuous
100
AcDbLine
 10
527.808599
 20
254.66578
 30
0.0
 11
527.808599
 21
249.66578
 31
0.0
  0
LINE
  5
5BD
330
1D
100
AcDbEntity
  8
CSLAYER1
  6
Continuous
100
AcDbLine
 10
527.808599
 20
249.66578
 30
0.0
 11
527.008599
 21
249.66578
 31
0.0
  0
LINE
  5
5BE
330
1D
100
AcDbEntity
  8
CSLAYER1
  6
Continuous
100
AcDbLine
 10
528.158599
 20
254.66578
 30
0.0
 11
528.158599
 21
284.66578
 31
0.0
  0
LINE
  5
5BF
330
1D
100
AcDbEntity
  8
CSLAYER1
  6
Continuous
100
AcDbLine
 10
529.658599
 20
284.66578
 30
0.0
 11
529.658599
 21
262.66578
 31
0.0
  0
ARC
  5
5C0
330
1D
100
AcDbEntity
  8
CSLAYER1
  6
Continuous
100
AcDbCircle
 10
532.658599
 20
262.66578
 30
0.0
 40
3.0
100
AcDbArc
 50
180.0
 51
270.0
  0
LINE
  5
5C1
330
1D
100
AcDbEntity
  8
CSLAYER1
  6
Continuous
100
AcDbLine
 10
532.658599
 20
259.66578
 30
0.0
 11
533.658599
 21
259.66578
 31
0.0
  0
LINE
  5
5C2
330
1D
100
AcDbEntity
  8
CSLAYER1
  6
Continuous
100
AcDbLine
 10
533.658599
 20
259.66578
 30
0.0
 11
533.658599
 21
258.16578
 31
0.0
  0
LINE
  5
5C3
330
1D
100
AcDbEntity
  8
CSLAYER1
  6
Continuous
100
AcDbLine
 10
533.658599
 20
258.16578
 30
0.0
 11
532.658599
 21
258.16578
 31
0.0
  0
LINE
  5
5C4
330
1D
100
AcDbEntity
  8
CSLAYER1
  6
Continuous
100
AcDbLine
 10
533.658599
 20
258.51578
 30
0.0
 11
538.658599
 21
258.51578
 31
0.0
  0
LINE
  5
5C5
330
1D
100
AcDbEntity
  8
CSLAYER1
  6
Continuous
100
AcDbLine
 10
538.658599
 20
258.51578
 30
0.0
 11
538.658599
 21
259.31578
 31
0.0
  0
LINE
  5
5C6
330
1D
100
AcDbEntity
  8
CSLAYER1
  6
Continuous
100
AcDbLine
 10
538.658599
 20
259.31578
 30
0.0
 11
533.658599
 21
259.31578
 31
0.0
  0
ARC
  5
5C7
330
1D
100
AcDbEntity
  8
CSLAYER1
  6
Continuous
100
AcDbCircle
 10
532.658599
 20
262.66578
 30
0.0
 40
4.5
100
AcDbArc
 50
180.0
 51
270.0
  0
LINE
  5
5C8
330
1D
100
AcDbEntity
  8
CSLAYER1
  6
Continuous
100
AcDbLine
 10
528.158599
 20
254.66578
 30
0.0
 11
525.158599
 21
254.66578
 31
0.0
  0
LINE
  5
5C9
330
1D
100
AcDbEntity
  8
CSLAYER1
  6
Continuous
100
AcDbLine
 10
525.158599
 20
316.36578
 30
0.0
 11
525.158599
 21
338.277164
 31
0.0
  0
ARC
  5
5CA
330
1D
100
AcDbEntity
  8
CSLAYER1
  6
Continuous
100
AcDbCircle
 10
522.158599
 20
338.277164
 30
0.0
 40
3.0
100
AcDbArc
 50
0.0
 51
90.0
  0
LINE
  5
5CB
330
1D
100
AcDbEntity
  8
CSLAYER1
  6
Continuous
100
AcDbLine
 10
522.158599
 20
341.277164
 30
0.0
 11
466.9736
 21
341.277164
 31
0.0
  0
ARC
  5
5CC
330
1D
100
AcDbEntity
  8
CSLAYER1
  6
Continuous
100
AcDbCircle
 10
466.9736
 20
338.277164
 30
0.0
 40
3.0
100
AcDbArc
 50
90.0
 51
180.0
  0
LINE
  5
5CD
330
1D
100
AcDbEntity
  8
CSLAYER1
  6
Continuous
100
AcDbLine
 10
463.9736
 20
338.277164
 30
0.0
 11
463.9736
 21
325.121514
 31
0.0
  0
LINE
  5
5CE
330
1D
100
AcDbEntity
  8
CSLAYER1
  6
Continuous
100
AcDbLine
 10
462.4736
 20
325.121514
 30
0.0
 11
462.4736
 21
338.277164
 31
0.0
  0
LINE
  5
5CF
330
1D
100
AcDbEntity
  8
CSLAYER1
  6
Continuous
100
AcDbLine
 10
460.9736
 20
338.277164
 30
0.0
 11
460.9736
 21
325.121514
 31
0.0
  0
LINE
  5
5D0
330
1D
100
AcDbEntity
  8
CSLAYER1
  6
Continuous
100
AcDbLine
 10
459.4736
 20
325.121514
 30
0.0
 11
459.4736
 21
338.277164
 31
0.0
  0
LINE
  5
5D1
330
1D
100
AcDbEntity
  8
CSLAYER1
  6
Continuous
100
AcDbLine
 10
466.9736
 20
342.777164
 30
0.0
 11
522.158599
 21
342.777164
 31
0.0
  0
LINE
  5
5D2
330
1D
100
AcDbEntity
  8
CSLAYER1
  6
Continuous
100
AcDbLine
 10
522.158599
 20
344.277164
 30
0.0
 11
466.9736
 21
344.277164
 31
0.0
  0
ARC
  5
5D3
330
1D
100
AcDbEntity
  8
CSLAYER1
  6
Continuous
100
AcDbCircle
 10
466.9736
 20
338.277164
 30
0.0
 40
6.0
100
AcDbArc
 50
90.0
 51
180.0
  0
ARC
  5
5D4
330
1D
100
AcDbEntity
  8
CSLAYER1
  6
Continuous
100
AcDbCircle
 10
466.9736
 20
338.277164
 30
0.0
 40
4.5
100
AcDbArc
 50
90.0
 51
180.0
  0
LINE
  5
5D5
330
1D
100
AcDbEntity
  8
CSLAYER1
  6
Continuous
100
AcDbLine
 10
466.9736
 20
345.777164
 30
0.0
 11
522.158599
 21
345.777164
 31
0.0
  0
LINE
  5
5D6
330
1D
100
AcDbEntity
  8
CSLAYER1
  6
Continuous
100
AcDbLine
 10
526.658599
 20
338.277164
 30
0.0
 11
526.658599
 21
316.36578
 31
0.0
  0
LINE
  5
5D7
330
1D
100
AcDbEntity
  8
CSLAYER1
  6
Continuous
100
AcDbLine
 10
528.158599
 20
316.36578
 30
0.0
 11
528.158599
 21
338.277164
 31
0.0
  0
ARC
  5
5D8
330
1D
100
AcDbEntity
  8
CSLAYER1
  6
Continuous
100
AcDbCircle
 10
522.158599
 20
338.277164
 30
0.0
 40
6.0
100
AcDbArc
 50
0.0
 51
90.0
  0
ARC
  5
5D9
330
1D
100
AcDbEntity
  8
CSLAYER1
  6
Continuous
100
AcDbCircle
 10
522.158599
 20
338.277164
 30
0.0
 40
4.5
100
AcDbArc
 50
0.0
 51
90.0
  0
LINE
  5
5DA
330
1D
100
AcDbEntity
  8
CSLAYER1
  6
Continuous
100
AcDbLine
 10
529.658599
 20
338.277164
 30
0.0
 11
529.658599
 21
316.36578
 31
0.0
  0
LINE
  5
5DB
330
1D
100
AcDbEntity
  8
CSLAYER10
  6
Continuous
100
AcDbLine
 10
533.658599
 20
316.36578
 30
0.0
 11
537.802863
 21
316.36578
 31
0.0
  0
ARC
  5
5DC
330
1D
100
AcDbEntity
  8
CSLAYER1
  6
Continuous
100
AcDbCircle
 10
522.158599
 20
338.277164
 30
0.0
 40
7.5
100
AcDbArc
 50
0.0
 51
90.0
  0
ARC
  5
5DD
330
1D
100
AcDbEntity
  8
CSLAYER1
  6
Continuous
100
AcDbCircle
 10
466.9736
 20
338.277164
 30
0.0
 40
7.5
100
AcDbArc
 50
90.0
 51
180.0
  0
CIRCLE
  5
5DE
102
{ACAD_REACTORS
330
12FA
102
}
330
1D
100
AcDbEntity
  8
CSLAYER10
  6
PHANTOM
100
AcDbCircle
 10
430.4736
 20
296.921514
 30
0.0
 40
17.0
  0
LINE
  5
5E0
330
1D
100
AcDbEntity
  8
CSLAYER1
  6
Continuous
100
AcDbLine
 10
375.4736
 20
320.421514
 30
0.0
 11
375.4736
 21
321.421514
 31
0.0
  0
LINE
  5
5E1
330
1D
100
AcDbEntity
  8
CSLAYER1
  6
Continuous
100
AcDbLine
 10
375.4736
 20
321.421514
 30
0.0
 11
373.4736
 21
321.421514
 31
0.0
  0
LINE
  5
5E3
330
1D
100
AcDbEntity
  8
CSLAYER10
  6
Continuous
 48
0.3
100
AcDbLine
 10
83.99063
 20
200.221514
 30
0.0
 11
69.650236
 21
200.221514
 31
0.0
  0
LINE
  5
5E4
330
1D
100
AcDbEntity
  8
CSLAYER10
  6
Continuous
 48
0.3
100
AcDbLine
 10
45.8709945
 20
200.221514
 30
0.0
 11
31.0340055
 21
200.221514
 31
0.0
  0
LINE
  5
5E7
330
1D
100
AcDbEntity
  8
CSLAYER1
  6
Continuous
100
AcDbLine
 10
85.320433
 20
293.721514
 30
0.0
 11
68.320433
 21
293.721514
 31
0.0
  0
LINE
  5
5E8
330
1D
100
AcDbEntity
  8
CSLAYER1
  6
Continuous
100
AcDbLine
 10
67.320433
 20
292.721514
 30
0.0
 11
67.320433
 21
256.721514
 31
0.0
  0
LINE
  5
5E9
330
1D
100
AcDbEntity
  8
CSLAYER1
  6
Continuous
100
AcDbLine
 10
68.320433
 20
255.721514
 30
0.0
 11
85.320433
 21
255.721514
 31
0.0
  0
LINE
  5
5EA
330
1D
100
AcDbEntity
  8
CSLAYER1
  6
Continuous
100
AcDbLine
 10
87.320433
 20
257.721514
 30
0.0
 11
87.320433
 21
258.721514
 31
0.0
  0
ARC
  5
5EB
330
1D
100
AcDbEntity
  8
CSLAYER1
  6
Continuous
100
AcDbCircle
 10
85.320433
 20
257.721514
 30
0.0
 40
2.0
100
AcDbArc
 50
270.0
 51
0.0
  0
LINE
  5
5EC
330
1D
100
AcDbEntity
  8
CSLAYER1
  6
Continuous
100
AcDbLine
 10
85.320433
 20
260.721514
 30
0.0
 11
85.320433
 21
288.721514
 31
0.0
  0
LINE
  5
5ED
330
1D
100
AcDbEntity
  8
CSLAYER1
  6
Continuous
100
AcDbLine
 10
87.320433
 20
290.721514
 30
0.0
 11
87.320433
 21
291.721514
 31
0.0
  0
ARC
  5
5EE
330
1D
100
AcDbEntity
  8
CSLAYER1
  6
Continuous
100
AcDbCircle
 10
85.320433
 20
290.721514
 30
0.0
 40
2.0
100
AcDbArc
 50
270.0
 51
0.0
  0
ARC
  5
5EF
330
1D
100
AcDbEntity
  8
CSLAYER1
  6
Continuous
100
AcDbCircle
 10
85.320433
 20
291.721514
 30
0.0
 40
2.0
100
AcDbArc
 50
0.0
 51
90.0
  0
ARC
  5
5F0
330
1D
100
AcDbEntity
  8
CSLAYER1
  6
Continuous
100
AcDbCircle
 10
68.320433
 20
292.721514
 30
0.0
 40
1.0
100
AcDbArc
 50
90.0
 51
180.0
  0
ARC
  5
5F1
330
1D
100
AcDbEntity
  8
CSLAYER1
  6
Continuous
100
AcDbCircle
 10
68.320433
 20
256.721514
 30
0.0
 40
1.0
100
AcDbArc
 50
180.0
 51
270.0
  0
ARC
  5
5F2
330
1D
100
AcDbEntity
  8
CSLAYER1
  6
Continuous
100
AcDbCircle
 10
85.320433
 20
258.721514
 30
0.0
 40
2.0
100
AcDbArc
 50
0.0
 51
90.0
  0
LINE
  5
5F6
330
1D
100
AcDbEntity
  8
CSLAYER10
  6
Continuous
100
AcDbLine
 10
76.820433
 20
283.742775
 30
0.0
 11
76.820433
 21
319.203673
 31
0.0
  0
LINE
  5
633
330
1D
100
AcDbEntity
  8
CSLAYER10
  6
Continuous
100
AcDbLine
 10
334.0251337298
 20
95.650284
 30
0.0
 11
486.908019
 21
95.650284
 31
0.0
  0
LINE
  5
6B9
330
1D
100
AcDbEntity
  8
CSLAYER10
  6
Continuous
100
AcDbLine
 10
100.418883
 20
315.221514
 30
0.0
 11
126.320433
 21
315.221514
 31
0.0
  0
LINE
  5
6BA
330
1D
100
AcDbEntity
  8
CSLAYER10
  6
Continuous
100
AcDbLine
 10
99.067077
 20
190.221514
 30
0.0
 11
126.320433
 21
190.221514
 31
0.0
  0
LINE
  5
6BB
330
1D
100
AcDbEntity
  8
CSLAYER10
  6
Continuous
100
AcDbLine
 10
125.320433
 20
315.221514
 30
0.0
 11
125.320433
 21
190.221514
 31
0.0
  0
LINE
  5
6BC
330
1D
100
AcDbEntity
  8
CSLAYER10
  6
Continuous
100
AcDbLine
 10
125.320433
 20
315.221514
 30
0.0
 11
125.059381
 21
313.238625
 31
0.0
  0
LINE
  5
6BD
330
1D
100
AcDbEntity
  8
CSLAYER10
  6
Continuous
100
AcDbLine
 10
125.320433
 20
315.221514
 30
0.0
 11
125.581486
 21
313.238625
 31
0.0
  0
LINE
  5
6BE
330
1D
100
AcDbEntity
  8
CSLAYER10
  6
Continuous
100
AcDbLine
 10
125.320433
 20
190.221514
 30
0.0
 11
125.059381
 21
192.204404
 31
0.0
  0
LINE
  5
6BF
330
1D
100
AcDbEntity
  8
CSLAYER10
  6
Continuous
100
AcDbLine
 10
125.320433
 20
190.221514
 30
0.0
 11
125.581486
 21
192.204404
 31
0.0
  0
LINE
  5
6C1
330
1D
100
AcDbEntity
  8
CSLAYER10
  6
Continuous
100
AcDbLine
 10
67.327357
 20
211.721514
 30
0.0
 11
52.320433
 21
211.721514
 31
0.0
  0
LINE
  5
6C2
330
1D
100
AcDbEntity
  8
CSLAYER10
  6
Continuous
100
AcDbLine
 10
53.320433
 20
293.721514
 30
0.0
 11
53.320433
 21
211.721514
 31
0.0
  0
LINE
  5
6C3
330
1D
100
AcDbEntity
  8
CSLAYER10
  6
Continuous
100
AcDbLine
 10
53.320433
 20
249.721514
 30
0.0
 11
53.059381
 21
247.738625
 31
0.0
  0
LINE
  5
6C4
330
1D
100
AcDbEntity
  8
CSLAYER10
  6
Continuous
100
AcDbLine
 10
53.320433
 20
249.721514
 30
0.0
 11
53.581486
 21
247.738625
 31
0.0
  0
LINE
  5
6C5
330
1D
100
AcDbEntity
  8
CSLAYER10
  6
Continuous
100
AcDbLine
 10
53.320433
 20
211.721514
 30
0.0
 11
53.059381
 21
213.704404
 31
0.0
  0
LINE
  5
6C6
330
1D
100
AcDbEntity
  8
CSLAYER10
  6
Continuous
100
AcDbLine
 10
53.320433
 20
211.721514
 30
0.0
 11
53.581486
 21
213.704404
 31
0.0
  0
TEXT
  5
6C7
330
1D
100
AcDbEntity
  8
CSLAYER10
100
AcDbText
 10
41.702503
 20
176.221527
 30
0.0
 40
4.0
  1
2.5
 41
0.661764705882
  7
FX_FONT
 72
     5
 11
49.202503
 21
176.221527
 31
0.0
100
AcDbText
  0
LINE
  5
6C8
330
1D
100
AcDbEntity
  8
CSLAYER10
  6
Continuous
100
AcDbLine
 10
37.9525
 20
190.221514
 30
0.0
 11
37.9525
 21
174.221514
 31
0.0
  0
LINE
  5
6C9
330
1D
100
AcDbEntity
  8
CSLAYER10
  6
Continuous
100
AcDbLine
 10
40.4525
 20
189.221514
 30
0.0
 11
40.4525
 21
164.221514
 31
0.0
  0
LINE
  5
6CA
330
1D
100
AcDbEntity
  8
CSLAYER10
  6
Continuous
100
AcDbLine
 10
50.4525
 20
175.221514
 30
0.0
 11
32.9525
 21
175.221514
 31
0.0
  0
LINE
  5
6CB
330
1D
100
AcDbEntity
  8
CSLAYER10
  6
Continuous
100
AcDbLine
 10
37.9525
 20
175.221514
 30
0.0
 11
35.96961
 21
175.482567
 31
0.0
  0
LINE
  5
6CC
330
1D
100
AcDbEntity
  8
CSLAYER10
  6
Continuous
100
AcDbLine
 10
37.9525
 20
175.221514
 30
0.0
 11
35.96961
 21
174.960462
 31
0.0
  0
LINE
  5
6CE
330
1D
100
AcDbEntity
  8
CSLAYER10
  6
Continuous
100
AcDbLine
 10
40.4525
 20
175.221514
 30
0.0
 11
42.43539
 21
175.482567
 31
0.0
  0
LINE
  5
6CF
330
1D
100
AcDbEntity
  8
CSLAYER10
  6
Continuous
100
AcDbLine
 10
40.4525
 20
175.221514
 30
0.0
 11
42.43539
 21
174.960462
 31
0.0
  0
TEXT
  5
6D1
330
1D
100
AcDbEntity
  8
CSLAYER10
100
AcDbText
 10
27.952505
 20
166.221527
 30
0.0
 40
4.0
  1
20
 41
0.705329153605
  7
FX_FONT
 72
     5
 11
32.952505
 21
166.221527
 31
0.0
100
AcDbText
  0
LINE
  5
6D2
330
1D
100
AcDbEntity
  8
CSLAYER10
  6
Continuous
100
AcDbLine
 10
20.4525
 20
209.721514
 30
0.0
 11
20.4525
 21
164.221514
 31
0.0
  0
LINE
  5
6D3
330
1D
100
AcDbEntity
  8
CSLAYER10
  6
Continuous
100
AcDbLine
 10
20.4525
 20
165.221514
 30
0.0
 11
40.4525
 21
165.221514
 31
0.0
  0
LINE
  5
6D4
330
1D
100
AcDbEntity
  8
CSLAYER10
  6
Continuous
100
AcDbLine
 10
20.4525
 20
165.221514
 30
0.0
 11
22.43539
 21
165.482567
 31
0.0
  0
LINE
  5
6D5
330
1D
100
AcDbEntity
  8
CSLAYER10
  6
Continuous
100
AcDbLine
 10
20.4525
 20
165.221514
 30
0.0
 11
22.43539
 21
164.960462
 31
0.0
  0
LINE
  5
6D6
330
1D
100
AcDbEntity
  8
CSLAYER10
  6
Continuous
100
AcDbLine
 10
40.4525
 20
165.221514
 30
0.0
 11
38.46961
 21
165.482567
 31
0.0
  0
LINE
  5
6D7
330
1D
100
AcDbEntity
  8
CSLAYER10
  6
Continuous
100
AcDbLine
 10
40.4525
 20
165.221514
 30
0.0
 11
38.46961
 21
164.960462
 31
0.0
  0
LINE
  5
6D8
330
1D
100
AcDbEntity
  8
CSLAYER10
  6
Continuous
100
AcDbLine
 10
85.48663
 20
305.221514
 30
0.0
 11
117.017898
 21
305.221514
 31
0.0
  0
LINE
  5
6D9
330
1D
100
AcDbEntity
  8
CSLAYER10
  6
Continuous
100
AcDbLine
 10
85.48663
 20
200.221514
 30
0.0
 11
117.017898
 21
200.221514
 31
0.0
  0
LINE
  5
6DA
330
1D
100
AcDbEntity
  8
CSLAYER10
  6
Continuous
100
AcDbLine
 10
116.017898
 20
305.221514
 30
0.0
 11
116.017898
 21
200.221514
 31
0.0
  0
LINE
  5
6DB
330
1D
100
AcDbEntity
  8
CSLAYER10
  6
Continuous
100
AcDbLine
 10
116.017898
 20
305.221514
 30
0.0
 11
115.756846
 21
303.238625
 31
0.0
  0
LINE
  5
6DC
330
1D
100
AcDbEntity
  8
CSLAYER10
  6
Continuous
100
AcDbLine
 10
116.017898
 20
305.221514
 30
0.0
 11
116.278951
 21
303.238625
 31
0.0
  0
LINE
  5
6DD
330
1D
100
AcDbEntity
  8
CSLAYER10
  6
Continuous
100
AcDbLine
 10
116.017898
 20
200.221514
 30
0.0
 11
115.756846
 21
202.204404
 31
0.0
  0
LINE
  5
6DE
330
1D
100
AcDbEntity
  8
CSLAYER10
  6
Continuous
100
AcDbLine
 10
116.017898
 20
200.221514
 30
0.0
 11
116.278951
 21
202.204404
 31
0.0
  0
TEXT
  5
6DF
330
1D
100
AcDbEntity
  8
CSLAYER10
100
AcDbText
 10
73.820442
 20
228.910172
 30
0.0
 40
4.0
  1
18
 41
0.681818181818
  7
FX_FONT
 72
     5
 11
78.820442
 21
228.910172
 31
0.0
100
AcDbText
  0
LINE
  5
6E0
330
1D
100
AcDbEntity
  8
CSLAYER10
  6
Continuous
100
AcDbLine
 10
67.320433
 20
227.910172
 30
0.0
 11
85.320433
 21
227.910172
 31
0.0
  0
LINE
  5
6E1
330
1D
100
AcDbEntity
  8
CSLAYER10
  6
Continuous
100
AcDbLine
 10
67.320433
 20
227.910172
 30
0.0
 11
69.303323
 21
228.171225
 31
0.0
  0
LINE
  5
6E2
330
1D
100
AcDbEntity
  8
CSLAYER10
  6
Continuous
100
AcDbLine
 10
67.320433
 20
227.910172
 30
0.0
 11
69.303323
 21
227.64912
 31
0.0
  0
LINE
  5
6E3
330
1D
100
AcDbEntity
  8
CSLAYER10
  6
Continuous
100
AcDbLine
 10
85.320433
 20
227.910172
 30
0.0
 11
83.337544
 21
228.171225
 31
0.0
  0
LINE
  5
6E4
330
1D
100
AcDbEntity
  8
CSLAYER10
  6
Continuous
100
AcDbLine
 10
85.320433
 20
227.910172
 30
0.0
 11
83.337544
 21
227.64912
 31
0.0
  0
TEXT
  5
6E5
330
1D
100
AcDbEntity
  8
CSLAYER10
100
AcDbText
 10
67.320435
 20
176.221512
 30
0.0
 40
4.0
  1
14
 41
0.681818181818
  7
FX_FONT
 72
     5
 11
72.320435
 21
176.221512
 31
0.0
100
AcDbText
  0
LINE
  5
6E6
330
1D
100
AcDbEntity
  8
CSLAYER10
  6
Continuous
100
AcDbLine
 10
62.820433
 20
190.221514
 30
0.0
 11
62.820433
 21
174.28105
 31
0.0
  0
LINE
  5
6E7
330
1D
100
AcDbEntity
  8
CSLAYER10
  6
Continuous
100
AcDbLine
 10
62.820433
 20
175.221514
 30
0.0
 11
85.320433
 21
175.221514
 31
0.0
  0
LINE
  5
6E8
330
1D
100
AcDbEntity
  8
CSLAYER10
  6
Continuous
100
AcDbLine
 10
62.820433
 20
175.221514
 30
0.0
 11
64.803323
 21
175.482567
 31
0.0
  0
LINE
  5
6E9
330
1D
100
AcDbEntity
  8
CSLAYER10
  6
Continuous
100
AcDbLine
 10
62.820433
 20
175.221514
 30
0.0
 11
64.803323
 21
174.960462
 31
0.0
  0
LINE
  5
6EB
330
1D
100
AcDbEntity
  8
CSLAYER10
  6
Continuous
100
AcDbLine
 10
76.820433
 20
175.221514
 30
0.0
 11
74.837544
 21
174.960462
 31
0.0
  0
LINE
  5
6ED
330
1D
100
AcDbEntity
  8
CSLAYER10
  6
Continuous
100
AcDbLine
 10
76.820433
 20
175.221514
 30
0.0
 11
74.837544
 21
175.482567
 31
0.0
  0
TEXT
  5
6EF
330
1D
100
AcDbEntity
  8
CSLAYER10
100
AcDbText
 10
77.320442
 20
176.221512
 30
0.0
 40
4.0
  1
8.5
 41
0.661764705882
  7
FX_FONT
 72
     5
 11
84.820442
 21
176.221512
 31
0.0
100
AcDbText
  0
LINE
  5
6F0
330
1D
100
AcDbEntity
  8
CSLAYER10
  6
Continuous
100
AcDbLine
 10
85.320433
 20
215.721514
 30
0.0
 11
85.320433
 21
174.221514
 31
0.0
  0
LINE
  5
6F2
330
1D
100
AcDbEntity
  8
CSLAYER10
  6
Continuous
100
AcDbLine
 10
76.820433
 20
175.221514
 30
0.0
 11
78.803323
 21
175.482567
 31
0.0
  0
LINE
  5
6F3
330
1D
100
AcDbEntity
  8
CSLAYER10
  6
Continuous
100
AcDbLine
 10
76.820433
 20
175.221514
 30
0.0
 11
78.803323
 21
174.960462
 31
0.0
  0
LINE
  5
6F4
330
1D
100
AcDbEntity
  8
CSLAYER10
  6
Continuous
100
AcDbLine
 10
85.320433
 20
175.221514
 30
0.0
 11
83.337544
 21
175.482567
 31
0.0
  0
LINE
  5
6F5
330
1D
100
AcDbEntity
  8
CSLAYER10
  6
Continuous
100
AcDbLine
 10
85.320433
 20
175.221514
 30
0.0
 11
83.337544
 21
174.960462
 31
0.0
  0
TEXT
  5
6F6
330
1D
100
AcDbEntity
  8
CSLAYER10
100
AcDbText
 10
74.370903
 20
118.721527
 30
0.0
 40
4.0
  1
24
 41
0.681818181818
  7
FX_FONT
 72
     5
 11
79.370903
 21
118.721527
 31
0.0
100
AcDbText
  0
LINE
  5
6F7
330
1D
100
AcDbEntity
  8
CSLAYER10
  6
Continuous
100
AcDbLine
 10
64.923488
 20
131.721514
 30
0.0
 11
64.923488
 21
116.721514
 31
0.0
  0
LINE
  5
6F8
330
1D
100
AcDbEntity
  8
CSLAYER10
  6
Continuous
100
AcDbLine
 10
64.923488
 20
117.721514
 30
0.0
 11
88.818299
 21
117.721514
 31
0.0
  0
LINE
  5
6F9
330
1D
100
AcDbEntity
  8
CSLAYER10
  6
Continuous
100
AcDbLine
 10
64.923488
 20
117.721514
 30
0.0
 11
66.906378
 21
117.982567
 31
0.0
  0
LINE
  5
6FA
330
1D
100
AcDbEntity
  8
CSLAYER10
  6
Continuous
100
AcDbLine
 10
64.923488
 20
117.721514
 30
0.0
 11
66.906378
 21
117.460462
 31
0.0
  0
LINE
  5
6FB
330
1D
100
AcDbEntity
  8
CSLAYER10
  6
Continuous
100
AcDbLine
 10
88.818299
 20
117.721514
 30
0.0
 11
86.835409
 21
117.982567
 31
0.0
  0
LINE
  5
6FC
330
1D
100
AcDbEntity
  8
CSLAYER10
  6
Continuous
100
AcDbLine
 10
88.818299
 20
117.721514
 30
0.0
 11
86.835409
 21
117.460462
 31
0.0
  0
TEXT
  5
6FD
330
1D
100
AcDbEntity
  8
CSLAYER10
100
AcDbText
 10
88.320404
 20
108.721527
 30
0.0
 40
4.0
  1
L
 41
0.75
  7
FX_FONT
 72
     5
 11
90.820404
 21
108.721527
 31
0.0
100
AcDbText
  0
LINE
  5
6FE
330
1D
100
AcDbEntity
  8
CSLAYER10
  6
Continuous
100
AcDbLine
 10
76.820433
 20
107.721514
 30
0.0
 11
102.320365
 21
107.721514
 31
0.0
  0
LINE
  5
6FF
330
1D
100
AcDbEntity
  8
CSLAYER10
  6
Continuous
100
AcDbLine
 10
76.820433
 20
107.721514
 30
0.0
 11
78.803323
 21
107.982567
 31
0.0
  0
LINE
  5
700
330
1D
100
AcDbEntity
  8
CSLAYER10
  6
Continuous
100
AcDbLine
 10
76.820433
 20
107.721514
 30
0.0
 11
78.803323
 21
107.460462
 31
0.0
  0
LINE
  5
701
330
1D
100
AcDbEntity
  8
CSLAYER10
  6
Continuous
100
AcDbLine
 10
102.320365
 20
107.721514
 30
0.0
 11
100.337476
 21
107.982567
 31
0.0
  0
LINE
  5
702
330
1D
100
AcDbEntity
  8
CSLAYER10
  6
Continuous
100
AcDbLine
 10
102.320365
 20
107.721514
 30
0.0
 11
100.337476
 21
107.460462
 31
0.0
  0
LINE
  5
703
102
{ACAD_REACTORS
330
1516
102
}
330
1D
100
AcDbEntity
  8
CSLAYER10
  6
Continuous
100
AcDbLine
 10
360.4736
 20
336.421514
 30
0.0
 11
360.552428
 21
336.478513
 31
0.0
  0
LINE
  5
704
102
{ACAD_REACTORS
330
1516
102
}
330
1D
100
AcDbEntity
  8
CSLAYER10
  6
Continuous
100
AcDbLine
 10
360.552428
 20
336.478513
 30
0.0
 11
360.631248
 21
336.535236
 31
0.0
  0
LINE
  5
705
102
{ACAD_REACTORS
330
1516
102
}
330
1D
100
AcDbEntity
  8
CSLAYER10
  6
Continuous
100
AcDbLine
 10
360.631248
 20
336.535236
 30
0.0
 11
360.710052
 21
336.59141
 31
0.0
  0
LINE
  5
706
102
{ACAD_REACTORS
330
1516
102
}
330
1D
100
AcDbEntity
  8
CSLAYER10
  6
Continuous
100
AcDbLine
 10
360.710052
 20
336.59141
 30
0.0
 11
360.788831
 21
336.64676
 31
0.0
  0
LINE
  5
707
102
{ACAD_REACTORS
330
1516
102
}
330
1D
100
AcDbEntity
  8
CSLAYER10
  6
Continuous
100
AcDbLine
 10
360.788831
 20
336.64676
 30
0.0
 11
360.867577
 21
336.70101
 31
0.0
  0
LINE
  5
708
102
{ACAD_REACTORS
330
1516
102
}
330
1D
100
AcDbEntity
  8
CSLAYER10
  6
Continuous
100
AcDbLine
 10
360.867577
 20
336.70101
 30
0.0
 11
360.946283
 21
336.753887
 31
0.0
  0
LINE
  5
709
102
{ACAD_REACTORS
330
1516
102
}
330
1D
100
AcDbEntity
  8
CSLAYER10
  6
Continuous
100
AcDbLine
 10
360.946283
 20
336.753887
 30
0.0
 11
361.02494
 21
336.805116
 31
0.0
  0
LINE
  5
70A
102
{ACAD_REACTORS
330
1516
102
}
330
1D
100
AcDbEntity
  8
CSLAYER10
  6
Continuous
100
AcDbLine
 10
361.02494
 20
336.805116
 30
0.0
 11
361.103541
 21
336.854421
 31
0.0
  0
LINE
  5
70B
102
{ACAD_REACTORS
330
1516
102
}
330
1D
100
AcDbEntity
  8
CSLAYER10
  6
Continuous
100
AcDbLine
 10
361.103541
 20
336.854421
 30
0.0
 11
361.182076
 21
336.901528
 31
0.0
  0
LINE
  5
70C
102
{ACAD_REACTORS
330
1516
102
}
330
1D
100
AcDbEntity
  8
CSLAYER10
  6
Continuous
100
AcDbLine
 10
361.182076
 20
336.901528
 30
0.0
 11
361.260538
 21
336.946162
 31
0.0
  0
LINE
  5
70D
102
{ACAD_REACTORS
330
1516
102
}
330
1D
100
AcDbEntity
  8
CSLAYER10
  6
Continuous
100
AcDbLine
 10
361.260538
 20
336.946162
 30
0.0
 11
361.338919
 21
336.988049
 31
0.0
  0
LINE
  5
70E
102
{ACAD_REACTORS
330
1516
102
}
330
1D
100
AcDbEntity
  8
CSLAYER10
  6
Continuous
100
AcDbLine
 10
361.338919
 20
336.988049
 30
0.0
 11
361.417211
 21
337.026914
 31
0.0
  0
LINE
  5
70F
102
{ACAD_REACTORS
330
1516
102
}
330
1D
100
AcDbEntity
  8
CSLAYER10
  6
Continuous
100
AcDbLine
 10
361.417211
 20
337.026914
 30
0.0
 11
361.495405
 21
337.062481
 31
0.0
  0
LINE
  5
710
102
{ACAD_REACTORS
330
1516
102
}
330
1D
100
AcDbEntity
  8
CSLAYER10
  6
Continuous
100
AcDbLine
 10
361.495405
 20
337.062481
 30
0.0
 11
361.573493
 21
337.094477
 31
0.0
  0
LINE
  5
711
102
{ACAD_REACTORS
330
1516
102
}
330
1D
100
AcDbEntity
  8
CSLAYER10
  6
Continuous
100
AcDbLine
 10
361.573493
 20
337.094477
 30
0.0
 11
361.651468
 21
337.122627
 31
0.0
  0
LINE
  5
712
102
{ACAD_REACTORS
330
1516
102
}
330
1D
100
AcDbEntity
  8
CSLAYER10
  6
Continuous
100
AcDbLine
 10
361.651468
 20
337.122627
 30
0.0
 11
361.72932
 21
337.146655
 31
0.0
  0
LINE
  5
713
102
{ACAD_REACTORS
330
1516
102
}
330
1D
100
AcDbEntity
  8
CSLAYER10
  6
Continuous
100
AcDbLine
 10
361.72932
 20
337.146655
 30
0.0
 11
361.807043
 21
337.166287
 31
0.0
  0
LINE
  5
714
102
{ACAD_REACTORS
330
1516
102
}
330
1D
100
AcDbEntity
  8
CSLAYER10
  6
Continuous
100
AcDbLine
 10
361.807043
 20
337.166287
 30
0.0
 11
361.884627
 21
337.181248
 31
0.0
  0
LINE
  5
715
102
{ACAD_REACTORS
330
1516
102
}
330
1D
100
AcDbEntity
  8
CSLAYER10
  6
Continuous
100
AcDbLine
 10
361.884627
 20
337.181248
 30
0.0
 11
361.962066
 21
337.191264
 31
0.0
  0
LINE
  5
716
102
{ACAD_REACTORS
330
1516
102
}
330
1D
100
AcDbEntity
  8
CSLAYER10
  6
Continuous
100
AcDbLine
 10
361.962066
 20
337.191264
 30
0.0
 11
362.039349
 21
337.196059
 31
0.0
  0
LINE
  5
717
102
{ACAD_REACTORS
330
1516
102
}
330
1D
100
AcDbEntity
  8
CSLAYER10
  6
Continuous
100
AcDbLine
 10
362.039349
 20
337.196059
 30
0.0
 11
362.11647
 21
337.19536
 31
0.0
  0
LINE
  5
718
102
{ACAD_REACTORS
330
1516
102
}
330
1D
100
AcDbEntity
  8
CSLAYER10
  6
Continuous
100
AcDbLine
 10
362.11647
 20
337.19536
 30
0.0
 11
362.23542
 21
337.183192
 31
0.0
  0
LINE
  5
719
102
{ACAD_REACTORS
330
1516
102
}
330
1D
100
AcDbEntity
  8
CSLAYER10
  6
Continuous
100
AcDbLine
 10
362.23542
 20
337.183192
 30
0.0
 11
362.354027
 21
337.158456
 31
0.0
  0
LINE
  5
71A
102
{ACAD_REACTORS
330
1516
102
}
330
1D
100
AcDbEntity
  8
CSLAYER10
  6
Continuous
100
AcDbLine
 10
362.354027
 20
337.158456
 30
0.0
 11
362.472354
 21
337.122384
 31
0.0
  0
LINE
  5
71B
102
{ACAD_REACTORS
330
14A9
330
1516
102
}
330
1D
100
AcDbEntity
  8
CSLAYER10
  6
Continuous
100
AcDbLine
 10
362.472354
 20
337.122384
 30
0.0
 11
362.590468
 21
337.076208
 31
0.0
  0
LINE
  5
71C
102
{ACAD_REACTORS
330
14A9
102
}
330
1D
100
AcDbEntity
  8
CSLAYER10
  6
Continuous
100
AcDbLine
 10
362.590468
 20
337.076208
 30
0.0
 11
362.708433
 21
337.021161
 31
0.0
  0
LINE
  5
71D
102
{ACAD_REACTORS
330
14A9
102
}
330
1D
100
AcDbEntity
  8
CSLAYER10
  6
Continuous
100
AcDbLine
 10
362.708433
 20
337.021161
 30
0.0
 11
362.826314
 21
336.958474
 31
0.0
  0
LINE
  5
71E
102
{ACAD_REACTORS
330
14A9
102
}
330
1D
100
AcDbEntity
  8
CSLAYER10
  6
Continuous
100
AcDbLine
 10
362.826314
 20
336.958474
 30
0.0
 11
362.944176
 21
336.88938
 31
0.0
  0
LINE
  5
71F
102
{ACAD_REACTORS
330
14A9
102
}
330
1D
100
AcDbEntity
  8
CSLAYER10
  6
Continuous
100
AcDbLine
 10
362.944176
 20
336.88938
 30
0.0
 11
363.062084
 21
336.81511
 31
0.0
  0
LINE
  5
720
102
{ACAD_REACTORS
330
14A9
102
}
330
1D
100
AcDbEntity
  8
CSLAYER10
  6
Continuous
100
AcDbLine
 10
363.062084
 20
336.81511
 30
0.0
 11
363.180101
 21
336.736898
 31
0.0
  0
LINE
  5
721
102
{ACAD_REACTORS
330
14A9
102
}
330
1D
100
AcDbEntity
  8
CSLAYER10
  6
Continuous
100
AcDbLine
 10
363.180101
 20
336.736898
 30
0.0
 11
363.298294
 21
336.655975
 31
0.0
  0
LINE
  5
722
102
{ACAD_REACTORS
330
14A9
102
}
330
1D
100
AcDbEntity
  8
CSLAYER10
  6
Continuous
100
AcDbLine
 10
363.298294
 20
336.655975
 30
0.0
 11
363.416728
 21
336.573574
 31
0.0
  0
LINE
  5
723
102
{ACAD_REACTORS
330
14A9
102
}
330
1D
100
AcDbEntity
  8
CSLAYER10
  6
Continuous
100
AcDbLine
 10
363.416728
 20
336.573574
 30
0.0
 11
363.535466
 21
336.490927
 31
0.0
  0
LINE
  5
724
102
{ACAD_REACTORS
330
14A9
102
}
330
1D
100
AcDbEntity
  8
CSLAYER10
  6
Continuous
100
AcDbLine
 10
363.535466
 20
336.490927
 30
0.0
 11
363.654573
 21
336.409265
 31
0.0
  0
LINE
  5
725
102
{ACAD_REACTORS
330
14A9
102
}
330
1D
100
AcDbEntity
  8
CSLAYER10
  6
Continuous
100
AcDbLine
 10
363.654573
 20
336.409265
 30
0.0
 11
363.774115
 21
336.329822
 31
0.0
  0
LINE
  5
726
102
{ACAD_REACTORS
330
14A9
102
}
330
1D
100
AcDbEntity
  8
CSLAYER10
  6
Continuous
100
AcDbLine
 10
363.774115
 20
336.329822
 30
0.0
 11
363.894157
 21
336.253829
 31
0.0
  0
LINE
  5
727
102
{ACAD_REACTORS
330
14A9
102
}
330
1D
100
AcDbEntity
  8
CSLAYER10
  6
Continuous
100
AcDbLine
 10
363.894157
 20
336.253829
 30
0.0
 11
364.014763
 21
336.182519
 31
0.0
  0
LINE
  5
728
102
{ACAD_REACTORS
330
14A9
102
}
330
1D
100
AcDbEntity
  8
CSLAYER10
  6
Continuous
100
AcDbLine
 10
364.014763
 20
336.182519
 30
0.0
 11
364.135998
 21
336.117123
 31
0.0
  0
LINE
  5
729
102
{ACAD_REACTORS
330
14A9
102
}
330
1D
100
AcDbEntity
  8
CSLAYER10
  6
Continuous
100
AcDbLine
 10
364.135998
 20
336.117123
 30
0.0
 11
364.257926
 21
336.058875
 31
0.0
  0
LINE
  5
72A
102
{ACAD_REACTORS
330
14A9
102
}
330
1D
100
AcDbEntity
  8
CSLAYER10
  6
Continuous
100
AcDbLine
 10
364.257926
 20
336.058875
 30
0.0
 11
364.380614
 21
336.009005
 31
0.0
  0
LINE
  5
72B
102
{ACAD_REACTORS
330
14A9
102
}
330
1D
100
AcDbEntity
  8
CSLAYER10
  6
Continuous
100
AcDbLine
 10
364.380614
 20
336.009005
 30
0.0
 11
364.504125
 21
335.968747
 31
0.0
  0
LINE
  5
72C
330
1D
100
AcDbEntity
  8
CSLAYER10
  6
Continuous
100
AcDbLine
 10
364.504125
 20
335.968747
 30
0.0
 11
364.628524
 21
335.939333
 31
0.0
  0
LINE
  5
72D
330
1D
100
AcDbEntity
  8
CSLAYER10
  6
Continuous
100
AcDbLine
 10
364.628524
 20
335.939333
 30
0.0
 11
364.713525
 21
335.92606
 31
0.0
  0
LINE
  5
72E
330
1D
100
AcDbEntity
  8
CSLAYER10
  6
Continuous
100
AcDbLine
 10
364.713525
 20
335.92606
 30
0.0
 11
364.798944
 21
335.91809
 31
0.0
  0
LINE
  5
72F
330
1D
100
AcDbEntity
  8
CSLAYER10
  6
Continuous
100
AcDbLine
 10
364.798944
 20
335.91809
 30
0.0
 11
364.884761
 21
335.915157
 31
0.0
  0
LINE
  5
730
330
1D
100
AcDbEntity
  8
CSLAYER10
  6
Continuous
100
AcDbLine
 10
364.884761
 20
335.915157
 30
0.0
 11
364.970954
 21
335.916997
 31
0.0
  0
LINE
  5
731
330
1D
100
AcDbEntity
  8
CSLAYER10
  6
Continuous
100
AcDbLine
 10
364.970954
 20
335.916997
 30
0.0
 11
365.057504
 21
335.923343
 31
0.0
  0
LINE
  5
732
330
1D
100
AcDbEntity
  8
CSLAYER10
  6
Continuous
100
AcDbLine
 10
365.057504
 20
335.923343
 30
0.0
 11
365.144388
 21
335.933932
 31
0.0
  0
LINE
  5
733
330
1D
100
AcDbEntity
  8
CSLAYER10
  6
Continuous
100
AcDbLine
 10
365.144388
 20
335.933932
 30
0.0
 11
365.231586
 21
335.948497
 31
0.0
  0
LINE
  5
734
330
1D
100
AcDbEntity
  8
CSLAYER10
  6
Continuous
100
AcDbLine
 10
365.231586
 20
335.948497
 30
0.0
 11
365.319077
 21
335.966774
 31
0.0
  0
LINE
  5
735
330
1D
100
AcDbEntity
  8
CSLAYER10
  6
Continuous
100
AcDbLine
 10
365.319077
 20
335.966774
 30
0.0
 11
365.40684
 21
335.988498
 31
0.0
  0
LINE
  5
736
330
1D
100
AcDbEntity
  8
CSLAYER10
  6
Continuous
100
AcDbLine
 10
365.40684
 20
335.988498
 30
0.0
 11
365.494855
 21
336.013403
 31
0.0
  0
LINE
  5
737
330
1D
100
AcDbEntity
  8
CSLAYER10
  6
Continuous
100
AcDbLine
 10
365.494855
 20
336.013403
 30
0.0
 11
365.583099
 21
336.041225
 31
0.0
  0
LINE
  5
738
330
1D
100
AcDbEntity
  8
CSLAYER10
  6
Continuous
100
AcDbLine
 10
365.583099
 20
336.041225
 30
0.0
 11
365.671553
 21
336.071698
 31
0.0
  0
LINE
  5
739
330
1D
100
AcDbEntity
  8
CSLAYER10
  6
Continuous
100
AcDbLine
 10
365.671553
 20
336.071698
 30
0.0
 11
365.760195
 21
336.104557
 31
0.0
  0
LINE
  5
73A
330
1D
100
AcDbEntity
  8
CSLAYER10
  6
Continuous
100
AcDbLine
 10
365.760195
 20
336.104557
 30
0.0
 11
365.849004
 21
336.139537
 31
0.0
  0
LINE
  5
73B
330
1D
100
AcDbEntity
  8
CSLAYER10
  6
Continuous
100
AcDbLine
 10
365.849004
 20
336.139537
 30
0.0
 11
365.93796
 21
336.176373
 31
0.0
  0
LINE
  5
73C
330
1D
100
AcDbEntity
  8
CSLAYER10
  6
Continuous
100
AcDbLine
 10
365.93796
 20
336.176373
 30
0.0
 11
366.027042
 21
336.214799
 31
0.0
  0
LINE
  5
73D
330
1D
100
AcDbEntity
  8
CSLAYER10
  6
Continuous
100
AcDbLine
 10
366.027042
 20
336.214799
 30
0.0
 11
366.116228
 21
336.254552
 31
0.0
  0
LINE
  5
73E
330
1D
100
AcDbEntity
  8
CSLAYER10
  6
Continuous
100
AcDbLine
 10
366.116228
 20
336.254552
 30
0.0
 11
366.205498
 21
336.295364
 31
0.0
  0
LINE
  5
73F
330
1D
100
AcDbEntity
  8
CSLAYER10
  6
Continuous
100
AcDbLine
 10
366.205498
 20
336.295364
 30
0.0
 11
366.29483
 21
336.336972
 31
0.0
  0
LINE
  5
740
330
1D
100
AcDbEntity
  8
CSLAYER10
  6
Continuous
100
AcDbLine
 10
366.29483
 20
336.336972
 30
0.0
 11
366.384205
 21
336.379111
 31
0.0
  0
LINE
  5
741
330
1D
100
AcDbEntity
  8
CSLAYER10
  6
Continuous
100
AcDbLine
 10
366.384205
 20
336.379111
 30
0.0
 11
366.4736
 21
336.421514
 31
0.0
  0
TEXT
  5
74A
330
1D
100
AcDbEntity
  8
CSLAYER10
100
AcDbText
 10
336.317108
 20
229.421509
 30
0.0
 40
4.0
  1
24
 50
90.0
 41
0.681818181818
  7
FX_FONT
 72
     5
 11
336.317108
 21
234.421509
 31
0.0
100
AcDbText
  0
LINE
  5
74B
330
1D
100
AcDbEntity
  8
CSLAYER10
  6
Continuous
100
AcDbLine
 10
346.3736
 20
219.971514
 30
0.0
 11
336.317098
 21
219.971514
 31
0.0
  0
LINE
  5
74C
330
1D
100
AcDbEntity
  8
CSLAYER10
  6
Continuous
100
AcDbLine
 10
346.3736
 20
243.871514
 30
0.0
 11
336.317098
 21
243.871514
 31
0.0
  0
LINE
  5
74D
330
1D
100
AcDbEntity
  8
CSLAYER10
  6
Continuous
100
AcDbLine
 10
337.317098
 20
219.971514
 30
0.0
 11
337.317098
 21
243.871514
 31
0.0
  0
LINE
  5
74E
330
1D
100
AcDbEntity
  8
CSLAYER10
  6
Continuous
100
AcDbLine
 10
337.317098
 20
219.971514
 30
0.0
 11
337.056045
 21
221.954404
 31
0.0
  0
LINE
  5
74F
330
1D
100
AcDbEntity
  8
CSLAYER10
  6
Continuous
100
AcDbLine
 10
337.317098
 20
219.971514
 30
0.0
 11
337.57815
 21
221.954404
 31
0.0
  0
LINE
  5
750
330
1D
100
AcDbEntity
  8
CSLAYER10
  6
Continuous
100
AcDbLine
 10
337.317098
 20
243.871514
 30
0.0
 11
337.056045
 21
241.888625
 31
0.0
  0
LINE
  5
751
330
1D
100
AcDbEntity
  8
CSLAYER10
  6
Continuous
100
AcDbLine
 10
337.317098
 20
243.871514
 30
0.0
 11
337.57815
 21
241.888625
 31
0.0
  0
TEXT
  5
752
330
1D
100
AcDbEntity
  8
CSLAYER10
100
AcDbText
 10
336.317108
 20
252.671509
 30
0.0
 40
4.0
  1
5
 50
90.0
 41
0.75
  7
FX_FONT
 72
     5
 11
336.317108
 21
255.171509
 31
0.0
100
AcDbText
  0
LINE
  5
753
330
1D
100
AcDbEntity
  8
CSLAYER10
  6
Continuous
100
AcDbLine
 10
349.1736
 20
251.421514
 30
0.0
 11
336.317098
 21
251.421514
 31
0.0
  0
LINE
  5
754
330
1D
100
AcDbEntity
  8
CSLAYER10
  6
Continuous
100
AcDbLine
 10
349.1736
 20
256.421514
 30
0.0
 11
336.317098
 21
256.421514
 31
0.0
  0
LINE
  5
756
330
1D
100
AcDbEntity
  8
CSLAYER10
  6
Continuous
100
AcDbLine
 10
337.317098
 20
246.421514
 30
0.0
 11
337.317098
 21
261.421514
 31
0.0
  0
LINE
  5
757
330
1D
100
AcDbEntity
  8
CSLAYER10
  6
Continuous
100
AcDbLine
 10
337.317098
 20
251.421514
 30
0.0
 11
337.056045
 21
249.438625
 31
0.0
  0
LINE
  5
758
330
1D
100
AcDbEntity
  8
CSLAYER10
  6
Continuous
100
AcDbLine
 10
337.317098
 20
251.421514
 30
0.0
 11
337.57815
 21
249.438625
 31
0.0
  0
LINE
  5
75A
330
1D
100
AcDbEntity
  8
CSLAYER10
  6
Continuous
100
AcDbLine
 10
337.317098
 20
256.421514
 30
0.0
 11
337.056045
 21
258.404404
 31
0.0
  0
LINE
  5
75B
330
1D
100
AcDbEntity
  8
CSLAYER10
  6
Continuous
100
AcDbLine
 10
337.317098
 20
256.421514
 30
0.0
 11
337.57815
 21
258.404404
 31
0.0
  0
TEXT
  5
75C
330
1D
100
AcDbEntity
  8
CSLAYER10
100
AcDbText
 10
329.317108
 20
240.421509
 30
0.0
 40
4.0
  1
22
 50
90.0
 41
0.681818181818
  7
FX_FONT
 72
     5
 11
329.317108
 21
245.421509
 31
0.0
100
AcDbText
  0
LINE
  5
75D
330
1D
100
AcDbEntity
  8
CSLAYER10
  6
Continuous
100
AcDbLine
 10
372.510294
 20
231.921514
 30
0.0
 11
337.317098
 21
231.921514
 31
0.0
  0
LINE
  5
75E
330
1D
100
AcDbEntity
  8
CSLAYER10
  6
Continuous
100
AcDbLine
 10
371.605464
 20
253.921514
 30
0.0
 11
337.317098
 21
253.921514
 31
0.0
  0
LINE
  5
760
330
1D
100
AcDbEntity
  8
CSLAYER10
  6
Continuous
100
AcDbLine
 10
330.317098
 20
231.921514
 30
0.0
 11
330.056045
 21
233.904404
 31
0.0
  0
LINE
  5
761
330
1D
100
AcDbEntity
  8
CSLAYER10
  6
Continuous
100
AcDbLine
 10
330.317098
 20
231.921514
 30
0.0
 11
330.57815
 21
233.904404
 31
0.0
  0
LINE
  5
762
330
1D
100
AcDbEntity
  8
CSLAYER10
  6
Continuous
100
AcDbLine
 10
330.317098
 20
253.921514
 30
0.0
 11
330.056045
 21
251.938625
 31
0.0
  0
LINE
  5
763
330
1D
100
AcDbEntity
  8
CSLAYER10
  6
Continuous
100
AcDbLine
 10
330.317098
 20
253.921514
 30
0.0
 11
330.57815
 21
251.938625
 31
0.0
  0
LINE
  5
764
330
1D
100
AcDbEntity
  8
CSLAYER10
  6
Continuous
100
AcDbLine
 10
332.147372
 20
253.921514
 30
0.0
 11
329.317098
 21
253.921514
 31
0.0
  0
LINE
  5
765
330
1D
100
AcDbEntity
  8
CSLAYER10
  6
Continuous
100
AcDbLine
 10
331.636865
 20
231.921514
 30
0.0
 11
329.317098
 21
231.921514
 31
0.0
  0
TEXT
  5
766
330
1D
100
AcDbEntity
  8
CSLAYER10
100
AcDbText
 10
329.317108
 20
198.921509
 30
0.0
 40
4.0
  1
61
 50
90.0
 41
0.746887966805
  7
FX_FONT
 72
     5
 11
329.317108
 21
203.921509
 31
0.0
100
AcDbText
  0
LINE
  5
767
330
1D
100
AcDbEntity
  8
CSLAYER10
  6
Continuous
100
AcDbLine
 10
370.24822
 20
170.921514
 30
0.0
 11
322.317098
 21
170.921514
 31
0.0
  0
LINE
  5
768
330
1D
100
AcDbEntity
  8
CSLAYER10
  6
Continuous
100
AcDbLine
 10
330.317098
 20
170.921514
 30
0.0
 11
330.317098
 21
231.921514
 31
0.0
  0
LINE
  5
769
330
1D
100
AcDbEntity
  8
CSLAYER10
  6
Continuous
100
AcDbLine
 10
330.317098
 20
170.921514
 30
0.0
 11
330.056045
 21
172.904404
 31
0.0
  0
LINE
  5
76A
330
1D
100
AcDbEntity
  8
CSLAYER10
  6
Continuous
100
AcDbLine
 10
330.317098
 20
170.921514
 30
0.0
 11
330.57815
 21
172.904404
 31
0.0
  0
LINE
  5
76B
330
1D
100
AcDbEntity
  8
CSLAYER10
  6
Continuous
100
AcDbLine
 10
330.317098
 20
231.921514
 30
0.0
 11
330.056045
 21
229.938625
 31
0.0
  0
LINE
  5
76C
330
1D
100
AcDbEntity
  8
CSLAYER10
  6
Continuous
100
AcDbLine
 10
330.317098
 20
231.921514
 30
0.0
 11
330.57815
 21
229.938625
 31
0.0
  0
TEXT
  5
76D
330
1D
100
AcDbEntity
  8
CSLAYER10
100
AcDbText
 10
322.317108
 20
253.171509
 30
0.0
 40
4.0
  1
172
 50
90.0
 41
0.661764705882
  7
FX_FONT
 72
     5
 11
322.317108
 21
260.671509
 31
0.0
100
AcDbText
  0
LINE
  5
76E
102
{ACAD_REACTORS
330
1516
102
}
330
1D
100
AcDbEntity
  8
CSLAYER10
  6
Continuous
100
AcDbLine
 10
369.42743
 20
342.921514
 30
0.0
 11
322.317098
 21
342.921514
 31
0.0
  0
LINE
  5
770
330
1D
100
AcDbEntity
  8
CSLAYER10
  6
Continuous
100
AcDbLine
 10
323.317098
 20
170.921514
 30
0.0
 11
323.056045
 21
172.904404
 31
0.0
  0
LINE
  5
771
330
1D
100
AcDbEntity
  8
CSLAYER10
  6
Continuous
100
AcDbLine
 10
323.317098
 20
170.921514
 30
0.0
 11
323.57815
 21
172.904404
 31
0.0
  0
LINE
  5
772
330
1D
100
AcDbEntity
  8
CSLAYER10
  6
Continuous
100
AcDbLine
 10
323.317098
 20
342.921514
 30
0.0
 11
323.056045
 21
340.938625
 31
0.0
  0
LINE
  5
773
330
1D
100
AcDbEntity
  8
CSLAYER10
  6
Continuous
100
AcDbLine
 10
323.317098
 20
342.921514
 30
0.0
 11
323.57815
 21
340.938625
 31
0.0
  0
TEXT
  5
774
330
1D
100
AcDbEntity
  8
CSLAYER10
100
AcDbText
 10
322.317108
 20
344.171539
 30
0.0
 40
4.0
  1
12.5
 50
90.0
 41
0.652173913043
  7
FX_FONT
 72
     5
 11
322.317108
 21
354.171539
 31
0.0
100
AcDbText
  0
LINE
  5
775
330
1D
100
AcDbEntity
  8
CSLAYER10
  6
Continuous
100
AcDbLine
 10
362.27457675561
 20
355.421514
 30
0.0
 11
315.317098
 21
355.421514
 31
0.0
  0
LINE
  5
777
330
1D
100
AcDbEntity
  8
CSLAYER10
  6
Continuous
100
AcDbLine
 10
323.317098
 20
342.921514
 30
0.0
 11
323.056045
 21
344.904404
 31
0.0
  0
LINE
  5
778
330
1D
100
AcDbEntity
  8
CSLAYER10
  6
Continuous
100
AcDbLine
 10
323.317098
 20
342.921514
 30
0.0
 11
323.57815
 21
344.904404
 31
0.0
  0
LINE
  5
779
330
1D
100
AcDbEntity
  8
CSLAYER10
  6
Continuous
100
AcDbLine
 10
323.317098
 20
355.421514
 30
0.0
 11
323.056045
 21
353.438625
 31
0.0
  0
LINE
  5
77A
330
1D
100
AcDbEntity
  8
CSLAYER10
  6
Continuous
100
AcDbLine
 10
323.317098
 20
355.421514
 30
0.0
 11
323.57815
 21
353.438625
 31
0.0
  0
TEXT
  5
77B
330
1D
100
AcDbEntity
  8
CSLAYER10
100
AcDbText
 10
322.317108
 20
159.671509
 30
0.0
 40
4.0
  1
12.5
 50
90.0
 41
0.652173913043
  7
FX_FONT
 72
     5
 11
322.317108
 21
169.671509
 31
0.0
100
AcDbText
  0
LINE
  5
77C
330
1D
100
AcDbEntity
  8
CSLAYER10
  6
Continuous
100
AcDbLine
 10
361.4736
 20
158.421514
 30
0.0
 11
315.317098
 21
158.421514
 31
0.0
  0
LINE
  5
77D
330
1D
100
AcDbEntity
  8
CSLAYER10
  6
Continuous
100
AcDbLine
 10
323.317098
 20
170.921514
 30
0.0
 11
323.317098
 21
342.921514
 31
0.0
  0
LINE
  5
77E
330
1D
100
AcDbEntity
  8
CSLAYER10
  6
Continuous
100
AcDbLine
 10
323.317098
 20
158.421514
 30
0.0
 11
323.056045
 21
160.404404
 31
0.0
  0
LINE
  5
77F
330
1D
100
AcDbEntity
  8
CSLAYER10
  6
Continuous
100
AcDbLine
 10
323.317098
 20
158.421514
 30
0.0
 11
323.57815
 21
160.404404
 31
0.0
  0
LINE
  5
780
330
1D
100
AcDbEntity
  8
CSLAYER10
  6
Continuous
100
AcDbLine
 10
323.317098
 20
170.921514
 30
0.0
 11
323.056045
 21
168.938625
 31
0.0
  0
LINE
  5
781
330
1D
100
AcDbEntity
  8
CSLAYER10
  6
Continuous
100
AcDbLine
 10
323.317098
 20
170.921514
 30
0.0
 11
323.57815
 21
168.938625
 31
0.0
  0
TEXT
  5
782
330
1D
100
AcDbEntity
  8
CSLAYER10
100
AcDbText
 10
315.317108
 20
253.171509
 30
0.0
 40
4.0
  1
197
 50
90.0
 41
0.66165659206
  7
FX_FONT
 72
     5
 11
315.317108
 21
260.671509
 31
0.0
100
AcDbText
  0
LINE
  5
783
330
1D
100
AcDbEntity
  8
CSLAYER10
  6
Continuous
100
AcDbLine
 10
316.317098
 20
158.421514
 30
0.0
 11
316.317098
 21
355.421514
 31
0.0
  0
LINE
  5
784
330
1D
100
AcDbEntity
  8
CSLAYER10
  6
Continuous
100
AcDbLine
 10
316.317098
 20
158.421514
 30
0.0
 11
316.056045
 21
160.404404
 31
0.0
  0
LINE
  5
785
330
1D
100
AcDbEntity
  8
CSLAYER10
  6
Continuous
100
AcDbLine
 10
316.317098
 20
158.421514
 30
0.0
 11
316.57815
 21
160.404404
 31
0.0
  0
LINE
  5
786
330
1D
100
AcDbEntity
  8
CSLAYER10
  6
Continuous
100
AcDbLine
 10
316.317098
 20
355.421514
 30
0.0
 11
316.056045
 21
353.438625
 31
0.0
  0
LINE
  5
787
330
1D
100
AcDbEntity
  8
CSLAYER10
  6
Continuous
100
AcDbLine
 10
316.317098
 20
355.421514
 30
0.0
 11
316.57815
 21
353.438625
 31
0.0
  0
TEXT
  5
788
330
1D
100
AcDbEntity
  8
CSLAYER10
100
AcDbText
 10
351.423615
 20
206.827713
 30
0.0
 40
4.0
  1
13
 41
0.681818181818
  7
FX_FONT
 72
     5
 11
356.423615
 21
206.827713
 31
0.0
100
AcDbText
  0
LINE
  5
789
330
1D
100
AcDbEntity
  8
CSLAYER10
  6
Continuous
100
AcDbLine
 10
347.3736
 20
218.971514
 30
0.0
 11
347.3736
 21
204.827718
 31
0.0
  0
LINE
  5
78A
330
1D
100
AcDbEntity
  8
CSLAYER10
  6
Continuous
100
AcDbLine
 10
360.4736
 20
218.971514
 30
0.0
 11
360.4736
 21
204.827718
 31
0.0
  0
LINE
  5
78B
330
1D
100
AcDbEntity
  8
CSLAYER10
  6
Continuous
100
AcDbLine
 10
347.3736
 20
205.827718
 30
0.0
 11
360.4736
 21
205.827718
 31
0.0
  0
LINE
  5
78C
330
1D
100
AcDbEntity
  8
CSLAYER10
  6
Continuous
100
AcDbLine
 10
347.3736
 20
205.827718
 30
0.0
 11
349.35649
 21
206.08877
 31
0.0
  0
LINE
  5
78D
330
1D
100
AcDbEntity
  8
CSLAYER10
  6
Continuous
100
AcDbLine
 10
347.3736
 20
205.827718
 30
0.0
 11
349.35649
 21
205.566666
 31
0.0
  0
LINE
  5
78E
330
1D
100
AcDbEntity
  8
CSLAYER10
  6
Continuous
100
AcDbLine
 10
360.4736
 20
205.827718
 30
0.0
 11
358.490711
 21
206.08877
 31
0.0
  0
LINE
  5
78F
330
1D
100
AcDbEntity
  8
CSLAYER10
  6
Continuous
100
AcDbLine
 10
360.4736
 20
205.827718
 30
0.0
 11
358.490711
 21
205.566666
 31
0.0
  0
TEXT
  5
790
330
1D
100
AcDbEntity
  8
CSLAYER10
100
AcDbText
 10
352.823608
 20
274.551941
 30
0.0
 40
4.0
  1
10
 41
0.705329153605
  7
FX_FONT
 72
     5
 11
357.823608
 21
274.551941
 31
0.0
100
AcDbText
  0
LINE
  5
791
330
1D
100
AcDbEntity
  8
CSLAYER10
  6
Continuous
100
AcDbLine
 10
350.1736
 20
257.421514
 30
0.0
 11
350.1736
 21
274.551937
 31
0.0
  0
LINE
  5
792
330
1D
100
AcDbEntity
  8
CSLAYER10
  6
Continuous
100
AcDbLine
 10
360.4736
 20
257.421514
 30
0.0
 11
360.4736
 21
274.551937
 31
0.0
  0
LINE
  5
793
330
1D
100
AcDbEntity
  8
CSLAYER10
  6
Continuous
100
AcDbLine
 10
350.1736
 20
273.551937
 30
0.0
 11
360.4736
 21
273.551937
 31
0.0
  0
LINE
  5
794
330
1D
100
AcDbEntity
  8
CSLAYER10
  6
Continuous
100
AcDbLine
 10
350.1736
 20
273.551937
 30
0.0
 11
352.15649
 21
273.812989
 31
0.0
  0
LINE
  5
795
330
1D
100
AcDbEntity
  8
CSLAYER10
  6
Continuous
100
AcDbLine
 10
350.1736
 20
273.551937
 30
0.0
 11
352.15649
 21
273.290884
 31
0.0
  0
LINE
  5
796
330
1D
100
AcDbEntity
  8
CSLAYER10
  6
Continuous
100
AcDbLine
 10
360.4736
 20
273.551937
 30
0.0
 11
358.490711
 21
273.812989
 31
0.0
  0
LINE
  5
797
330
1D
100
AcDbEntity
  8
CSLAYER10
  6
Continuous
100
AcDbLine
 10
360.4736
 20
273.551937
 30
0.0
 11
358.490711
 21
273.290884
 31
0.0
  0
TEXT
  5
798
330
1D
100
AcDbEntity
  8
CSLAYER10
100
AcDbText
 10
374.121094
 20
147.921753
 30
0.0
 40
4.0
  1
6
 41
0.75
  7
FX_FONT
 72
     5
 11
376.621094
 21
147.921753
 31
0.0
100
AcDbText
  0
LINE
  5
799
330
1D
100
AcDbEntity
  8
CSLAYER10
  6
Continuous
100
AcDbLine
 10
360.4736
 20
157.621514
 30
0.0
 11
360.4736
 21
131.921757
 31
0.0
  0
LINE
  5
79A
330
1D
100
AcDbEntity
  8
CSLAYER10
  6
Continuous
100
AcDbLine
 10
366.4736
 20
157.421514
 30
0.0
 11
366.4736
 21
145.921757
 31
0.0
  0
LINE
  5
79C
330
1D
100
AcDbEntity
  8
CSLAYER10
  6
Continuous
100
AcDbLine
 10
355.4736
 20
146.921757
 30
0.0
 11
384.268569
 21
146.921757
 31
0.0
  0
LINE
  5
79D
330
1D
100
AcDbEntity
  8
CSLAYER10
  6
Continuous
100
AcDbLine
 10
360.4736
 20
146.921757
 30
0.0
 11
358.490711
 21
147.18281
 31
0.0
  0
LINE
  5
79E
330
1D
100
AcDbEntity
  8
CSLAYER10
  6
Continuous
100
AcDbLine
 10
360.4736
 20
146.921757
 30
0.0
 11
358.490711
 21
146.660705
 31
0.0
  0
LINE
  5
7A0
330
1D
100
AcDbEntity
  8
CSLAYER10
  6
Continuous
100
AcDbLine
 10
366.4736
 20
146.921757
 30
0.0
 11
368.45649
 21
147.18281
 31
0.0
  0
LINE
  5
7A1
330
1D
100
AcDbEntity
  8
CSLAYER10
  6
Continuous
100
AcDbLine
 10
366.4736
 20
146.921757
 30
0.0
 11
368.45649
 21
146.660705
 31
0.0
  0
TEXT
  5
7A2
330
1D
100
AcDbEntity
  8
CSLAYER10
100
AcDbText
 10
392.973602
 20
140.921753
 30
0.0
 40
4.0
  1
70
 41
0.705329153605
  7
FX_FONT
 72
     5
 11
397.973602
 21
140.921753
 31
0.0
100
AcDbText
  0
LINE
  5
7A3
102
{ACAD_REACTORS
330
12FA
330
12FE
102
}
330
1D
100
AcDbEntity
  8
CSLAYER10
  6
Continuous
100
AcDbLine
 10
430.4736
 20
316.421514
 30
0.0
 11
430.4736
 21
176.111977
 31
0.0
  0
LINE
  5
7A4
330
1D
100
AcDbEntity
  8
CSLAYER10
  6
Continuous
100
AcDbLine
 10
360.4736
 20
139.921757
 30
0.0
 11
430.4736
 21
139.921757
 31
0.0
  0
LINE
  5
7A5
330
1D
100
AcDbEntity
  8
CSLAYER10
  6
Continuous
100
AcDbLine
 10
360.4736
 20
139.921757
 30
0.0
 11
362.45649
 21
140.18281
 31
0.0
  0
LINE
  5
7A6
330
1D
100
AcDbEntity
  8
CSLAYER10
  6
Continuous
100
AcDbLine
 10
360.4736
 20
139.921757
 30
0.0
 11
362.45649
 21
139.660705
 31
0.0
  0
LINE
  5
7A7
330
1D
100
AcDbEntity
  8
CSLAYER10
  6
Continuous
100
AcDbLine
 10
430.4736
 20
139.921757
 30
0.0
 11
428.490711
 21
140.18281
 31
0.0
  0
LINE
  5
7A8
330
1D
100
AcDbEntity
  8
CSLAYER10
  6
Continuous
100
AcDbLine
 10
430.4736
 20
139.921757
 30
0.0
 11
428.490711
 21
139.660705
 31
0.0
  0
LINE
  5
7A9
330
1D
100
AcDbEntity
  8
CSLAYER10
  6
Continuous
100
AcDbLine
 10
430.4736
 20
171.180765
 30
0.0
 11
430.4736
 21
138.921757
 31
0.0
  0
TEXT
  5
7AA
330
1D
100
AcDbEntity
  8
CSLAYER10
100
AcDbText
 10
454.973602
 20
140.921753
 30
0.0
 40
4.0
  1
54
 41
0.679245283019
  7
FX_FONT
 72
     5
 11
459.973602
 21
140.921753
 31
0.0
100
AcDbText
  0
LINE
  5
7AB
330
1D
100
AcDbEntity
  8
CSLAYER10
  6
Continuous
100
AcDbLine
 10
484.4736
 20
189.921514
 30
0.0
 11
484.4736
 21
131.921757
 31
0.0
  0
LINE
  5
7AD
330
1D
100
AcDbEntity
  8
CSLAYER10
  6
Continuous
100
AcDbLine
 10
430.4736
 20
139.921757
 30
0.0
 11
432.45649
 21
140.18281
 31
0.0
  0
LINE
  5
7AE
330
1D
100
AcDbEntity
  8
CSLAYER10
  6
Continuous
100
AcDbLine
 10
430.4736
 20
139.921757
 30
0.0
 11
432.45649
 21
139.660705
 31
0.0
  0
LINE
  5
7AF
330
1D
100
AcDbEntity
  8
CSLAYER10
  6
Continuous
100
AcDbLine
 10
484.4736
 20
139.921757
 30
0.0
 11
482.490711
 21
140.18281
 31
0.0
  0
LINE
  5
7B0
330
1D
100
AcDbEntity
  8
CSLAYER10
  6
Continuous
100
AcDbLine
 10
484.4736
 20
139.921757
 30
0.0
 11
482.490711
 21
139.660705
 31
0.0
  0
TEXT
  5
7B1
330
1D
100
AcDbEntity
  8
CSLAYER10
100
AcDbText
 10
418.723602
 20
133.921753
 30
0.0
 40
4.0
  1
124
 41
0.661764705882
  7
FX_FONT
 72
     5
 11
426.223602
 21
133.921753
 31
0.0
100
AcDbText
  0
LINE
  5
7B2
330
1D
100
AcDbEntity
  8
CSLAYER10
  6
Continuous
100
AcDbLine
 10
360.4736
 20
132.921757
 30
0.0
 11
484.4736
 21
132.921757
 31
0.0
  0
LINE
  5
7B3
330
1D
100
AcDbEntity
  8
CSLAYER10
  6
Continuous
100
AcDbLine
 10
360.4736
 20
132.921757
 30
0.0
 11
362.45649
 21
133.18281
 31
0.0
  0
LINE
  5
7B4
330
1D
100
AcDbEntity
  8
CSLAYER10
  6
Continuous
100
AcDbLine
 10
360.4736
 20
132.921757
 30
0.0
 11
362.45649
 21
132.660705
 31
0.0
  0
LINE
  5
7B5
330
1D
100
AcDbEntity
  8
CSLAYER10
  6
Continuous
100
AcDbLine
 10
484.4736
 20
132.921757
 30
0.0
 11
482.490711
 21
133.18281
 31
0.0
  0
LINE
  5
7B6
330
1D
100
AcDbEntity
  8
CSLAYER10
  6
Continuous
100
AcDbLine
 10
484.4736
 20
132.921757
 30
0.0
 11
482.490711
 21
132.660705
 31
0.0
  0
TEXT
  5
7B7
330
1D
100
AcDbEntity
  8
CSLAYER10
100
AcDbText
 10
505.148956
 20
169.171509
 30
0.0
 40
4.0
  1
30.5
 50
90.0
 41
0.651937703731
  7
FX_FONT
 72
     5
 11
505.148956
 21
179.171509
 31
0.0
100
AcDbText
  0
LINE
  5
7B8
330
1D
100
AcDbEntity
  8
CSLAYER10
  6
Continuous
100
AcDbLine
 10
367.4736
 20
158.421514
 30
0.0
 11
507.148961
 21
158.421514
 31
0.0
  0
LINE
  5
7B9
330
1D
100
AcDbEntity
  8
CSLAYER10
  6
Continuous
100
AcDbLine
 10
484.4736
 20
189.921514
 30
0.0
 11
507.148961
 21
189.921514
 31
0.0
  0
LINE
  5
7BA
330
1D
100
AcDbEntity
  8
CSLAYER10
  6
Continuous
100
AcDbLine
 10
506.148961
 20
189.921514
 30
0.0
 11
506.148961
 21
323.921514
 31
0.0
  0
LINE
  5
7BB
330
1D
100
AcDbEntity
  8
CSLAYER10
  6
Continuous
100
AcDbLine
 10
506.148961
 20
158.421514
 30
0.0
 11
505.887909
 21
160.404404
 31
0.0
  0
LINE
  5
7BC
330
1D
100
AcDbEntity
  8
CSLAYER10
  6
Continuous
100
AcDbLine
 10
506.148961
 20
158.421514
 30
0.0
 11
506.410013
 21
160.404404
 31
0.0
  0
LINE
  5
7BD
330
1D
100
AcDbEntity
  8
CSLAYER10
  6
Continuous
100
AcDbLine
 10
506.148961
 20
189.921514
 30
0.0
 11
505.887909
 21
187.938625
 31
0.0
  0
LINE
  5
7BE
330
1D
100
AcDbEntity
  8
CSLAYER10
  6
Continuous
100
AcDbLine
 10
506.148961
 20
189.921514
 30
0.0
 11
506.410013
 21
187.938625
 31
0.0
  0
TEXT
  5
7BF
330
1D
100
AcDbEntity
  8
CSLAYER10
100
AcDbText
 10
505.148956
 20
253.171509
 30
0.0
 40
4.0
  1
136
 50
90.0
 41
0.661764705882
  7
FX_FONT
 72
     5
 11
505.148956
 21
260.671509
 31
0.0
100
AcDbText
  0
LINE
  5
7C0
330
1D
100
AcDbEntity
  8
CSLAYER10
  6
Continuous
100
AcDbLine
 10
482.4736
 20
323.921514
 30
0.0
 11
507.148961
 21
323.921514
 31
0.0
  0
LINE
  5
7C2
330
1D
100
AcDbEntity
  8
CSLAYER10
  6
Continuous
100
AcDbLine
 10
506.148961
 20
189.921514
 30
0.0
 11
505.887909
 21
191.904404
 31
0.0
  0
LINE
  5
7C3
330
1D
100
AcDbEntity
  8
CSLAYER10
  6
Continuous
100
AcDbLine
 10
506.148961
 20
189.921514
 30
0.0
 11
506.410013
 21
191.904404
 31
0.0
  0
LINE
  5
7C4
330
1D
100
AcDbEntity
  8
CSLAYER10
  6
Continuous
100
AcDbLine
 10
506.148961
 20
323.921514
 30
0.0
 11
505.887909
 21
321.938625
 31
0.0
  0
LINE
  5
7C5
330
1D
100
AcDbEntity
  8
CSLAYER10
  6
Continuous
100
AcDbLine
 10
506.148961
 20
323.921514
 30
0.0
 11
506.410013
 21
321.938625
 31
0.0
  0
TEXT
  5
7C6
330
1D
100
AcDbEntity
  8
CSLAYER10
100
AcDbText
 10
505.009674
 20
329.463104
 30
0.0
 40
4.0
  1
30.5
 50
90.0
 41
0.651937703731
  7
FX_FONT
 72
     5
 11
505.009674
 21
339.463104
 31
0.0
100
AcDbText
  0
LINE
  5
7C7
330
1D
100
AcDbEntity
  8
CSLAYER10
  6
Continuous
100
AcDbLine
 10
367.4736
 20
355.421514
 30
0.0
 11
507.148961
 21
355.421514
 31
0.0
  0
LINE
  5
7C9
330
1D
100
AcDbEntity
  8
CSLAYER10
  6
Continuous
100
AcDbLine
 10
506.148961
 20
323.921514
 30
0.0
 11
505.887909
 21
325.904404
 31
0.0
  0
LINE
  5
7CA
330
1D
100
AcDbEntity
  8
CSLAYER10
  6
Continuous
100
AcDbLine
 10
506.148961
 20
323.921514
 30
0.0
 11
506.410013
 21
325.904404
 31
0.0
  0
LINE
  5
7CB
330
1D
100
AcDbEntity
  8
CSLAYER10
  6
Continuous
100
AcDbLine
 10
506.148961
 20
355.421514
 30
0.0
 11
505.887909
 21
353.438625
 31
0.0
  0
LINE
  5
7CC
330
1D
100
AcDbEntity
  8
CSLAYER10
  6
Continuous
100
AcDbLine
 10
506.148961
 20
355.421514
 30
0.0
 11
506.410013
 21
353.438625
 31
0.0
  0
LINE
  5
7CD
330
1D
100
AcDbEntity
  8
CSLAYER10
  6
Continuous
100
AcDbLine
 10
261.580745
 20
317.67212
 30
0.0
 11
261.580745
 21
379.559202
 31
0.0
  0
LINE
  5
7CE
330
1D
100
AcDbEntity
  8
CSLAYER10
  6
Continuous
100
AcDbLine
 10
223.580745
 20
363.046959
 30
0.0
 11
223.580745
 21
379.559202
 31
0.0
  0
TEXT
  5
7CF
330
1D
100
AcDbEntity
  8
CSLAYER10
100
AcDbText
 10
240.08075
 20
379.559204
 30
0.0
 40
4.0
  1
38
 41
0.681818181818
  7
FX_FONT
 72
     5
 11
245.08075
 21
379.559204
 31
0.0
100
AcDbText
  0
LINE
  5
7D1
330
1D
100
AcDbEntity
  8
CSLAYER10
  6
Continuous
100
AcDbLine
 10
223.580745
 20
378.559202
 30
0.0
 11
225.563634
 21
378.820255
 31
0.0
  0
LINE
  5
7D2
330
1D
100
AcDbEntity
  8
CSLAYER10
  6
Continuous
100
AcDbLine
 10
223.580745
 20
378.559202
 30
0.0
 11
225.563634
 21
378.29815
 31
0.0
  0
LINE
  5
7D3
330
1D
100
AcDbEntity
  8
CSLAYER10
  6
Continuous
100
AcDbLine
 10
261.580745
 20
378.559202
 30
0.0
 11
259.597855
 21
378.820255
 31
0.0
  0
LINE
  5
7D4
330
1D
100
AcDbEntity
  8
CSLAYER10
  6
Continuous
100
AcDbLine
 10
261.580745
 20
378.559202
 30
0.0
 11
259.597855
 21
378.29815
 31
0.0
  0
TEXT
  5
7D5
330
1D
100
AcDbEntity
  8
CSLAYER10
100
AcDbText
 10
269.08075
 20
379.559204
 30
0.0
 40
4.0
  1
20
 41
0.705329153605
  7
FX_FONT
 72
     5
 11
274.08075
 21
379.559204
 31
0.0
100
AcDbText
  0
LINE
  5
7D6
330
1D
100
AcDbEntity
  8
CSLAYER10
  6
Continuous
100
AcDbLine
 10
281.580745
 20
306.144927
 30
0.0
 11
281.580745
 21
379.559202
 31
0.0
  0
LINE
  5
7D8
330
1D
100
AcDbEntity
  8
CSLAYER10
  6
Continuous
100
AcDbLine
 10
261.580745
 20
378.559202
 30
0.0
 11
263.563634
 21
378.820255
 31
0.0
  0
LINE
  5
7D9
330
1D
100
AcDbEntity
  8
CSLAYER10
  6
Continuous
100
AcDbLine
 10
261.580745
 20
378.559202
 30
0.0
 11
263.563634
 21
378.29815
 31
0.0
  0
LINE
  5
7DA
330
1D
100
AcDbEntity
  8
CSLAYER10
  6
Continuous
100
AcDbLine
 10
281.580745
 20
378.559202
 30
0.0
 11
279.597855
 21
378.820255
 31
0.0
  0
LINE
  5
7DB
330
1D
100
AcDbEntity
  8
CSLAYER10
  6
Continuous
100
AcDbLine
 10
281.580745
 20
378.559202
 30
0.0
 11
279.597855
 21
378.29815
 31
0.0
  0
TEXT
  5
7DC
330
1D
100
AcDbEntity
  8
CSLAYER10
100
AcDbText
 10
221.08075
 20
136.393951
 30
0.0
 40
4.0
  1
26
 41
0.681818181818
  7
FX_FONT
 72
     5
 11
226.08075
 21
136.393951
 31
0.0
100
AcDbText
  0
LINE
  5
7DD
330
1D
100
AcDbEntity
  8
CSLAYER10
  6
Continuous
100
AcDbLine
 10
210.780745
 20
157.621514
 30
0.0
 11
210.780745
 21
134.393953
 31
0.0
  0
LINE
  5
7DE
330
1D
100
AcDbEntity
  8
CSLAYER10
  6
Continuous
100
AcDbLine
 10
236.380745
 20
157.621514
 30
0.0
 11
236.380745
 21
134.393953
 31
0.0
  0
LINE
  5
7DF
330
1D
100
AcDbEntity
  8
CSLAYER10
  6
Continuous
100
AcDbLine
 10
210.780745
 20
135.393953
 30
0.0
 11
236.380745
 21
135.393953
 31
0.0
  0
LINE
  5
7E0
330
1D
100
AcDbEntity
  8
CSLAYER10
  6
Continuous
100
AcDbLine
 10
210.780745
 20
135.393953
 30
0.0
 11
212.763634
 21
135.655006
 31
0.0
  0
LINE
  5
7E1
330
1D
100
AcDbEntity
  8
CSLAYER10
  6
Continuous
100
AcDbLine
 10
210.780745
 20
135.393953
 30
0.0
 11
212.763634
 21
135.132901
 31
0.0
  0
LINE
  5
7E2
330
1D
100
AcDbEntity
  8
CSLAYER10
  6
Continuous
100
AcDbLine
 10
236.380745
 20
135.393953
 30
0.0
 11
234.397855
 21
135.655006
 31
0.0
  0
LINE
  5
7E3
330
1D
100
AcDbEntity
  8
CSLAYER10
  6
Continuous
100
AcDbLine
 10
236.380745
 20
135.393953
 30
0.0
 11
234.397855
 21
135.132901
 31
0.0
  0
TEXT
  5
7E4
330
1D
100
AcDbEntity
  8
CSLAYER10
100
AcDbText
 10
217.33075
 20
125.643677
 30
0.0
 40
4.0
  1
35~50
 41
0.652930934417
  7
FX_FONT
 72
     5
 11
229.83075
 21
125.643677
 31
0.0
100
AcDbText
  0
LINE
  5
7E7
330
1D
100
AcDbEntity
  8
CSLAYER10
  6
Continuous
100
AcDbLine
 10
205.580745
 20
124.643679
 30
0.0
 11
207.563634
 21
124.382627
 31
0.0
  0
TEXT
  5
7EA
330
1D
100
AcDbEntity
  8
CSLAYER10
100
AcDbText
 10
124.320435
 20
332.721527
 30
0.0
 40
4.0
  1
40
 50
90.0
 41
0.705329153605
  7
FX_FONT
 72
     5
 11
124.320435
 21
337.721527
 31
0.0
100
AcDbText
  0
LINE
  5
7EB
330
1D
100
AcDbEntity
  8
CSLAYER10
  6
Continuous
100
AcDbLine
 10
209.780745
 20
355.221514
 30
0.0
 11
124.320433
 21
355.221514
 31
0.0
  0
LINE
  5
7ED
330
1D
100
AcDbEntity
  8
CSLAYER10
  6
Continuous
100
AcDbLine
 10
125.320433
 20
315.221514
 30
0.0
 11
125.059381
 21
317.204404
 31
0.0
  0
LINE
  5
7EE
330
1D
100
AcDbEntity
  8
CSLAYER10
  6
Continuous
100
AcDbLine
 10
125.320433
 20
315.221514
 30
0.0
 11
125.581486
 21
317.204404
 31
0.0
  0
LINE
  5
7EF
330
1D
100
AcDbEntity
  8
CSLAYER10
  6
Continuous
100
AcDbLine
 10
125.320433
 20
355.221514
 30
0.0
 11
125.059381
 21
353.238625
 31
0.0
  0
LINE
  5
7F0
330
1D
100
AcDbEntity
  8
CSLAYER10
  6
Continuous
100
AcDbLine
 10
125.320433
 20
355.221514
 30
0.0
 11
125.581486
 21
353.238625
 31
0.0
  0
TEXT
  5
7F1
330
1D
100
AcDbEntity
  8
CSLAYER10
100
AcDbText
 10
221.08075
 20
205.761353
 30
0.0
 40
4.0
  1
14
 41
0.681818181818
  7
FX_FONT
 72
     5
 11
226.08075
 21
205.761353
 31
0.0
100
AcDbText
  0
LINE
  5
7F2
330
1D
100
AcDbEntity
  8
CSLAYER10
  6
Continuous
100
AcDbLine
 10
216.580745
 20
219.221514
 30
0.0
 11
216.580745
 21
203.76135
 31
0.0
  0
LINE
  5
7F3
330
1D
100
AcDbEntity
  8
CSLAYER10
  6
Continuous
100
AcDbLine
 10
230.580745
 20
219.221514
 30
0.0
 11
230.580745
 21
203.76135
 31
0.0
  0
LINE
  5
7F4
330
1D
100
AcDbEntity
  8
CSLAYER10
  6
Continuous
100
AcDbLine
 10
216.580745
 20
204.76135
 30
0.0
 11
230.580745
 21
204.76135
 31
0.0
  0
LINE
  5
7F5
330
1D
100
AcDbEntity
  8
CSLAYER10
  6
Continuous
100
AcDbLine
 10
216.580745
 20
204.76135
 30
0.0
 11
218.563634
 21
205.022402
 31
0.0
  0
LINE
  5
7F6
330
1D
100
AcDbEntity
  8
CSLAYER10
  6
Continuous
100
AcDbLine
 10
216.580745
 20
204.76135
 30
0.0
 11
218.563634
 21
204.500298
 31
0.0
  0
LINE
  5
7F7
330
1D
100
AcDbEntity
  8
CSLAYER10
  6
Continuous
100
AcDbLine
 10
230.580745
 20
204.76135
 30
0.0
 11
228.597855
 21
205.022402
 31
0.0
  0
LINE
  5
7F8
330
1D
100
AcDbEntity
  8
CSLAYER10
  6
Continuous
100
AcDbLine
 10
230.580745
 20
204.76135
 30
0.0
 11
228.597855
 21
204.500298
 31
0.0
  0
TEXT
  5
7F9
330
1D
100
AcDbEntity
  8
CSLAYER10
100
AcDbText
 10
544.851624
 20
298.015778
 30
0.0
 40
4.0
  1
31
 50
90.0
 41
0.75
  7
FX_FONT
 72
     5
 11
544.851624
 21
303.015778
 31
0.0
100
AcDbText
  0
LINE
  5
7FA
330
1D
100
AcDbEntity
  8
CSLAYER10
  6
Continuous
100
AcDbLine
 10
534.658599
 20
284.66578
 30
0.0
 11
546.851638
 21
284.66578
 31
0.0
  0
LINE
  5
7FB
330
1D
100
AcDbEntity
  8
CSLAYER10
  6
Continuous
100
AcDbLine
 10
537.808599
 20
316.36578
 30
0.0
 11
546.851638
 21
316.36578
 31
0.0
  0
LINE
  5
7FC
330
1D
100
AcDbEntity
  8
CSLAYER10
  6
Continuous
100
AcDbLine
 10
545.851638
 20
284.66578
 30
0.0
 11
545.851638
 21
316.36578
 31
0.0
  0
LINE
  5
7FD
330
1D
100
AcDbEntity
  8
CSLAYER10
  6
Continuous
100
AcDbLine
 10
545.851638
 20
284.66578
 30
0.0
 11
545.590585
 21
286.64867
 31
0.0
  0
LINE
  5
7FE
330
1D
100
AcDbEntity
  8
CSLAYER10
  6
Continuous
100
AcDbLine
 10
545.851638
 20
284.66578
 30
0.0
 11
546.11269
 21
286.64867
 31
0.0
  0
LINE
  5
7FF
330
1D
100
AcDbEntity
  8
CSLAYER10
  6
Continuous
100
AcDbLine
 10
545.851638
 20
316.36578
 30
0.0
 11
545.590585
 21
314.382891
 31
0.0
  0
LINE
  5
800
330
1D
100
AcDbEntity
  8
CSLAYER10
  6
Continuous
100
AcDbLine
 10
545.851638
 20
316.36578
 30
0.0
 11
546.11269
 21
314.382891
 31
0.0
  0
TEXT
  5
801
330
1D
100
AcDbEntity
  8
CSLAYER10
100
AcDbText
 10
512.408569
 20
277.507965
 30
0.0
 40
4.0
  1
15
 41
0.681818181818
  7
FX_FONT
 72
     5
 11
517.408569
 21
277.507965
 31
0.0
100
AcDbText
  0
LINE
  5
802
330
1D
100
AcDbEntity
  8
CSLAYER10
  6
Continuous
100
AcDbLine
 10
519.908599
 20
296.16578
 30
0.0
 11
519.908599
 21
275.50797
 31
0.0
  0
LINE
  5
803
330
1D
100
AcDbEntity
  8
CSLAYER10
  6
Continuous
100
AcDbLine
 10
534.908599
 20
296.16578
 30
0.0
 11
534.908599
 21
275.50797
 31
0.0
  0
LINE
  5
805
330
1D
100
AcDbEntity
  8
CSLAYER10
  6
Continuous
100
AcDbLine
 10
511.069362
 20
276.50797
 30
0.0
 11
539.088417
 21
276.50797
 31
0.0
  0
LINE
  5
806
330
1D
100
AcDbEntity
  8
CSLAYER10
  6
Continuous
100
AcDbLine
 10
519.908599
 20
276.50797
 30
0.0
 11
517.92571
 21
276.769022
 31
0.0
  0
LINE
  5
807
330
1D
100
AcDbEntity
  8
CSLAYER10
  6
Continuous
100
AcDbLine
 10
519.908599
 20
276.50797
 30
0.0
 11
517.92571
 21
276.246918
 31
0.0
  0
LINE
  5
809
330
1D
100
AcDbEntity
  8
CSLAYER10
  6
Continuous
100
AcDbLine
 10
534.908599
 20
276.50797
 30
0.0
 11
536.891489
 21
276.769022
 31
0.0
  0
LINE
  5
80A
330
1D
100
AcDbEntity
  8
CSLAYER10
  6
Continuous
100
AcDbLine
 10
534.908599
 20
276.50797
 30
0.0
 11
536.891489
 21
276.246918
 31
0.0
  0
TEXT
  5
80B
330
1D
100
AcDbEntity
  8
CSLAYER10
100
AcDbText
 10
45.991516
 20
338.890717
 30
0.0
 40
4.0
  1
2-4mmネジ用穴
 41
0.590034965035
  7
FX_FONT
 72
     5
 11
68.491516
 21
338.890717
 31
0.0
100
AcDbText
  0
LINE
  5
80C
330
1D
100
AcDbEntity
  8
CSLAYER10
  6
Continuous
100
AcDbLine
 10
74.114032
 20
308.127512
 30
0.0
 11
77.006294
 21
305.221514
 31
0.0
  0
LINE
  5
80D
330
1D
100
AcDbEntity
  8
CSLAYER10
  6
Continuous
100
AcDbLine
 10
74.114032
 20
308.127512
 30
0.0
 11
44.491517
 21
337.890711
 31
0.0
  0
LINE
  5
80E
330
1D
100
AcDbEntity
  8
CSLAYER10
  6
Continuous
100
AcDbLine
 10
74.114032
 20
308.127512
 30
0.0
 11
72.530214
 21
309.34879
 31
0.0
  0
LINE
  5
80F
330
1D
100
AcDbEntity
  8
CSLAYER10
  6
Continuous
100
AcDbLine
 10
74.114032
 20
308.127512
 30
0.0
 11
72.900271
 21
309.717099
 31
0.0
  0
LINE
  5
810
330
1D
100
AcDbEntity
  8
CSLAYER10
  6
Continuous
100
AcDbLine
 10
44.491517
 20
337.890711
 30
0.0
 11
68.991517
 21
337.890711
 31
0.0
  0
TEXT
  5
811
330
1D
100
AcDbEntity
  8
CSLAYER10
100
AcDbText
 10
427.973602
 20
171.721832
 30
0.0
 40
4.0
  1
44
 41
0.681818181818
  7
FX_FONT
 72
     5
 11
432.973602
 21
171.721832
 31
0.0
100
AcDbText
  0
LINE
  5
812
102
{ACAD_REACTORS
330
12FE
102
}
330
1D
100
AcDbEntity
  8
CSLAYER10
  6
Continuous
100
AcDbLine
 10
408.4736
 20
216.921514
 30
0.0
 11
408.4736
 21
169.72183
 31
0.0
  0
LINE
  5
813
102
{ACAD_REACTORS
330
12FE
102
}
330
1D
100
AcDbEntity
  8
CSLAYER10
  6
Continuous
100
AcDbLine
 10
452.4736
 20
216.921514
 30
0.0
 11
452.4736
 21
169.72183
 31
0.0
  0
LINE
  5
814
330
1D
100
AcDbEntity
  8
CSLAYER10
  6
Continuous
100
AcDbLine
 10
408.4736
 20
170.72183
 30
0.0
 11
452.4736
 21
170.72183
 31
0.0
  0
LINE
  5
815
330
1D
100
AcDbEntity
  8
CSLAYER10
  6
Continuous
100
AcDbLine
 10
408.4736
 20
170.72183
 30
0.0
 11
410.45649
 21
170.982882
 31
0.0
  0
LINE
  5
816
330
1D
100
AcDbEntity
  8
CSLAYER10
  6
Continuous
100
AcDbLine
 10
408.4736
 20
170.72183
 30
0.0
 11
410.45649
 21
170.460777
 31
0.0
  0
LINE
  5
817
330
1D
100
AcDbEntity
  8
CSLAYER10
  6
Continuous
100
AcDbLine
 10
452.4736
 20
170.72183
 30
0.0
 11
450.490711
 21
170.982882
 31
0.0
  0
LINE
  5
818
330
1D
100
AcDbEntity
  8
CSLAYER10
  6
Continuous
100
AcDbLine
 10
452.4736
 20
170.72183
 30
0.0
 11
450.490711
 21
170.460777
 31
0.0
  0
TEXT
  5
819
330
1D
100
AcDbEntity
  8
CSLAYER10
100
AcDbText
 10
439.372223
 20
244.296387
 30
0.0
 40
4.0
  1
%%c44貫通穴
 41
0.592105263158
  7
FX_FONT
 72
     5
 11
454.372223
 21
244.296387
 31
0.0
100
AcDbText
  0
LINE
  5
81A
102
{ACAD_REACTORS
330
12FE
102
}
330
1D
100
AcDbEntity
  8
CSLAYER10
  6
Continuous
100
AcDbLine
 10
444.315057
 20
229.021633
 30
0.0
 11
416.632143
 21
194.821395
 31
0.0
  0
LINE
  5
81B
330
1D
100
AcDbEntity
  8
CSLAYER10
  6
Continuous
100
AcDbLine
 10
416.632143
 20
194.821395
 30
0.0
 11
413.486358
 21
190.935005
 31
0.0
  0
LINE
  5
81C
330
1D
100
AcDbEntity
  8
CSLAYER10
  6
Continuous
100
AcDbLine
 10
416.632143
 20
194.821395
 30
0.0
 11
415.587505
 21
193.115895
 31
0.0
  0
LINE
  5
81D
330
1D
100
AcDbEntity
  8
CSLAYER10
  6
Continuous
100
AcDbLine
 10
416.632143
 20
194.821395
 30
0.0
 11
415.181684
 21
193.444381
 31
0.0
  0
LINE
  5
81E
330
1D
100
AcDbEntity
  8
CSLAYER10
  6
Continuous
100
AcDbLine
 10
444.315057
 20
229.021633
 30
0.0
 11
455.872213
 21
243.296383
 31
0.0
  0
LINE
  5
81F
330
1D
100
AcDbEntity
  8
CSLAYER10
  6
Continuous
100
AcDbLine
 10
444.315057
 20
229.021633
 30
0.0
 11
445.359888
 21
230.727016
 31
0.0
  0
LINE
  5
820
330
1D
100
AcDbEntity
  8
CSLAYER10
  6
Continuous
100
AcDbLine
 10
444.315057
 20
229.021633
 30
0.0
 11
445.765672
 21
230.398484
 31
0.0
  0
LINE
  5
821
330
1D
100
AcDbEntity
  8
CSLAYER10
  6
Continuous
100
AcDbLine
 10
455.872213
 20
243.296383
 30
0.0
 11
438.872213
 21
243.296383
 31
0.0
  0
TEXT
  5
822
330
1D
100
AcDbEntity
  8
CSLAYER10
100
AcDbText
 10
373.219116
 20
171.190857
 30
0.0
 40
4.0
  1
2-%%c10貫通穴
 41
0.599900016664
  7
FX_FONT
 72
     5
 11
393.219116
 21
171.190857
 31
0.0
100
AcDbText
  0
LINE
  5
823
330
1D
100
AcDbEntity
  8
CSLAYER10
  6
Continuous
100
AcDbLine
 10
406.915793
 20
207.170384
 30
0.0
 11
394.719111
 21
170.190852
 31
0.0
  0
LINE
  5
824
330
1D
100
AcDbEntity
  8
CSLAYER10
  6
Continuous
100
AcDbLine
 10
406.915793
 20
207.170384
 30
0.0
 11
406.542617
 21
205.205508
 31
0.0
  0
LINE
  5
825
330
1D
100
AcDbEntity
  8
CSLAYER10
  6
Continuous
100
AcDbLine
 10
406.915793
 20
207.170384
 30
0.0
 11
406.046786
 21
205.369044
 31
0.0
  0
LINE
  5
826
330
1D
100
AcDbEntity
  8
CSLAYER10
  6
Continuous
100
AcDbLine
 10
394.719111
 20
170.190852
 30
0.0
 11
372.719111
 21
170.190852
 31
0.0
  0
TEXT
  5
827
330
1D
100
AcDbEntity
  8
CSLAYER10
100
AcDbText
 10
406.071594
 20
262.611938
 30
0.0
 40
4.0
  1
%%c34貫通穴
 41
0.592105263158
  7
FX_FONT
 72
     5
 11
421.071594
 21
262.611938
 31
0.0
100
AcDbText
  0
LINE
  5
828
102
{ACAD_REACTORS
330
12FA
102
}
330
1D
100
AcDbEntity
  8
CSLAYER10
  6
Continuous
100
AcDbLine
 10
418.973032
 20
284.402052
 30
0.0
 11
441.974168
 21
309.440977
 31
0.0
  0
LINE
  5
829
330
1D
100
AcDbEntity
  8
CSLAYER10
  6
Continuous
100
AcDbLine
 10
441.974168
 20
309.440977
 30
0.0
 11
445.356688
 21
313.123171
 31
0.0
  0
LINE
  5
82A
330
1D
100
AcDbEntity
  8
CSLAYER10
  6
Continuous
100
AcDbLine
 10
441.974168
 20
309.440977
 30
0.0
 11
443.123352
 21
311.077857
 31
0.0
  0
LINE
  5
82B
330
1D
100
AcDbEntity
  8
CSLAYER10
  6
Continuous
100
AcDbLine
 10
441.974168
 20
309.440977
 30
0.0
 11
443.50785
 21
310.724651
 31
0.0
  0
LINE
  5
82C
330
1D
100
AcDbEntity
  8
CSLAYER10
  6
Continuous
100
AcDbLine
 10
418.973032
 20
284.402052
 30
0.0
 11
398.004901
 21
261.611939
 31
0.0
  0
LINE
  5
82D
330
1D
100
AcDbEntity
  8
CSLAYER10
  6
Continuous
100
AcDbLine
 10
418.973032
 20
284.402052
 30
0.0
 11
417.822573
 21
282.766068
 31
0.0
  0
LINE
  5
82E
330
1D
100
AcDbEntity
  8
CSLAYER10
  6
Continuous
100
AcDbLine
 10
418.973032
 20
284.402052
 30
0.0
 11
417.43835
 21
283.119574
 31
0.0
  0
LINE
  5
82F
330
1D
100
AcDbEntity
  8
CSLAYER10
  6
Continuous
100
AcDbLine
 10
398.004901
 20
261.611939
 30
0.0
 11
423.007104
 21
261.611939
 31
0.0
  0
TEXT
  5
830
330
1D
100
AcDbEntity
  8
CSLAYER10
100
AcDbText
 10
469.596222
 20
198.421509
 30
0.0
 40
4.0
  1
23
 50
90.0
 41
0.681818181818
  7
FX_FONT
 72
     5
 11
469.596222
 21
203.421509
 31
0.0
100
AcDbText
  0
LINE
  5
831
330
1D
100
AcDbEntity
  8
CSLAYER10
  6
Continuous
100
AcDbLine
 10
467.953153
 20
189.921514
 30
0.0
 11
471.596213
 21
189.921514
 31
0.0
  0
LINE
  5
832
102
{ACAD_REACTORS
330
12FE
102
}
330
1D
100
AcDbEntity
  8
CSLAYER10
  6
Continuous
100
AcDbLine
 10
403.4736
 20
211.921514
 30
0.0
 11
471.596213
 21
211.921514
 31
0.0
  0
LINE
  5
833
330
1D
100
AcDbEntity
  8
CSLAYER10
  6
Continuous
100
AcDbLine
 10
470.596213
 20
189.921514
 30
0.0
 11
470.596213
 21
323.921514
 31
0.0
  0
LINE
  5
834
330
1D
100
AcDbEntity
  8
CSLAYER10
  6
Continuous
100
AcDbLine
 10
470.596213
 20
189.921514
 30
0.0
 11
470.33516
 21
191.904404
 31
0.0
  0
LINE
  5
835
330
1D
100
AcDbEntity
  8
CSLAYER10
  6
Continuous
100
AcDbLine
 10
470.596213
 20
189.921514
 30
0.0
 11
470.857265
 21
191.904404
 31
0.0
  0
LINE
  5
836
330
1D
100
AcDbEntity
  8
CSLAYER10
  6
Continuous
100
AcDbLine
 10
470.596213
 20
211.921514
 30
0.0
 11
470.33516
 21
209.938625
 31
0.0
  0
LINE
  5
837
330
1D
100
AcDbEntity
  8
CSLAYER10
  6
Continuous
100
AcDbLine
 10
470.596213
 20
211.921514
 30
0.0
 11
470.857265
 21
209.938625
 31
0.0
  0
TEXT
  5
838
330
1D
100
AcDbEntity
  8
CSLAYER10
100
AcDbText
 10
469.596222
 20
245.169479
 30
0.0
 40
4.0
  1
85
 50
90.0
 41
0.681818181818
  7
FX_FONT
 72
     5
 11
469.596222
 21
250.169479
 31
0.0
100
AcDbText
  0
LINE
  5
839
102
{ACAD_REACTORS
330
12FA
102
}
330
1D
100
AcDbEntity
  8
CSLAYER10
  6
Continuous
100
AcDbLine
 10
413.4736
 20
296.921514
 30
0.0
 11
471.596213
 21
296.921514
 31
0.0
  0
LINE
  5
83B
330
1D
100
AcDbEntity
  8
CSLAYER10
  6
Continuous
100
AcDbLine
 10
470.596213
 20
211.921514
 30
0.0
 11
470.33516
 21
213.904404
 31
0.0
  0
LINE
  5
83C
330
1D
100
AcDbEntity
  8
CSLAYER10
  6
Continuous
100
AcDbLine
 10
470.596213
 20
211.921514
 30
0.0
 11
470.857265
 21
213.904404
 31
0.0
  0
LINE
  5
83D
330
1D
100
AcDbEntity
  8
CSLAYER10
  6
Continuous
100
AcDbLine
 10
470.596213
 20
296.921514
 30
0.0
 11
470.33516
 21
294.938625
 31
0.0
  0
LINE
  5
83E
330
1D
100
AcDbEntity
  8
CSLAYER10
  6
Continuous
100
AcDbLine
 10
470.596213
 20
296.921514
 30
0.0
 11
470.857265
 21
294.938625
 31
0.0
  0
TEXT
  5
83F
330
1D
100
AcDbEntity
  8
CSLAYER10
100
AcDbText
 10
469.596222
 20
313.78479
 30
0.0
 40
4.0
  1
28
 50
90.0
 41
0.681818181818
  7
FX_FONT
 72
     5
 11
469.596222
 21
318.78479
 31
0.0
100
AcDbText
  0
LINE
  5
841
330
1D
100
AcDbEntity
  8
CSLAYER10
  6
Continuous
100
AcDbLine
 10
470.596213
 20
296.921514
 30
0.0
 11
470.33516
 21
298.904404
 31
0.0
  0
LINE
  5
842
330
1D
100
AcDbEntity
  8
CSLAYER10
  6
Continuous
100
AcDbLine
 10
470.596213
 20
296.921514
 30
0.0
 11
470.857265
 21
298.904404
 31
0.0
  0
LINE
  5
843
330
1D
100
AcDbEntity
  8
CSLAYER10
  6
Continuous
100
AcDbLine
 10
470.596213
 20
323.921514
 30
0.0
 11
470.33516
 21
321.938625
 31
0.0
  0
LINE
  5
844
330
1D
100
AcDbEntity
  8
CSLAYER10
  6
Continuous
100
AcDbLine
 10
470.596213
 20
323.921514
 30
0.0
 11
470.857265
 21
321.938625
 31
0.0
  0
LINE
  5
845
330
1D
100
AcDbEntity
  8
CSLAYER10
  6
Continuous
100
AcDbLine
 10
525.939628
 20
261.919505
 30
0.0
 11
540.80031
 21
242.105263
 31
0.0
  0
CIRCLE
  5
846
330
1D
100
AcDbEntity
  8
CSLAYER10
  6
Continuous
100
AcDbCircle
 10
525.939628
 20
261.919505
 30
0.0
 40
0.5
  0
CIRCLE
  5
847
330
1D
100
AcDbEntity
  8
CSLAYER10
  6
Continuous
100
AcDbCircle
 10
525.939628
 20
261.919505
 30
0.0
 40
0.25
  0
LINE
  5
848
330
1D
100
AcDbEntity
  8
CSLAYER10
  6
Continuous
100
AcDbLine
 10
572.80031
 20
242.105263
 30
0.0
 11
540.80031
 21
242.105263
 31
0.0
  0
TEXT
  5
849
330
1D
100
AcDbEntity
  8
CSLAYER10
100
AcDbText
 10
541.800317
 20
243.10528
 30
0.0
 40
4.0
  1
リード線４本・6本　L=180
 41
0.452374968585
  7
FX_FONT
 72
     5
 11
571.800317
 21
243.10528
 31
0.0
100
AcDbText
  0
LINE
  5
84A
102
{ACAD_REACTORS
330
1516
102
}
330
1D
100
AcDbEntity
  8
CSLAYER10
  6
Continuous
100
AcDbLine
 10
362.4736
 20
342.921514
 30
0.0
 11
347.235721
 21
369.435152
 31
0.0
  0
LINE
  5
84B
330
1D
100
AcDbEntity
  8
CSLAYER10
  6
Continuous
100
AcDbLine
 10
362.4736
 20
342.921514
 30
0.0
 11
361.259215
 21
344.510624
 31
0.0
  0
LINE
  5
84C
330
1D
100
AcDbEntity
  8
CSLAYER10
  6
Continuous
100
AcDbLine
 10
362.4736
 20
342.921514
 30
0.0
 11
361.711886
 21
344.770782
 31
0.0
  0
LINE
  5
84D
330
1D
100
AcDbEntity
  8
CSLAYER10
  6
Continuous
100
AcDbLine
 10
347.235721
 20
369.435152
 30
0.0
 11
322.735721
 21
369.435152
 31
0.0
  0
TEXT
  5
84E
330
1D
100
AcDbEntity
  8
CSLAYER10
100
AcDbText
 10
323.735718
 20
370.43515
 30
0.0
 40
4.0
  1
2-4mmネジ用穴
 41
0.590034965035
  7
FX_FONT
 72
     5
 11
346.235718
 21
370.43515
 31
0.0
100
AcDbText
  0
TEXT
  5
84F
330
1D
100
AcDbEntity
  8
CSLAYER10
100
AcDbText
 10
513.473572
 20
93.150284
 30
0.0
 40
4.0
  1
48
 50
90.0
 41
0.681818181818
  7
FX_FONT
 72
     5
 11
513.473572
 21
98.150284
 31
0.0
100
AcDbText
  0
LINE
  5
850
330
1D
100
AcDbEntity
  8
CSLAYER10
  6
Continuous
100
AcDbLine
 10
434.9736
 20
70.350284
 30
0.0
 11
515.4736
 21
70.350284
 31
0.0
  0
LINE
  5
851
330
1D
100
AcDbEntity
  8
CSLAYER10
  6
Continuous
100
AcDbLine
 10
434.9736
 20
120.950284
 30
0.0
 11
515.4736
 21
120.950284
 31
0.0
  0
LINE
  5
852
330
1D
100
AcDbEntity
  8
CSLAYER10
  6
Continuous
100
AcDbLine
 10
514.4736
 20
70.350284
 30
0.0
 11
514.4736
 21
120.950284
 31
0.0
  0
LINE
  5
853
330
1D
100
AcDbEntity
  8
CSLAYER10
  6
Continuous
100
AcDbLine
 10
514.4736
 20
70.350284
 30
0.0
 11
514.212548
 21
72.333174
 31
0.0
  0
LINE
  5
854
330
1D
100
AcDbEntity
  8
CSLAYER10
  6
Continuous
100
AcDbLine
 10
514.4736
 20
70.350284
 30
0.0
 11
514.734653
 21
72.333174
 31
0.0
  0
LINE
  5
855
330
1D
100
AcDbEntity
  8
CSLAYER10
  6
Continuous
100
AcDbLine
 10
514.4736
 20
120.950284
 30
0.0
 11
514.212548
 21
118.967394
 31
0.0
  0
LINE
  5
856
330
1D
100
AcDbEntity
  8
CSLAYER10
  6
Continuous
100
AcDbLine
 10
514.4736
 20
120.950284
 30
0.0
 11
514.734653
 21
118.967394
 31
0.0
  0
TEXT
  5
857
330
1D
100
AcDbEntity
  8
CSLAYER10
100
AcDbText
 10
503.473602
 20
93.150284
 30
0.0
 40
4.0
  1
24
 50
90.0
 41
0.681818181818
  7
FX_FONT
 72
     5
 11
503.473602
 21
98.150284
 31
0.0
100
AcDbText
  0
LINE
  5
858
330
1D
100
AcDbEntity
  8
CSLAYER10
  6
Continuous
100
AcDbLine
 10
483.4736
 20
83.650284
 30
0.0
 11
505.4736
 21
83.650284
 31
0.0
  0
LINE
  5
859
330
1D
100
AcDbEntity
  8
CSLAYER10
  6
Continuous
100
AcDbLine
 10
483.4736
 20
107.650284
 30
0.0
 11
505.4736
 21
107.650284
 31
0.0
  0
LINE
  5
85A
330
1D
100
AcDbEntity
  8
CSLAYER10
  6
Continuous
100
AcDbLine
 10
504.4736
 20
83.650284
 30
0.0
 11
504.4736
 21
107.650284
 31
0.0
  0
LINE
  5
85B
330
1D
100
AcDbEntity
  8
CSLAYER10
  6
Continuous
100
AcDbLine
 10
504.4736
 20
83.650284
 30
0.0
 11
504.212548
 21
85.633174
 31
0.0
  0
LINE
  5
85C
330
1D
100
AcDbEntity
  8
CSLAYER10
  6
Continuous
100
AcDbLine
 10
504.4736
 20
83.650284
 30
0.0
 11
504.734653
 21
85.633174
 31
0.0
  0
LINE
  5
85D
330
1D
100
AcDbEntity
  8
CSLAYER10
  6
Continuous
100
AcDbLine
 10
504.4736
 20
107.650284
 30
0.0
 11
504.212548
 21
105.667394
 31
0.0
  0
LINE
  5
85E
330
1D
100
AcDbEntity
  8
CSLAYER10
  6
Continuous
100
AcDbLine
 10
504.4736
 20
107.650284
 30
0.0
 11
504.734653
 21
105.667394
 31
0.0
  0
TEXT
  5
85F
330
1D
100
AcDbEntity
  8
CSLAYER10
100
AcDbText
 10
493.473602
 20
93.150284
 30
0.0
 40
4.0
  1
21
 50
90.0
 41
0.75
  7
FX_FONT
 72
     5
 11
493.473602
 21
98.150284
 31
0.0
100
AcDbText
  0
LINE
  5
860
330
1D
100
AcDbEntity
  8
CSLAYER10
  6
Continuous
100
AcDbLine
 10
483.4736
 20
85.150284
 30
0.0
 11
495.4736
 21
85.150284
 31
0.0
  0
LINE
  5
861
330
1D
100
AcDbEntity
  8
CSLAYER10
  6
Continuous
100
AcDbLine
 10
485.4736
 20
106.150284
 30
0.0
 11
495.4736
 21
106.150284
 31
0.0
  0
LINE
  5
862
330
1D
100
AcDbEntity
  8
CSLAYER10
  6
Continuous
100
AcDbLine
 10
494.4736
 20
85.150284
 30
0.0
 11
494.4736
 21
106.150284
 31
0.0
  0
LINE
  5
863
330
1D
100
AcDbEntity
  8
CSLAYER10
  6
Continuous
100
AcDbLine
 10
494.4736
 20
85.150284
 30
0.0
 11
494.212548
 21
87.133174
 31
0.0
  0
LINE
  5
864
330
1D
100
AcDbEntity
  8
CSLAYER10
  6
Continuous
100
AcDbLine
 10
494.4736
 20
85.150284
 30
0.0
 11
494.734653
 21
87.133174
 31
0.0
  0
LINE
  5
865
330
1D
100
AcDbEntity
  8
CSLAYER10
  6
Continuous
100
AcDbLine
 10
494.4736
 20
106.150284
 30
0.0
 11
494.212548
 21
104.167394
 31
0.0
  0
LINE
  5
866
330
1D
100
AcDbEntity
  8
CSLAYER10
  6
Continuous
100
AcDbLine
 10
494.4736
 20
106.150284
 30
0.0
 11
494.734653
 21
104.167394
 31
0.0
  0
TEXT
  5
867
330
1D
100
AcDbEntity
  8
CSLAYER10
100
AcDbText
 10
203.330734
 20
379.559204
 30
0.0
 40
4.0
  1
A
 41
0.75
  7
FX_FONT
 72
     5
 11
205.830734
 21
379.559204
 31
0.0
100
AcDbText
  0
LINE
  5
868
330
1D
100
AcDbEntity
  8
CSLAYER10
  6
Continuous
100
AcDbLine
 10
223.580745
 20
378.559202
 30
0.0
 11
185.580745
 21
378.559202
 31
0.0
  0
LINE
  5
869
330
1D
100
AcDbEntity
  8
CSLAYER10
  6
Continuous
100
AcDbLine
 10
223.580745
 20
378.559202
 30
0.0
 11
221.597855
 21
378.820255
 31
0.0
  0
LINE
  5
86A
330
1D
100
AcDbEntity
  8
CSLAYER10
  6
Continuous
100
AcDbLine
 10
223.580745
 20
378.559202
 30
0.0
 11
221.597855
 21
378.29815
 31
0.0
  0
LINE
  5
86B
330
1D
100
AcDbEntity
  8
CSLAYER10
  6
Continuous
100
AcDbLine
 10
185.580745
 20
378.559202
 30
0.0
 11
187.563634
 21
378.820255
 31
0.0
  0
LINE
  5
86C
330
1D
100
AcDbEntity
  8
CSLAYER10
  6
Continuous
100
AcDbLine
 10
185.580745
 20
378.559202
 30
0.0
 11
187.563634
 21
378.29815
 31
0.0
  0
TEXT
  5
86D
330
1D
100
AcDbEntity
  8
CSLAYER10
100
AcDbText
 10
250.33075
 20
371.920837
 30
0.0
 40
4.0
  1
H
 41
0.75
  7
FX_FONT
 72
     5
 11
252.83075
 21
371.920837
 31
0.0
100
AcDbText
  0
LINE
  5
86E
330
1D
100
AcDbEntity
  8
CSLAYER10
  6
Continuous
100
AcDbLine
 10
241.580745
 20
321.828546
 30
0.0
 11
241.580745
 21
371.920837
 31
0.0
  0
LINE
  5
86F
330
1D
100
AcDbEntity
  8
CSLAYER10
  6
Continuous
100
AcDbLine
 10
241.580745
 20
370.920837
 30
0.0
 11
261.580745
 21
370.920837
 31
0.0
  0
LINE
  5
870
330
1D
100
AcDbEntity
  8
CSLAYER10
  6
Continuous
100
AcDbLine
 10
241.580745
 20
370.920837
 30
0.0
 11
243.563634
 21
371.181889
 31
0.0
  0
LINE
  5
871
330
1D
100
AcDbEntity
  8
CSLAYER10
  6
Continuous
100
AcDbLine
 10
241.580745
 20
370.920837
 30
0.0
 11
243.563634
 21
370.659785
 31
0.0
  0
LINE
  5
872
330
1D
100
AcDbEntity
  8
CSLAYER10
  6
Continuous
100
AcDbLine
 10
261.580745
 20
370.920837
 30
0.0
 11
259.597855
 21
371.181889
 31
0.0
  0
LINE
  5
873
330
1D
100
AcDbEntity
  8
CSLAYER10
  6
Continuous
100
AcDbLine
 10
261.580745
 20
370.920837
 30
0.0
 11
259.597855
 21
370.659785
 31
0.0
  0
TEXT
  5
874
330
1D
100
AcDbEntity
  8
CSLAYER10
100
AcDbText
 10
194.33075
 20
371.920837
 30
0.0
 40
4.0
  1
H
 41
0.75
  7
FX_FONT
 72
     5
 11
196.83075
 21
371.920837
 31
0.0
100
AcDbText
  0
LINE
  5
875
330
1D
100
AcDbEntity
  8
CSLAYER10
  6
Continuous
100
AcDbLine
 10
205.580745
 20
321.178546
 30
0.0
 11
205.580745
 21
371.920837
 31
0.0
  0
LINE
  5
876
330
1D
100
AcDbEntity
  8
CSLAYER10
  6
Continuous
100
AcDbLine
 10
185.580745
 20
370.920837
 30
0.0
 11
205.580745
 21
370.920837
 31
0.0
  0
LINE
  5
877
330
1D
100
AcDbEntity
  8
CSLAYER10
  6
Continuous
100
AcDbLine
 10
185.580745
 20
370.920837
 30
0.0
 11
187.563634
 21
371.181889
 31
0.0
  0
LINE
  5
878
330
1D
100
AcDbEntity
  8
CSLAYER10
  6
Continuous
100
AcDbLine
 10
185.580745
 20
370.920837
 30
0.0
 11
187.563634
 21
370.659785
 31
0.0
  0
LINE
  5
879
330
1D
100
AcDbEntity
  8
CSLAYER10
  6
Continuous
100
AcDbLine
 10
205.580745
 20
370.920837
 30
0.0
 11
203.597855
 21
371.181889
 31
0.0
  0
LINE
  5
87A
330
1D
100
AcDbEntity
  8
CSLAYER10
  6
Continuous
100
AcDbLine
 10
205.580745
 20
370.920837
 30
0.0
 11
203.597855
 21
370.659785
 31
0.0
  0
LINE
  5
87C
330
1D
100
AcDbEntity
  8
CSLAYER10
  6
Continuous
100
AcDbLine
 10
242.580745
 20
272.606324
 30
0.0
 11
294.580745
 21
272.606324
 31
0.0
  0
LINE
  5
87D
330
1D
100
AcDbEntity
  8
CSLAYER10
  6
Continuous
100
AcDbLine
 10
242.580745
 20
320.828546
 30
0.0
 11
294.580745
 21
320.828546
 31
0.0
  0
LINE
  5
87E
330
1D
100
AcDbEntity
  8
CSLAYER10
  6
Continuous
100
AcDbLine
 10
293.580745
 20
272.606324
 30
0.0
 11
293.580745
 21
320.828546
 31
0.0
  0
LINE
  5
87F
330
1D
100
AcDbEntity
  8
CSLAYER10
  6
Continuous
100
AcDbLine
 10
293.580745
 20
272.606324
 30
0.0
 11
293.319692
 21
274.589214
 31
0.0
  0
LINE
  5
880
330
1D
100
AcDbEntity
  8
CSLAYER10
  6
Continuous
100
AcDbLine
 10
293.580745
 20
272.606324
 30
0.0
 11
293.841797
 21
274.589214
 31
0.0
  0
LINE
  5
881
330
1D
100
AcDbEntity
  8
CSLAYER10
  6
Continuous
100
AcDbLine
 10
293.580745
 20
320.828546
 30
0.0
 11
293.319692
 21
318.845657
 31
0.0
  0
LINE
  5
882
330
1D
100
AcDbEntity
  8
CSLAYER10
  6
Continuous
100
AcDbLine
 10
293.580745
 20
320.828546
 30
0.0
 11
293.841797
 21
318.845657
 31
0.0
  0
LINE
  5
884
330
1D
100
AcDbEntity
  8
CSLAYER10
  6
Continuous
100
AcDbLine
 10
204.580745
 20
271.956324
 30
0.0
 11
172.580745
 21
271.956324
 31
0.0
  0
LINE
  5
885
330
1D
100
AcDbEntity
  8
CSLAYER10
  6
Continuous
100
AcDbLine
 10
204.580745
 20
320.178546
 30
0.0
 11
172.580745
 21
320.178546
 31
0.0
  0
LINE
  5
886
330
1D
100
AcDbEntity
  8
CSLAYER10
  6
Continuous
100
AcDbLine
 10
173.580745
 20
271.956324
 30
0.0
 11
173.580745
 21
320.178546
 31
0.0
  0
LINE
  5
887
330
1D
100
AcDbEntity
  8
CSLAYER10
  6
Continuous
100
AcDbLine
 10
173.580745
 20
271.956324
 30
0.0
 11
173.319692
 21
273.939214
 31
0.0
  0
LINE
  5
888
330
1D
100
AcDbEntity
  8
CSLAYER10
  6
Continuous
100
AcDbLine
 10
173.580745
 20
271.956324
 30
0.0
 11
173.841797
 21
273.939214
 31
0.0
  0
LINE
  5
889
330
1D
100
AcDbEntity
  8
CSLAYER10
  6
Continuous
100
AcDbLine
 10
173.580745
 20
320.178546
 30
0.0
 11
173.319692
 21
318.195657
 31
0.0
  0
LINE
  5
88A
330
1D
100
AcDbEntity
  8
CSLAYER10
  6
Continuous
100
AcDbLine
 10
173.580745
 20
320.178546
 30
0.0
 11
173.841797
 21
318.195657
 31
0.0
  0
TEXT
  5
88B
330
1D
100
AcDbEntity
  8
CSLAYER10
100
AcDbText
 10
10.329118
 20
250.241592
 30
0.0
 40
4.0
  1
85
 50
90.0
 41
0.681818181818
  7
FX_FONT
 72
     5
 11
10.329118
 21
255.241592
 31
0.0
100
AcDbText
  0
LINE
  5
88C
330
1D
100
AcDbEntity
  8
CSLAYER10
  6
Continuous
100
AcDbLine
 10
19.866473
 20
210.243693
 30
0.0
 11
10.329118
 21
210.243693
 31
0.0
  0
LINE
  5
88D
330
1D
100
AcDbEntity
  8
CSLAYER10
  6
Continuous
100
AcDbLine
 10
19.866473
 20
295.239498
 30
0.0
 11
10.329118
 21
295.239498
 31
0.0
  0
LINE
  5
88E
330
1D
100
AcDbEntity
  8
CSLAYER10
  6
Continuous
100
AcDbLine
 10
11.329118
 20
210.243693
 30
0.0
 11
11.329118
 21
295.239498
 31
0.0
  0
LINE
  5
88F
330
1D
100
AcDbEntity
  8
CSLAYER10
  6
Continuous
100
AcDbLine
 10
11.329118
 20
210.243693
 30
0.0
 11
11.068065
 21
212.226582
 31
0.0
  0
LINE
  5
890
330
1D
100
AcDbEntity
  8
CSLAYER10
  6
Continuous
100
AcDbLine
 10
11.329118
 20
210.243693
 30
0.0
 11
11.59017
 21
212.226582
 31
0.0
  0
LINE
  5
891
330
1D
100
AcDbEntity
  8
CSLAYER10
  6
Continuous
100
AcDbLine
 10
11.329118
 20
295.239498
 30
0.0
 11
11.068065
 21
293.256608
 31
0.0
  0
LINE
  5
892
330
1D
100
AcDbEntity
  8
CSLAYER10
  6
Continuous
100
AcDbLine
 10
11.329118
 20
295.239498
 30
0.0
 11
11.59017
 21
293.256608
 31
0.0
  0
TEXT
  5
893
330
1D
100
AcDbEntity
  8
CSLAYER10
100
AcDbText
 10
73.820442
 20
278.532867
 30
0.0
 40
4.0
  1
18
 41
0.681818181818
  7
FX_FONT
 72
     5
 11
78.820442
 21
278.532867
 31
0.0
100
AcDbText
  0
LINE
  5
894
330
1D
100
AcDbEntity
  8
CSLAYER10
  6
Continuous
100
AcDbLine
 10
67.320433
 20
277.532856
 30
0.0
 11
85.320433
 21
277.532856
 31
0.0
  0
LINE
  5
895
330
1D
100
AcDbEntity
  8
CSLAYER10
  6
Continuous
100
AcDbLine
 10
67.320433
 20
277.532856
 30
0.0
 11
69.303323
 21
277.793909
 31
0.0
  0
LINE
  5
896
330
1D
100
AcDbEntity
  8
CSLAYER10
  6
Continuous
100
AcDbLine
 10
67.320433
 20
277.532856
 30
0.0
 11
69.303323
 21
277.271804
 31
0.0
  0
LINE
  5
897
330
1D
100
AcDbEntity
  8
CSLAYER10
  6
Continuous
100
AcDbLine
 10
85.320433
 20
277.532856
 30
0.0
 11
83.337544
 21
277.793909
 31
0.0
  0
LINE
  5
898
330
1D
100
AcDbEntity
  8
CSLAYER10
  6
Continuous
100
AcDbLine
 10
85.320433
 20
277.532856
 30
0.0
 11
83.337544
 21
277.271804
 31
0.0
  0
LINE
  5
899
330
1D
100
AcDbEntity
  8
CSLAYER10
  6
Continuous
100
AcDbLine
 10
67.327357
 20
249.721514
 30
0.0
 11
52.155126
 21
249.721514
 31
0.0
  0
LINE
  5
89A
330
1D
100
AcDbEntity
  8
CSLAYER10
  6
Continuous
100
AcDbLine
 10
67.320433
 20
255.721514
 30
0.0
 11
52.155126
 21
255.721514
 31
0.0
  0
TEXT
  5
89B
330
1D
100
AcDbEntity
  8
CSLAYER10
100
AcDbText
 10
52.320435
 20
251.471512
 30
0.0
 40
4.0
  1
6
 50
90.0
 41
0.75
  7
FX_FONT
 72
     5
 11
52.320435
 21
253.971512
 31
0.0
100
AcDbText
  0
LINE
  5
89E
330
1D
100
AcDbEntity
  8
CSLAYER10
  6
Continuous
100
AcDbLine
 10
53.320433
 20
249.721514
 30
0.0
 11
53.059381
 21
251.704404
 31
0.0
  0
LINE
  5
89F
330
1D
100
AcDbEntity
  8
CSLAYER10
  6
Continuous
100
AcDbLine
 10
53.320433
 20
249.721514
 30
0.0
 11
53.581486
 21
251.704404
 31
0.0
  0
LINE
  5
8A0
330
1D
100
AcDbEntity
  8
CSLAYER10
  6
Continuous
100
AcDbLine
 10
53.320433
 20
255.721514
 30
0.0
 11
53.059381
 21
253.738625
 31
0.0
  0
LINE
  5
8A1
330
1D
100
AcDbEntity
  8
CSLAYER10
  6
Continuous
100
AcDbLine
 10
53.320433
 20
255.721514
 30
0.0
 11
53.581486
 21
253.738625
 31
0.0
  0
TEXT
  5
8A2
330
1D
100
AcDbEntity
  8
CSLAYER10
100
AcDbText
 10
52.320435
 20
272.221527
 30
0.0
 40
4.0
  1
38
 50
90.0
 41
0.681818181818
  7
FX_FONT
 72
     5
 11
52.320435
 21
277.221527
 31
0.0
100
AcDbText
  0
LINE
  5
8A3
330
1D
100
AcDbEntity
  8
CSLAYER10
  6
Continuous
100
AcDbLine
 10
67.320433
 20
293.721514
 30
0.0
 11
52.320433
 21
293.721514
 31
0.0
  0
LINE
  5
8A5
330
1D
100
AcDbEntity
  8
CSLAYER10
  6
Continuous
100
AcDbLine
 10
53.320433
 20
255.721514
 30
0.0
 11
53.059381
 21
257.704404
 31
0.0
  0
LINE
  5
8A6
330
1D
100
AcDbEntity
  8
CSLAYER10
  6
Continuous
100
AcDbLine
 10
53.320433
 20
255.721514
 30
0.0
 11
53.581486
 21
257.704404
 31
0.0
  0
LINE
  5
8A7
330
1D
100
AcDbEntity
  8
CSLAYER10
  6
Continuous
100
AcDbLine
 10
53.320433
 20
293.721514
 30
0.0
 11
53.059381
 21
291.738625
 31
0.0
  0
LINE
  5
8A8
330
1D
100
AcDbEntity
  8
CSLAYER10
  6
Continuous
100
AcDbLine
 10
53.320433
 20
293.721514
 30
0.0
 11
53.581486
 21
291.738625
 31
0.0
  0
LINE
  5
8B3
330
1D
100
AcDbEntity
  8
CSLAYER10
  6
Continuous
100
AcDbLine
 10
205.580745
 20
124.643679
 30
0.0
 11
207.563634
 21
124.904732
 31
0.0
  0
LINE
  5
8B5
330
1D
100
AcDbEntity
  8
CSLAYER10
  6
Continuous
100
AcDbLine
 10
241.580745
 20
124.643679
 30
0.0
 11
239.597855
 21
124.904732
 31
0.0
  0
LINE
  5
8B6
330
1D
100
AcDbEntity
  8
CSLAYER10
  6
Continuous
100
AcDbLine
 10
241.580745
 20
124.643679
 30
0.0
 11
239.597855
 21
124.382627
 31
0.0
  0
TEXT
  5
8E7
330
1D
100
AcDbEntity
  8
CSLAYER10
100
AcDbText
 10
172.2489824121
 20
294.603853859349
 30
0.0
 40
4.0
  1
D
 50
90.0
 41
0.75
  7
FX_FONT
 72
     5
 11
172.2489824121
 21
297.103853859349
 31
0.0
100
AcDbText
  0
TEXT
  5
941
330
1D
100
AcDbEntity
  8
CSLAYER10
100
AcDbText
 10
217.643920055731
 20
118.154678728219
 30
0.0
 40
4.0
  1
取付扉厚
 41
0.689338235294
  7
FX_FONT
 72
     5
 11
230.143920055731
 21
118.154678728219
 31
0.0
100
AcDbText
  0
TEXT
  5
9ED
330
1D
100
AcDbEntity
  8
CSLAYER10
  6
Continuous
100
AcDbText
 10
110.990372974809
 20
55.554051696297
 30
0.0
 40
4.0
  1
高さ（H)
 41
0.6
  7
FX_FONT
100
AcDbText
  0
TEXT
  5
A17
330
1D
100
AcDbEntity
  8
CSLAYER10
  6
Continuous
100
AcDbText
 10
130.552237917393
 20
55.684824062074
 30
0.0
 40
4.0
  1
直径（D)
 41
0.6
  7
FX_FONT
100
AcDbText
  0
LINE
  5
BC8
330
1D
100
AcDbEntity
  8
CSLAYER10
  6
Continuous
100
AcDbLine
 10
136.701748451153
 20
211.921514
 30
0.0
 11
310.459741548847
 21
211.921514
 31
0.0
  0
LINE
  5
BCD
330
1D
100
AcDbEntity
  8
CSLAYER1
  6
Continuous
100
AcDbLine
 10
241.580745
 20
241.921514
 30
0.0
 11
241.580745
 21
181.921514
 31
0.0
  0
LINE
  5
BCE
330
1D
100
AcDbEntity
  8
CSLAYER1
  6
Continuous
100
AcDbLine
 10
250.580745
 20
240.038731781463
 30
0.0
 11
250.580745
 21
183.804296218537
 31
0.0
  0
LINE
  5
BCF
330
1D
100
AcDbEntity
  8
CSLAYER1
  6
Continuous
100
AcDbLine
 10
242.580745
 20
241.921514
 30
0.0
 11
242.580745
 21
181.921514
 31
0.0
  0
LINE
  5
BD0
330
1D
100
AcDbEntity
  8
CSLAYER1
  6
Continuous
100
AcDbLine
 10
242.580745
 20
181.921514
 30
0.0
 11
249.704779734589
 21
182.812018341824
 31
0.0
  0
ARC
  5
BD1
330
1D
100
AcDbEntity
  8
CSLAYER1
  6
Continuous
100
AcDbCircle
 10
249.580745
 20
183.804296218537
 30
0.0
 40
1.0
100
AcDbArc
 50
277.125016348905
 51
0.0
  0
LINE
  5
BD2
330
1D
100
AcDbEntity
  8
CSLAYER1
  6
Continuous
100
AcDbLine
 10
242.580745
 20
181.921514
 30
0.0
 11
241.580745
 21
181.921514
 31
0.0
  0
LINE
  5
BD4
330
1D
100
AcDbEntity
  8
CSLAYER1
  6
Continuous
100
AcDbLine
 10
251.580745
 20
201.421514
 30
0.0
 11
250.580745
 21
201.421514
 31
0.0
  0
LINE
  5
BD6
330
1D
100
AcDbEntity
  8
CSLAYER1
  6
Continuous
100
AcDbLine
 10
242.580745
 20
241.921514
 30
0.0
 11
249.704779734589
 21
241.031009658176
 31
0.0
  0
LINE
  5
BD7
330
1D
100
AcDbEntity
  8
CSLAYER1
  6
Continuous
100
AcDbLine
 10
251.580745
 20
222.421514
 30
0.0
 11
250.580745
 21
222.421514
 31
0.0
  0
ARC
  5
BD8
330
1D
100
AcDbEntity
  8
CSLAYER1
  6
Continuous
100
AcDbCircle
 10
249.580745
 20
240.038731781463
 30
0.0
 40
1.0
100
AcDbArc
 50
0.0
 51
82.874983651095
  0
LINE
  5
BD9
330
1D
100
AcDbEntity
  8
CSLAYER1
  6
Continuous
100
AcDbLine
 10
242.580745
 20
241.921514
 30
0.0
 11
241.580745
 21
241.921514
 31
0.0
  0
ARC
  5
C71
330
1D
100
AcDbEntity
  8
CSLAYER1
  6
Continuous
100
AcDbCircle
 10
297.580745
 20
220.921514
 30
0.0
 40
3.0
100
AcDbArc
 50
0.0
 51
90.0
  0
ARC
  5
C72
330
1D
100
AcDbEntity
  8
CSLAYER10
  6
PHANTOM
100
AcDbCircle
 10
289.964063
 20
218.962835
 30
0.0
 40
5.0
100
AcDbArc
 50
11.198452999999
 51
89.688612999997
  0
ARC
  5
C73
330
1D
100
AcDbEntity
  8
CSLAYER1
  6
Continuous
100
AcDbCircle
 10
297.580745
 20
202.921514
 30
0.0
 40
3.0
100
AcDbArc
 50
270.0
 51
0.0
  0
LINE
  5
C74
330
1D
100
AcDbEntity
  8
CSLAYER1
  6
Continuous
100
AcDbLine
 10
294.826771
 20
203.171514
 30
0.0
 11
294.826771
 21
220.671514
 31
0.0
  0
ARC
  5
C76
330
1D
100
AcDbEntity
  8
CSLAYER10
  6
PHANTOM
100
AcDbCircle
 10
-22.852338
 20
158.139358
 30
0.0
 40
313.697052
100
AcDbArc
 50
5.998510000002
 51
9.008257000002
  0
LINE
  5
C77
330
1D
100
AcDbEntity
  8
CSLAYER1
  6
Continuous
100
AcDbLine
 10
300.580745
 20
202.921514
 30
0.0
 11
300.580745
 21
220.921514
 31
0.0
  0
LINE
  5
C83
330
1D
100
AcDbEntity
  8
CSLAYER1
  6
Continuous
100
AcDbLine
 10
251.580745
 20
224.171514
 30
0.0
 11
251.580745
 21
199.671514
 31
0.0
  0
ARC
  5
C85
330
1D
100
AcDbEntity
  8
CSLAYER10
  6
PHANTOM
100
AcDbCircle
 10
279.177227
 20
189.921514
 30
0.0
 40
10.0
100
AcDbArc
 50
5.739170000002
 51
90.0
  0
LINE
  5
C86
330
1D
100
AcDbEntity
  8
CSLAYER1
  6
Continuous
100
AcDbLine
 10
251.580745
 20
199.671514
 30
0.0
 11
297.580745
 21
199.921514
 31
0.0
  0
LINE
  5
C87
330
1D
100
AcDbEntity
  8
CSLAYER1
  6
Continuous
100
AcDbLine
 10
297.580745
 20
223.921514
 30
0.0
 11
251.580745
 21
224.171514
 31
0.0
  0
ARC
  5
C8C
330
1D
100
AcDbEntity
  8
CSLAYER10
  6
PHANTOM
100
AcDbCircle
 10
0.580745
 20
161.671514
 30
0.0
 40
300.0
100
AcDbArc
 50
351.126630999998
 51
11.198452999999
  0
ARC
  5
C8D
330
1D
100
AcDbEntity
  8
CSLAYER10
  6
PHANTOM
100
AcDbCircle
 10
-0.35461
 20
161.751145
 30
0.0
 40
290.936451
100
AcDbArc
 50
351.139550000001
 51
5.849751999998
  0
ARC
  5
C8F
330
1D
100
AcDbEntity
  8
CSLAYER10
  6
PHANTOM
100
AcDbCircle
 10
281.175755
 20
117.825871
 30
0.0
 40
6.0
100
AcDbArc
 50
285.000000000002
 51
351.118807999997
  0
ARC
  5
C90
330
1D
100
AcDbEntity
  8
CSLAYER10
  6
PHANTOM
100
AcDbCircle
 10
272.712762
 20
104.170181
 30
0.0
 40
5.0
100
AcDbArc
 50
105.000000000003
 51
285.000000000003
  0
LINE
  5
C91
330
1D
100
AcDbEntity
  8
CSLAYER10
  6
PHANTOM
100
AcDbLine
 10
285.31686
 20
102.371057
 30
0.0
 11
274.006857
 21
99.340551
 31
0.0
  0
LINE
  5
C92
330
1D
100
AcDbEntity
  8
CSLAYER10
  6
PHANTOM
100
AcDbLine
 10
271.418667
 20
108.99981
 30
0.0
 11
282.728669
 21
112.030316
 31
0.0
  0
ARC
  5
C93
330
1D
100
AcDbEntity
  8
CSLAYER10
  6
PHANTOM
100
AcDbCircle
 10
281.175755
 20
117.825871
 30
0.0
 40
16.0
100
AcDbArc
 50
285.000000000002
 51
351.118807999998
  0
LINE
  5
CD8
330
1D
100
AcDbEntity
  8
CSLAYER1
  6
Continuous
100
AcDbLine
 10
195.580745
 20
224.171514
 30
0.0
 11
195.580745
 21
199.671514
 31
0.0
  0
LINE
  5
CD9
330
1D
100
AcDbEntity
  8
CSLAYER1
  6
Continuous
100
AcDbLine
 10
204.580745
 20
241.921514
 30
0.0
 11
205.580745
 21
241.921514
 31
0.0
  0
ARC
  5
CDA
330
1D
100
AcDbEntity
  8
CSLAYER1
  6
Continuous
100
AcDbCircle
 10
197.580745
 20
240.038731781463
 30
0.0
 40
1.0
100
AcDbArc
 50
97.125016348905
 51
180.0
  0
LINE
  5
CDB
330
1D
100
AcDbEntity
  8
CSLAYER1
  6
Continuous
100
AcDbLine
 10
195.580745
 20
222.421514
 30
0.0
 11
196.580745
 21
222.421514
 31
0.0
  0
LINE
  5
CDC
330
1D
100
AcDbEntity
  8
CSLAYER1
  6
Continuous
100
AcDbLine
 10
204.580745
 20
241.921514
 30
0.0
 11
197.456710265411
 21
241.031009658176
 31
0.0
  0
LINE
  5
CDD
330
1D
100
AcDbEntity
  8
CSLAYER1
  6
Continuous
100
AcDbLine
 10
195.580745
 20
201.421514
 30
0.0
 11
196.580745
 21
201.421514
 31
0.0
  0
LINE
  5
CDF
330
1D
100
AcDbEntity
  8
CSLAYER1
  6
Continuous
100
AcDbLine
 10
204.580745
 20
181.921514
 30
0.0
 11
205.580745
 21
181.921514
 31
0.0
  0
ARC
  5
CE0
330
1D
100
AcDbEntity
  8
CSLAYER1
  6
Continuous
100
AcDbCircle
 10
197.580745
 20
183.804296218537
 30
0.0
 40
1.0
100
AcDbArc
 50
180.0
 51
262.874983651095
  0
LINE
  5
CE1
330
1D
100
AcDbEntity
  8
CSLAYER1
  6
Continuous
100
AcDbLine
 10
204.580745
 20
181.921514
 30
0.0
 11
197.456710265411
 21
182.812018341824
 31
0.0
  0
LINE
  5
CE2
330
1D
100
AcDbEntity
  8
CSLAYER1
  6
Continuous
100
AcDbLine
 10
204.580745
 20
241.921514
 30
0.0
 11
204.580745
 21
181.921514
 31
0.0
  0
LINE
  5
CE3
330
1D
100
AcDbEntity
  8
CSLAYER1
  6
Continuous
100
AcDbLine
 10
196.580745
 20
240.038731781463
 30
0.0
 11
196.580745
 21
183.804296218537
 31
0.0
  0
LINE
  5
CE4
330
1D
100
AcDbEntity
  8
CSLAYER1
  6
Continuous
100
AcDbLine
 10
205.580745
 20
241.921514
 30
0.0
 11
205.580745
 21
181.921514
 31
0.0
  0
ARC
  5
CE5
330
1D
100
AcDbEntity
  8
CSLAYER10
  6
PHANTOM
100
AcDbCircle
 10
165.985735
 20
117.825871
 30
0.0
 40
16.0
100
AcDbArc
 50
188.881192000003
 51
254.999999999998
  0
LINE
  5
CE6
330
1D
100
AcDbEntity
  8
CSLAYER10
  6
PHANTOM
100
AcDbLine
 10
175.742823
 20
108.99981
 30
0.0
 11
164.432821
 21
112.030316
 31
0.0
  0
LINE
  5
CE7
330
1D
100
AcDbEntity
  8
CSLAYER10
  6
PHANTOM
100
AcDbLine
 10
161.84463
 20
102.371057
 30
0.0
 11
173.154633
 21
99.340551
 31
0.0
  0
ARC
  5
CE8
330
1D
100
AcDbEntity
  8
CSLAYER10
  6
PHANTOM
100
AcDbCircle
 10
174.448728
 20
104.170181
 30
0.0
 40
5.0
100
AcDbArc
 50
254.999999999997
 51
74.999999999997
  0
ARC
  5
CE9
330
1D
100
AcDbEntity
  8
CSLAYER10
  6
PHANTOM
100
AcDbCircle
 10
165.985735
 20
117.825871
 30
0.0
 40
6.0
100
AcDbArc
 50
188.881192000003
 51
254.999999999998
  0
ARC
  5
CEA
330
1D
100
AcDbEntity
  8
CSLAYER10
  6
PHANTOM
100
AcDbCircle
 10
447.5161
 20
161.751145
 30
0.0
 40
290.936451
100
AcDbArc
 50
174.150248000002
 51
188.860449999999
  0
LINE
  5
CEC
330
1D
100
AcDbEntity
  8
CSLAYER1
  6
Continuous
100
AcDbLine
 10
195.580745
 20
199.671514
 30
0.0
 11
149.580745
 21
199.921514
 31
0.0
  0
ARC
  5
CED
330
1D
100
AcDbEntity
  8
CSLAYER10
  6
PHANTOM
100
AcDbCircle
 10
167.984263
 20
189.921514
 30
0.0
 40
10.0
100
AcDbArc
 50
90.0
 51
174.260829999998
  0
LINE
  5
CEE
330
1D
100
AcDbEntity
  8
CSLAYER1
  6
Continuous
100
AcDbLine
 10
146.580745
 20
202.921514
 30
0.0
 11
146.580745
 21
220.921514
 31
0.0
  0
ARC
  5
CEF
330
1D
100
AcDbEntity
  8
CSLAYER10
  6
PHANTOM
100
AcDbCircle
 10
470.013828
 20
158.139358
 30
0.0
 40
313.697052
100
AcDbArc
 50
170.991742999998
 51
174.001489999998
  0
ARC
  5
CF0
330
1D
100
AcDbEntity
  8
CSLAYER10
  6
PHANTOM
100
AcDbCircle
 10
446.580745
 20
161.671514
 30
0.0
 40
300.0
100
AcDbArc
 50
168.801547000001
 51
188.873369000002
  0
LINE
  5
CF1
330
1D
100
AcDbEntity
  8
CSLAYER1
  6
Continuous
100
AcDbLine
 10
152.334719
 20
203.171514
 30
0.0
 11
152.334719
 21
220.671514
 31
0.0
  0
ARC
  5
CF2
330
1D
100
AcDbEntity
  8
CSLAYER1
  6
Continuous
100
AcDbCircle
 10
149.580745
 20
202.921514
 30
0.0
 40
3.0
100
AcDbArc
 50
180.0
 51
270.0
  0
LINE
  5
CF3
330
1D
100
AcDbEntity
  8
CSLAYER1
  6
Continuous
100
AcDbLine
 10
149.580745
 20
223.921514
 30
0.0
 11
195.580745
 21
224.171514
 31
0.0
  0
ARC
  5
CF4
330
1D
100
AcDbEntity
  8
CSLAYER10
  6
PHANTOM
100
AcDbCircle
 10
157.197427
 20
218.962835
 30
0.0
 40
5.0
100
AcDbArc
 50
90.311387000003
 51
168.801547000001
  0
ARC
  5
CF5
330
1D
100
AcDbEntity
  8
CSLAYER1
  6
Continuous
100
AcDbCircle
 10
149.580745
 20
220.921514
 30
0.0
 40
3.0
100
AcDbArc
 50
90.0
 51
180.0
  0
LINE
  5
D3B
330
1D
100
AcDbEntity
  8
CSLAYER10
  6
Continuous
100
AcDbLine
 10
241.580745
 20
123.643679
 30
0.0
 11
241.580745
 21
180.921514
 31
0.0
  0
LINE
  5
D3F
330
1D
100
AcDbEntity
  8
CSLAYER10
  6
Continuous
100
AcDbLine
 10
241.580745
 20
124.643679
 30
0.0
 11
243.563635
 21
124.904732
 31
0.0
  0
LINE
  5
D40
330
1D
100
AcDbEntity
  8
CSLAYER10
  6
Continuous
100
AcDbLine
 10
241.580745
 20
124.643679
 30
0.0
 11
243.563635
 21
124.382627
 31
0.0
  0
LINE
  5
D44
330
1D
100
AcDbEntity
  8
CSLAYER10
  6
Continuous
100
AcDbLine
 10
250.531269063871
 20
124.643679
 30
0.0
 11
248.548380063871
 21
124.904732
 31
0.0
  0
LINE
  5
D45
330
1D
100
AcDbEntity
  8
CSLAYER10
  6
Continuous
100
AcDbLine
 10
250.531269063871
 20
124.643679
 30
0.0
 11
248.548380063871
 21
124.382627
 31
0.0
  0
LINE
  5
D70
330
1D
100
AcDbEntity
  8
CSLAYER10
  6
Continuous
100
AcDbLine
 10
250.580745
 20
123.643679
 30
0.0
 11
250.580745
 21
180.921514
 31
0.0
  0
TEXT
  5
D9C
330
1D
100
AcDbEntity
  8
CSLAYER10
100
AcDbText
 10
244.454048973474
 20
126.168440883061
 30
0.0
 40
4.0
  1
9
 41
0.749583564686
  7
FX_FONT
 72
     5
 11
246.954048973474
 21
126.168440883061
 31
0.0
100
AcDbText
  0
TEXT
  5
D9D
330
1D
100
AcDbEntity
  8
CSLAYER10
100
AcDbText
 10
199.585403194137
 20
126.065780665921
 30
0.0
 40
4.0
  1
9
 41
0.749583564686
  7
FX_FONT
 72
     5
 11
202.085403194137
 21
126.065780665921
 31
0.0
100
AcDbText
  0
LINE
  5
D9E
330
1D
100
AcDbEntity
  8
CSLAYER10
  6
Continuous
100
AcDbLine
 10
196.580745
 20
123.643679
 30
0.0
 11
196.580745
 21
180.921514
 31
0.0
  0
LINE
  5
D9F
330
1D
100
AcDbEntity
  8
CSLAYER10
  6
Continuous
100
AcDbLine
 10
196.630220936129
 20
124.643679
 30
0.0
 11
198.613109936129
 21
124.382627
 31
0.0
  0
LINE
  5
DA0
330
1D
100
AcDbEntity
  8
CSLAYER10
  6
Continuous
100
AcDbLine
 10
196.630220936129
 20
124.643679
 30
0.0
 11
198.613109936129
 21
124.904732
 31
0.0
  0
LINE
  5
DA1
330
1D
100
AcDbEntity
  8
CSLAYER10
  6
Continuous
100
AcDbLine
 10
196.580745
 20
124.643679
 30
0.0
 11
250.580745
 21
124.643679
 31
0.0
  0
LINE
  5
DA5
330
1D
100
AcDbEntity
  8
CSLAYER10
  6
Continuous
100
AcDbLine
 10
205.580745
 20
124.643679
 30
0.0
 11
203.597855
 21
124.382627
 31
0.0
  0
LINE
  5
DA6
330
1D
100
AcDbEntity
  8
CSLAYER10
  6
Continuous
100
AcDbLine
 10
205.580745
 20
124.643679
 30
0.0
 11
203.597855
 21
124.904732
 31
0.0
  0
LINE
  5
DA7
330
1D
100
AcDbEntity
  8
CSLAYER10
  6
Continuous
100
AcDbLine
 10
205.580745
 20
123.643679
 30
0.0
 11
205.580745
 21
180.921514
 31
0.0
  0
TEXT
  5
DD4
330
1D
100
AcDbEntity
  8
CSLAYER10
100
AcDbText
 10
470.00890850213
 20
366.066957588023
 30
0.0
 40
4.0
  1
L=100
 41
0.851107708156
  7
FX_FONT
 72
     5
 11
486.260337351753
 21
366.066957588023
 31
0.0
100
AcDbText
  0
LINE
  5
E1B
330
1D
100
AcDbEntity
  8
CSLAYER10
  6
Continuous
100
AcDbLine
 10
62.767717894973
 20
150.721514
 30
0.0
 11
47.602410894973
 21
150.721514
 31
0.0
  0
TEXT
  5
E1C
330
1D
100
AcDbEntity
  8
CSLAYER10
100
AcDbText
 10
48.500426007507
 20
154.230219403659
 30
0.0
 40
4.0
  1
2
 50
90.0
 41
0.75
  7
FX_FONT
 72
     5
 11
48.500426007507
 21
156.730219403659
 31
0.0
100
AcDbText
  0
LINE
  5
E1D
330
1D
100
AcDbEntity
  8
CSLAYER10
  6
Continuous
100
AcDbLine
 10
62.767717894973
 20
152.721514
 30
0.0
 11
47.767717894973
 21
152.721514
 31
0.0
  0
LINE
  5
E1E
330
1D
100
AcDbEntity
  8
CSLAYER10
  6
Continuous
100
AcDbLine
 10
49.691858258663
 20
145.009963501625
 30
0.0
 11
49.691858258663
 21
158.433064498375
 31
0.0
  0
LINE
  5
E1F
330
1D
100
AcDbEntity
  8
CSLAYER10
  6
Continuous
100
AcDbLine
 10
49.691858258663
 20
152.721514
 30
0.0
 11
49.430806258663
 21
154.704404
 31
0.0
  0
LINE
  5
E20
330
1D
100
AcDbEntity
  8
CSLAYER10
  6
Continuous
100
AcDbLine
 10
49.691858258663
 20
152.721514
 30
0.0
 11
49.952911258663
 21
154.704404
 31
0.0
  0
LINE
  5
E21
330
1D
100
AcDbEntity
  8
CSLAYER10
  6
Continuous
100
AcDbLine
 10
49.691858258663
 20
150.721514
 30
0.0
 11
49.430806258663
 21
148.738625
 31
0.0
  0
LINE
  5
E22
330
1D
100
AcDbEntity
  8
CSLAYER10
  6
Continuous
100
AcDbLine
 10
49.691858258663
 20
150.721514
 30
0.0
 11
49.952911258663
 21
148.738625
 31
0.0
  0
LINE
  5
EF2
330
1D
100
AcDbEntity
  8
CSLAYER1
  6
Continuous
100
AcDbLine
 10
215.380745
 20
251.298137657699
 30
0.0
 11
231.780745
 21
251.298137657699
 31
0.0
  0
LINE
  5
EF3
330
1D
100
AcDbEntity
  8
CSLAYER1
  6
Continuous
100
AcDbLine
 10
232.080745
 20
251.598137657699
 30
0.0
 11
232.080745
 21
256.098137657699
 31
0.0
  0
LINE
  5
EF4
330
1D
100
AcDbEntity
  8
CSLAYER1
  6
Continuous
100
AcDbLine
 10
231.780745
 20
256.398137657699
 30
0.0
 11
215.380745
 21
256.398137657699
 31
0.0
  0
LINE
  5
EF5
330
1D
100
AcDbEntity
  8
CSLAYER1
  6
Continuous
100
AcDbLine
 10
215.080745
 20
256.098137657699
 30
0.0
 11
215.080745
 21
251.598137657699
 31
0.0
  0
ARC
  5
EF6
330
1D
100
AcDbEntity
  8
CSLAYER1
  6
Continuous
100
AcDbCircle
 10
215.380745
 20
256.098137657699
 30
0.0
 40
0.3
100
AcDbArc
 50
90.0
 51
180.0
  0
ARC
  5
EF7
330
1D
100
AcDbEntity
  8
CSLAYER1
  6
Continuous
100
AcDbCircle
 10
215.380745
 20
251.598137657699
 30
0.0
 40
0.3
100
AcDbArc
 50
180.0
 51
270.0
  0
ARC
  5
EF8
330
1D
100
AcDbEntity
  8
CSLAYER1
  6
Continuous
100
AcDbCircle
 10
231.780745
 20
251.598137657699
 30
0.0
 40
0.3
100
AcDbArc
 50
270.0
 51
0.0
  0
ARC
  5
EF9
330
1D
100
AcDbEntity
  8
CSLAYER1
  6
Continuous
100
AcDbCircle
 10
231.780745
 20
256.098137657699
 30
0.0
 40
0.3
100
AcDbArc
 50
0.0
 51
90.0
  0
TEXT
  5
F25
330
1D
100
AcDbEntity
  8
CSLAYER1
100
AcDbText
 10
216.165663
 20
312.125008
 30
0.0
 40
2.797103
  1
SHOWA
 41
1.110856729143
  7
FX_FONT
 72
     5
 11
231.183703
 21
312.125008
 31
0.0
100
AcDbText
  0
TEXT
  5
F26
330
1D
100
AcDbEntity
  8
CSLAYER1
100
AcDbText
 10
219.83075
 20
306.550171
 30
0.0
 40
4.0
  1
ECH
 41
0.661764705882
  7
FX_FONT
 72
     5
 11
227.33075
 21
306.550171
 31
0.0
100
AcDbText
  0
TEXT
  5
F5A
330
1D
100
AcDbEntity
  8
CSLAYER10
100
AcDbText
 10
221.025202788065
 20
268.167906191086
 30
0.0
 40
4.0
  1
17
 41
0.681818181818
  7
FX_FONT
 72
     5
 11
226.025202788065
 21
268.167906191086
 31
0.0
100
AcDbText
  0
LINE
  5
F5B
330
1D
100
AcDbEntity
  8
CSLAYER10
  6
Continuous
100
AcDbLine
 10
215.080745
 20
269.904676107088
 30
0.0
 11
215.080745
 21
258.201759497517
 31
0.0
  0
LINE
  5
F5D
330
1D
100
AcDbEntity
  8
CSLAYER10
  6
Continuous
100
AcDbLine
 10
215.080745
 20
265.931841497517
 30
0.0
 11
232.080745
 21
265.931841497517
 31
0.0
  0
LINE
  5
F5E
330
1D
100
AcDbEntity
  8
CSLAYER10
  6
Continuous
100
AcDbLine
 10
215.080745
 20
265.931841497517
 30
0.0
 11
217.063634
 21
266.192893497517
 31
0.0
  0
LINE
  5
F5F
330
1D
100
AcDbEntity
  8
CSLAYER10
  6
Continuous
100
AcDbLine
 10
215.080745
 20
265.931841497517
 30
0.0
 11
217.063634
 21
265.670789497517
 31
0.0
  0
LINE
  5
F60
330
1D
100
AcDbEntity
  8
CSLAYER10
  6
Continuous
100
AcDbLine
 10
232.080745
 20
265.931841497517
 30
0.0
 11
230.097855
 21
266.192893497517
 31
0.0
  0
LINE
  5
F61
330
1D
100
AcDbEntity
  8
CSLAYER10
  6
Continuous
100
AcDbLine
 10
232.080745
 20
265.931841497517
 30
0.0
 11
230.097855
 21
265.670789497517
 31
0.0
  0
LINE
  5
F62
330
1D
100
AcDbEntity
  8
CSLAYER10
  6
Continuous
100
AcDbLine
 10
232.080745
 20
269.904676107088
 30
0.0
 11
232.080745
 21
258.201759497517
 31
0.0
  0
TEXT
  5
FE9
330
1D
100
AcDbEntity
  8
CSLAYER10
  6
Continuous
100
AcDbText
 10
151.565823494172
 20
55.591415229376
 30
0.0
 40
4.0
  1
高さ（H)
 41
0.6
  7
FX_FONT
100
AcDbText
  0
TEXT
  5
FEA
330
1D
100
AcDbEntity
  8
CSLAYER10
  6
Continuous
100
AcDbText
 10
171.248323663461
 20
55.722187595153
 30
0.0
 40
4.0
  1
直径（D)
 41
0.6
  7
FX_FONT
100
AcDbText
  0
LINE
  5
FEB
330
1D
100
AcDbEntity
  8
CSLAYER10
  6
Continuous
100
AcDbLine
 10
107.183709
 20
70.319404
 30
0.0
 11
187.183709
 21
70.319404
 31
0.0
  0
TEXT
  5
FEC
330
1D
100
AcDbEntity
  8
CSLAYER10
  6
Continuous
100
AcDbText
 10
160.008212861656
 20
64.286818699552
 30
0.0
 40
4.0
  1
A=38
 41
0.8
100
AcDbText
  0
TEXT
  5
FED
330
1D
100
AcDbEntity
  8
CSLAYER10
  6
Continuous
100
AcDbText
 10
119.600128871594
 20
64.63856783765
 30
0.0
 40
4.0
  1
A=43.5
 41
0.8
100
AcDbText
  0
LINE
  5
10AC
330
1D
100
AcDbEntity
  8
CSLAYER10
100
AcDbLine
 10
483.012828079285
 20
342.777164
 30
0.0
 11
467.915650457618
 21
364.284979274412
 31
0.0
1001
ACAD
1000
DSTYLE
1002
{
1070
   341
1005
0
1070
     5
1000

1070
   279
1070
     2
1002
}
  0
LINE
  5
10AD
330
1D
100
AcDbEntity
  8
CSLAYER10
100
AcDbLine
 10
467.915650457618
 20
364.284979274412
 30
0.0
 11
488.191507410184
 21
364.284979274412
 31
0.0
1001
ACAD
1000
DSTYLE
1002
{
1070
   341
1005
0
1070
     5
1000

1070
   279
1070
     2
1002
}
  0
TEXT
  5
12EF
330
1D
100
AcDbEntity
  8
CSLAYER10
  6
Continuous
100
AcDbText
 10
-5.329431632075
 20
399.648936586652
 30
0.0
 40
8.0
  1
ECLH-102,103,105,103F,107H-05-LH15A-C
100
AcDbText
  0
HATCH
  5
12FA
102
{ACAD_XDICTIONARY
360
12FB
102
}
330
1D
100
AcDbEntity
  8
CSLAYER10
100
AcDbHatch
 10
0.0
 20
0.0
 30
0.0
210
0.0
220
0.0
230
1.0
  2
_USER
 70
     0
 71
     1
 91
        6
 92
        7
 72
     1
 73
     1
 93
        4
 10
447.4736
 20
296.921514
 42
0.0
 10
430.4735995406924
 20
296.921514
 42
0.0
 10
430.4736
 20
296.921514
 42
0.0
 10
430.4736
 20
279.921514
 42
0.414213562373095
 97
        3
330
839
330
7A3
330
5DE
 92
        7
 72
     1
 73
     1
 93
        4
 10
447.4736
 20
296.921514
 42
0.2099536755375761
 10
441.9741676392445
 20
309.4409766072832
 42
0.0
 10
441.974168
 20
309.440977
 42
0.0
 10
430.4735995406924
 20
296.921514
 42
0.0
 97
        3
330
5DE
330
828
330
839
 92
        7
 72
     1
 73
     1
 93
        5
 10
430.4735995406924
 20
296.921514
 42
0.0
 10
441.974168
 20
309.440977
 42
0.0
 10
441.9741676392445
 20
309.4409766072832
 42
0.1879175160496726
 10
430.4736
 20
313.921514
 42
0.0
 10
430.4736
 20
296.921514
 42
0.0
 97
        3
330
828
330
5DE
330
7A3
 92
        7
 72
     1
 73
     1
 93
        4
 10
413.4736
 20
296.921514
 42
0.0
 10
430.4735995406924
 20
296.921514
 42
0.0
 10
430.4736
 20
296.921514
 42
0.0
 10
430.4736
 20
313.921514
 42
0.414213562373095
 97
        3
330
839
330
7A3
330
5DE
 92
        7
 72
     1
 73
     1
 93
        5
 10
430.4735995406924
 20
296.921514
 42
0.0
 10
418.973032
 20
284.402052
 42
0.0
 10
418.9730318625516
 20
284.4020518503744
 42
0.1879175263495747
 10
430.4736
 20
279.921514
 42
0.0
 10
430.4736
 20
296.921514
 42
0.0
 97
        3
330
828
330
5DE
330
7A3
 92
        7
 72
     1
 73
     1
 93
        4
 10
430.4735995406924
 20
296.921514
 42
0.0
 10
413.4736
 20
296.921514
 42
0.2099536651504492
 10
418.9730318625516
 20
284.4020518503744
 42
0.0
 10
418.973032
 20
284.402052
 42
0.0
 97
        3
330
839
330
5DE
330
828
 75
     0
 76
     0
 52
45.0
 41
2.0
 77
     0
 78
     1
 53
45.0
 43
0.0
 44
0.0
 45
-1.414213562373095
 46
1.414213562373095
 79
     0
 47
0.0
 98
        6
 10
438.8369440940077
 20
288.9977318029824
 10
439.0707897292256
 20
299.5207853877823
 10
434.3938770248701
 20
306.7700000795333
 10
426.2092797922479
 20
304.4315437273556
 10
427.6123536035546
 20
287.8285036268935
 10
420.3631389118036
 20
291.8038794255957
1001
ACAD
1010
0.0
1020
0.0
1030
0.0
1001
AcadAnnotative
1000
AnnotativeData
1002
{
1070
     1
1070
     0
1002
}
  0
HATCH
  5
12FE
102
{ACAD_XDICTIONARY
360
12FF
102
}
330
1D
100
AcDbEntity
  8
CSLAYER10
100
AcDbHatch
 10
0.0
 20
0.0
 30
0.0
210
0.0
220
0.0
230
1.0
  2
_USER
 70
     0
 71
     1
 91
       10
 92
        7
 72
     1
 73
     1
 93
        4
 10
430.4736
 20
211.921514
 42
0.0
 10
444.315057
 20
229.021633
 42
0.0
 10
444.3150569757344
 20
229.0216329700216
 42
0.1717773635377038
 10
430.4736
 20
233.921514
 42
0.0
 97
        3
330
81A
330
5B3
330
7A3
 92
        7
 72
     1
 73
     1
 93
        7
 10
451.9054181547923
 20
216.8891261607784
 42
0.1671725104275514
 10
444.3150569757344
 20
229.0216329700216
 42
0.0
 10
444.315057
 20
229.021633
 42
0.0
 10
430.4736
 20
211.921514
 42
0.0
 10
452.4736
 20
211.921514
 42
0.0
 10
452.4736
 20
216.921514
 42
0.0284782868011561
 10
451.9054181683052
 20
216.889126042635
 42
0.0
 97
        5
330
5B3
330
81A
330
832
330
813
330
5B2
 92
        7
 72
     1
 73
     1
 93
        6
 10
451.9054181683052
 20
206.953901957365
 42
0.0284782868011565
 10
452.4736
 20
206.921514
 42
0.0
 10
452.4736
 20
211.921514
 42
0.0
 10
430.4736
 20
211.921514
 42
0.0
 10
430.4736
 20
189.921514
 42
0.3489710857824132
 10
451.9054181547923
 20
206.9539018392216
 42
0.0
 97
        5
330
5B2
330
813
330
832
330
7A3
330
5B5
 92
        7
 72
     1
 73
     1
 93
        4
 10
416.6321430242656
 20
194.8213950299784
 42
0.1717773635377034
 10
430.4736
 20
189.921514
 42
0.0
 10
430.4736
 20
211.921514
 42
0.0
 10
416.632143
 20
194.821395
 42
0.0
 97
        3
330
5B5
330
7A3
330
81A
 92
        7
 72
     1
 73
     1
 93
        7
 10
409.0417818452077
 20
206.9539018392216
 42
0.1671725104275518
 10
416.6321430242656
 20
194.8213950299784
 42
0.0
 10
416.632143
 20
194.821395
 42
0.0
 10
430.4736
 20
211.921514
 42
0.0
 10
408.4736
 20
211.921514
 42
0.0
 10
408.4736
 20
206.921514
 42
0.0284782868011561
 10
409.0417818316947
 20
206.953901957365
 42
0.0
 97
        5
330
5B5
330
81A
330
832
330
812
330
5B4
 92
        7
 72
     1
 73
     1
 93
        6
 10
409.0417818316947
 20
216.889126042635
 42
0.0284782868011562
 10
408.4736
 20
216.921514
 42
0.0
 10
408.4736
 20
211.921514
 42
0.0
 10
430.4736
 20
211.921514
 42
0.0
 10
430.4736
 20
233.921514
 42
0.3489710857824132
 10
409.0417818452077
 20
216.8891261607784
 42
0.0
 97
        5
330
5B4
330
812
330
832
330
7A3
330
5B3
 92
        7
 72
     1
 73
     1
 93
        3
 10
408.4736
 20
211.921514
 42
0.0
 10
408.4736
 20
216.921514
 42
0.414213562373095
 10
403.4736
 20
211.921514
 42
0.0
 97
        3
330
812
330
5B4
330
832
 92
        7
 72
     1
 73
     1
 93
        4
 10
408.4736
 20
211.921514
 42
0.0
 10
403.4736
 20
211.921514
 42
0.3241800840736341
 10
406.9157929529272
 20
207.1703839024242
 42
0.079375017781035
 10
408.4736
 20
206.921514
 42
0.0
 97
        3
330
832
330
5B4
330
812
 92
        7
 72
     1
 73
     1
 93
        3
 10
452.4736
 20
216.921514
 42
0.0
 10
452.4736
 20
211.921514
 42
0.0
 10
457.4736
 20
211.921514
 42
0.414213562373095
 97
        3
330
813
330
832
330
5B2
 92
        7
 72
     1
 73
     1
 93
        3
 10
452.4736
 20
211.921514
 42
0.0
 10
452.4736
 20
206.921514
 42
0.414213562373095
 10
457.4736
 20
211.921514
 42
0.0
 97
        3
330
813
330
5B2
330
832
 75
     0
 76
     0
 52
45.0
 41
2.0
 77
     0
 78
     1
 53
45.0
 43
0.0
 44
0.0
 45
-1.414213562373095
 46
1.414213562373095
 79
     0
 47
0.0
 98
       10
 10
432.3184970123123
 20
226.6778700174452
 10
442.4030900310789
 20
218.2009657408008
 10
440.9415548109678
 20
205.1933022818121
 10
425.0108209117568
 20
200.6625430994676
 10
415.3646884590236
 20
208.5548332880676
 10
417.8492983332125
 20
221.1240361810229
 10
405.7185560062903
 20
213.8163600804675
 10
406.4493236163459
 20
211.0394431622564
 10
455.5569070120788
 20
213.3778995144342
 10
454.8261394020232
 20
209.8702149861675
1001
ACAD
1010
0.0
1020
0.0
1030
0.0
1001
AcadAnnotative
1000
AnnotativeData
1002
{
1070
     1
1070
     0
1002
}
  0
TEXT
  5
1302
330
1D
100
AcDbEntity
  8
CSLAYER10
  6
Continuous
100
AcDbText
 10
291.871495626119
 20
296.176949277227
 30
0.0
 40
4.0
  1
D
 50
90.0
 41
0.75
  7
FX_FONT
 72
     5
 11
291.871495626119
 21
298.676949277227
 31
0.0
100
AcDbText
  0
LINE
  5
1303
102
{ACAD_REACTORS
330
14A9
102
}
330
1D
100
AcDbEntity
  8
CSLAYER10
100
AcDbLine
 10
362.4736
 20
355.402532188135
 30
0.0
 11
362.492581811865
 21
355.421514
 31
0.0
1001
ACAD
1010
0.0
1020
0.0
1030
0.0
1001
AcadAnnotative
1000
AnnotativeData
1002
{
1070
     1
1070
     0
1002
}
  0
TEXT
  5
130F
330
1D
100
AcDbEntity
  8
CSLAYER10
  6
Continuous
100
AcDbText
 10
88.117721507598
 20
57.383625182433
 30
0.0
 40
3.2
  1
(以上～未満)
 41
0.72
  7
FX_FONT
100
AcDbText
  0
HATCH
  5
14A9
102
{ACAD_XDICTIONARY
360
14AA
102
}
330
1D
100
AcDbEntity
  8
CSLAYER10
100
AcDbHatch
 10
0.0
 20
0.0
 30
0.0
210
0.0
220
0.0
230
1.0
  2
_USER
 70
     0
 71
     1
 91
        2
 92
        7
 72
     1
 73
     1
 93
       25
 10
362.826314
 20
336.958474
 42
0.0
 10
362.944176
 20
336.88938
 42
0.0
 10
363.062084
 20
336.81511
 42
0.0
 10
363.180101
 20
336.736898
 42
0.0
 10
363.298294
 20
336.655975
 42
0.0
 10
363.416728
 20
336.573574
 42
0.0
 10
363.535466
 20
336.490927
 42
0.0
 10
363.654573
 20
336.409265
 42
0.0
 10
363.774115
 20
336.329822
 42
0.0
 10
363.894157
 20
336.253829
 42
0.0
 10
364.014763
 20
336.182519
 42
0.0
 10
364.135998
 20
336.117123
 42
0.0
 10
364.257926
 20
336.058875
 42
0.0
 10
364.380614
 20
336.009005
 42
0.0
 10
364.4735998592517
 20
335.9786965681862
 42
0.0
 10
364.4736
 20
335.978697
 42
0.0
 10
364.4736
 20
337.593087
 42
0.0
 10
365.887814
 20
339.007301
 42
0.0
 10
364.4736
 20
340.421514
 42
0.0
 10
363.059387
 20
339.007301
 42
0.0
 10
363.0593864376269
 20
339.0073005623731
 42
0.198912367379658
 10
362.4736
 20
337.593087
 42
0.0
 10
362.4736
 20
337.12189688335
 42
0.0
 10
362.590468
 20
337.076208
 42
0.0
 10
362.708433
 20
337.021161
 42
0.0
 97
       23
330
71E
330
71F
330
720
330
721
330
722
330
723
330
724
330
725
330
726
330
727
330
728
330
729
330
72A
330
72B
330
48F
330
48E
330
488
330
48C
330
48D
330
480
330
71B
330
71C
330
71D
 92
        7
 72
     1
 73
     1
 93
        8
 10
364.4736
 20
348.249941
 42
0.0
 10
364.4736
 20
355.421514
 42
0.0
 10
362.4925818118654
 20
355.421514
 42
0.0
 10
362.4736
 20
355.4025321881346
 42
0.0
 10
362.4736
 20
348.249941
 42
0.198835180763366
 10
363.058966478736
 20
346.836147521264
 42
0.0
 10
364.4736
 20
345.421514
 42
0.0
 10
365.887814
 20
346.835728
 42
0.0
 97
        8
330
484
330
483
330
1303
330
480
330
48B
330
48A
330
486
330
485
 75
     0
 76
     0
 52
45.0
 41
1.0
 77
     0
 78
     1
 53
45.0
 43
0.0
 44
0.0
 45
-0.7071067811865475
 46
0.7071067811865476
 79
     0
 47
0.0
 98
        2
 10
363.909526640571
 20
338.2543355165835
 10
363.7786959127454
 20
349.7905262099642
1001
ACAD
1010
0.0
1020
0.0
1030
0.0
1001
AcadAnnotative
1000
AnnotativeData
1002
{
1070
     1
1070
     0
1002
}
  0
HATCH
  5
1516
102
{ACAD_XDICTIONARY
360
1517
102
}
330
1D
100
AcDbEntity
  8
CSLAYER10
  6
Continuous
100
AcDbHatch
 10
0.0
 20
0.0
 30
0.0
210
0.0
220
0.0
230
1.0
  2
_USER
 70
     0
 71
     1
 91
        3
 92
        7
 72
     0
 73
     1
 93
        4
 10
360.4736
 20
346.4014783703694
 10
362.4736
 20
342.921514
 10
362.4736
 20
355.221514
 10
360.4736
 20
355.221514
 97
        4
330
84A
330
480
330
47F
330
47E
 92
        7
 72
     0
 73
     1
 93
       28
 10
360.4736
 20
336.421514
 10
360.552428
 20
336.478513
 10
360.631248
 20
336.535236
 10
360.710052
 20
336.59141
 10
360.788831
 20
336.64676
 10
360.867577
 20
336.70101
 10
360.946283
 20
336.753887
 10
361.02494
 20
336.805116
 10
361.103541
 20
336.854421
 10
361.182076
 20
336.901528
 10
361.260538
 20
336.946162
 10
361.338919
 20
336.988049
 10
361.417211
 20
337.026914
 10
361.495405
 20
337.062481
 10
361.573493
 20
337.094477
 10
361.651468
 20
337.122627
 10
361.72932
 20
337.146655
 10
361.807043
 20
337.166287
 10
361.884627
 20
337.181248
 10
361.962066
 20
337.191264
 10
362.039349
 20
337.196059
 10
362.11647
 20
337.19536
 10
362.23542
 20
337.183192
 10
362.354027
 20
337.158456
 10
362.472354
 20
337.122384
 10
362.4736
 20
337.12189688335
 10
362.4736
 20
342.921514
 10
360.4736
 20
342.921514
 97
       28
330
703
330
704
330
705
330
706
330
707
330
708
330
709
330
70A
330
70B
330
70C
330
70D
330
70E
330
70F
330
710
330
711
330
712
330
713
330
714
330
715
330
716
330
717
330
718
330
719
330
71A
330
71B
330
480
330
76E
330
47E
 92
        7
 72
     0
 73
     1
 93
        3
 10
362.4736
 20
342.921514
 10
360.4736
 20
346.4014783703694
 10
360.4736
 20
342.921514
 97
        3
330
84A
330
47E
330
76E
 75
     0
 76
     0
 52
135.0
 41
1.0
 77
     0
 78
     1
 53
135.0
 43
0.0
 44
0.0
 45
-0.7071067811865476
 46
-0.7071067811865475
 79
     0
 47
0.0
 98
        3
 10
361.8218150409706
 20
350.726093561362
 10
361.4762956260332
 20
340.844238294154
 10
361.4412038104538
 20
343.9509437211179
1001
ACAD
1010
0.0
1020
0.0
1030
0.0
1001
AcadAnnotative
1000
AnnotativeData
1002
{
1070
     1
1070
     0
1002
}
  0
LINE
  5
15ED
330
1D
100
AcDbEntity
  8
CSLAYER10
  6
Continuous
100
AcDbLine
 10
-9.349138797568
 20
396.355229139351
 30
0.0
 11
256.210591514773
 21
396.355229139351
 31
0.0
  0
LINE
  5
1659
330
1D
100
AcDbEntity
  8
CSLAYER10
  6
Continuous
100
AcDbLine
 10
125.320433
 20
315.221514
 30
0.0
 11
125.320433
 21
355.221514
 31
0.0
  0
LINE
  5
165A
330
1D
100
AcDbEntity
  8
CSLAYER10
100
AcDbLine
 10
223.580745
 20
378.559202
 30
0.0
 11
261.580745
 21
378.559202
 31
0.0
  0
LINE
  5
165B
330
1D
100
AcDbEntity
  8
CSLAYER10
100
AcDbLine
 10
261.580745
 20
378.559202
 30
0.0
 11
281.580745
 21
378.559202
 31
0.0
  0
LINE
  5
165C
330
1D
100
AcDbEntity
  8
CSLAYER10
100
AcDbLine
 10
323.317098
 20
342.921514
 30
0.0
 11
323.317098
 21
355.421514
 31
0.0
  0
LINE
  5
165D
330
1D
100
AcDbEntity
  8
CSLAYER10
100
AcDbLine
 10
323.317098
 20
158.421514
 30
0.0
 11
323.317098
 21
170.921514
 31
0.0
  0
LINE
  5
165E
330
1D
100
AcDbEntity
  8
CSLAYER10
100
AcDbLine
 10
330.317098
 20
231.921514
 30
0.0
 11
330.317098
 21
253.921514
 31
0.0
  0
LINE
  5
165F
330
1D
100
AcDbEntity
  8
CSLAYER10
100
AcDbLine
 10
506.148961
 20
323.921514
 30
0.0
 11
506.148961
 21
355.421514
 31
0.0
  0
LINE
  5
1660
330
1D
100
AcDbEntity
  8
CSLAYER10
100
AcDbLine
 10
506.148961
 20
189.921514
 30
0.0
 11
506.148961
 21
158.421514
 31
0.0
  0
LINE
  5
1661
330
1D
100
AcDbEntity
  8
CSLAYER10
100
AcDbLine
 10
430.4736
 20
139.921757
 30
0.0
 11
484.4736
 21
139.921757
 31
0.0
  0
ENDSEC
  0
SECTION
  2
OBJECTS
  0
DICTIONARY
  5
C
330
0
100
AcDbDictionary
281
     1
  3
ACAD_DETAILVIEWSTYLE
350
16D1
  3
ACAD_GROUP
350
D
  3
ACAD_LAYOUT
350
1A
  3
ACAD_MATERIAL
350
6AC
  3
ACAD_MLEADERSTYLE
350
6B2
  3
ACAD_MLINESTYLE
350
17
  3
ACAD_PLOTSETTINGS
350
19
  3
ACAD_PLOTSTYLENAME
350
E
  3
ACAD_SCALELIST
350
66D
  3
ACAD_SECTIONVIEWSTYLE
350
16D2
  3
ACAD_TABLESTYLE
350
6B0
  3
ACAD_VISUALSTYLE
350
693
  3
ACDB_RECOMPOSE_DATA
350
16D0
  3
AcDbVariableDictionary
350
911
  0
SUN
  5
6B5
330
3B
100
AcDbSun
 90
        1
290
     0
 63
     7
 40
1.0
291
     1
 91
  2455826
 92
 54000000
292
     0
 70
     2
 71
   256
280
     1
  0
DICTIONARY
  5
AB8
330
2
100
AcDbDictionary
280
     1
281
     1
  3
ACAD_LAYERSTATES
360
AB9
  0
DICTIONARY
  5
B2F
330
1D
100
AcDbDictionary
280
     1
281
     1
  3
ACAD_SORTENTS
360
B30
  0
DICTIONARY
  5
A6C
330
A42
100
AcDbDictionary
280
     1
281
     1
  3
ACAD_SORTENTS
360
A6D
  0
DICTIONARY
  5
AA5
330
AA4
100
AcDbDictionary
280
     1
281
     1
  3
ACAD_SORTENTS
360
AA6
  0
DICTIONARY
  5
D2B
330
D06
100
AcDbDictionary
280
     1
281
     1
  3
ACAD_SORTENTS
360
D2C
  0
DICTIONARY
  5
D6A
330
D46
100
AcDbDictionary
280
     1
281
     1
  3
ACAD_SORTENTS
360
D6B
  0
DICTIONARY
  5
D96
330
D71
100
AcDbDictionary
280
     1
281
     1
  3
ACAD_SORTENTS
360
D97
  0
DICTIONARY
  5
DCE
330
DA8
100
AcDbDictionary
280
     1
281
     1
  3
ACAD_SORTENTS
360
DCF
  0
DICTIONARY
  5
E0A
330
DE5
100
AcDbDictionary
280
     1
281
     1
  3
ACAD_SORTENTS
360
E0B
  0
DICTIONARY
  5
F4D
330
F28
100
AcDbDictionary
280
     1
281
     1
  3
ACAD_SORTENTS
360
F4E
  0
DICTIONARY
  5
F88
330
F63
100
AcDbDictionary
280
     1
281
     1
  3
ACAD_SORTENTS
360
F89
  0
DICTIONARY
  5
FB6
330
F91
100
AcDbDictionary
280
     1
281
     1
  3
ACAD_SORTENTS
360
FB7
  0
DICTIONARY
  5
12FB
330
12FA
100
AcDbDictionary
280
     1
281
     1
  3
AcDbContextDataManager
360
12FC
  0
DICTIONARY
  5
12FF
330
12FE
100
AcDbDictionary
280
     1
281
     1
  3
AcDbContextDataManager
360
1300
  0
DICTIONARY
  5
14AA
330
14A9
100
AcDbDictionary
280
     1
281
     1
  3
AcDbContextDataManager
360
14AB
  0
DICTIONARY
  5
1517
330
1516
100
AcDbDictionary
280
     1
281
     1
  3
AcDbContextDataManager
360
1518
  0
DICTIONARY
  5
16D1
102
{ACAD_REACTORS
330
C
102
}
330
C
100
AcDbDictionary
281
     1
  0
DICTIONARY
  5
D
102
{ACAD_REACTORS
330
C
102
}
330
C
100
AcDbDictionary
281
     1
  0
DICTIONARY
  5
1A
102
{ACAD_REACTORS
330
C
102
}
330
C
100
AcDbDictionary
281
     1
  3
Layout1
350
1C
  3
Model
350
1E
  0
DICTIONARY
  5
6AC
102
{ACAD_REACTORS
330
C
102
}
330
C
100
AcDbDictionary
281
     1
  3
ByBlock
350
6AE
  3
ByLayer
350
6AD
  3
Global
350
6AF
  0
DICTIONARY
  5
6B2
102
{ACAD_REACTORS
330
C
102
}
330
C
100
AcDbDictionary
281
     1
  3
Standard
350
6B3
  0
DICTIONARY
  5
17
102
{ACAD_REACTORS
330
C
102
}
330
C
100
AcDbDictionary
281
     1
  3
Standard
350
18
  0
DICTIONARY
  5
19
102
{ACAD_REACTORS
330
C
102
}
330
C
100
AcDbDictionary
281
     1
  0
ACDBDICTIONARYWDFLT
  5
E
102
{ACAD_REACTORS
330
C
102
}
330
C
100
AcDbDictionary
281
     1
  3
Normal
350
F
100
AcDbDictionaryWithDefault
340
F
  0
DICTIONARY
  5
66D
102
{ACAD_REACTORS
330
C
102
}
330
C
100
AcDbDictionary
281
     1
  3
A0
350
66E
  3
A1
350
66F
  3
A2
350
670
  3
A3
350
671
  3
A4
350
672
  3
A5
350
673
  3
A6
350
674
  3
A7
350
675
  3
A8
350
676
  3
A9
350
677
  3
B0
350
678
  3
B1
350
679
  3
B2
350
67A
  3
B3
350
67B
  3
B4
350
67C
  3
B5
350
67D
  3
B6
350
67E
  3
B7
350
67F
  3
B8
350
680
  3
B9
350
681
  3
C0
350
682
  3
C1
350
683
  3
C2
350
684
  3
C3
350
685
  3
C4
350
686
  3
C5
350
687
  3
C6
350
688
  3
C7
350
689
  3
C8
350
68A
  3
C9
350
68B
  3
D0
350
68C
  3
D1
350
68D
  3
D2
350
68E
  0
DICTIONARY
  5
16D2
102
{ACAD_REACTORS
330
C
102
}
330
C
100
AcDbDictionary
281
     1
  0
DICTIONARY
  5
6B0
102
{ACAD_REACTORS
330
C
102
}
330
C
100
AcDbDictionary
281
     1
  3
Standard
350
6B1
  0
DICTIONARY
  5
693
102
{ACAD_REACTORS
330
C
102
}
330
C
100
AcDbDictionary
281
     1
  3
2dWireframe
350
698
  3
Basic
350
69B
  3
Brighten
350
69F
  3
ColorChange
350
6A3
  3
Conceptual
350
69D
  3
Dim
350
69E
  3
EdgeColorOff
350
6A6
  3
Facepattern
350
6A2
  3
Flat
350
694
  3
FlatWithEdges
350
695
  3
Gouraud
350
696
  3
GouraudWithEdges
350
697
  3
Hidden
350
69A
  3
JitterOff
350
6A4
  3
Linepattern
350
6A1
  3
Modeling
350
6B4
  3
OverhangOff
350
6A5
  3
Realistic
350
69C
  3
Shaded
350
6AB
  3
Shaded with edges
350
6AA
  3
Shades of Gray
350
6A7
  3
Sketchy
350
6A8
  3
Thicken
350
6A0
  3
Wireframe
350
699
  3
X-Ray
350
6A9
  0
XRECORD
  5
16D0
102
{ACAD_REACTORS
330
C
102
}
330
C
100
AcDbXrecord
280
     1
 90
        1
330
6B1
  0
DICTIONARY
  5
911
102
{ACAD_REACTORS
330
C
102
}
330
C
100
AcDbDictionary
281
     1
  3
CANNOSCALE
350
16CD
  3
CMLEADERSTYLE
350
914
  3
CTABLESTYLE
350
913
  3
DIMASSOC
350
E45
  3
HIDETEXT
350
E46
  3
MSLTSCALE
350
915
  0
DICTIONARY
  5
AB9
102
{ACAD_REACTORS
330
AB8
102
}
330
AB8
100
AcDbDictionary
281
     1
  0
SORTENTSTABLE
  5
B30
102
{ACAD_REACTORS
330
B2F
102
}
330
B2F
100
AcDbSortentsTable
330
1D
331
0
  5
1306
331
47E
  5
47F
331
47F
  5
482
331
480
  5
484
331
481
  5
485
331
482
  5
486
331
483
  5
487
331
484
  5
488
331
485
  5
489
331
486
  5
48A
331
487
  5
48B
331
488
  5
48C
331
489
  5
48D
331
48A
  5
48E
331
48B
  5
48F
331
48C
  5
490
331
48D
  5
491
331
48E
  5
492
331
48F
  5
493
331
490
  5
494
331
491
  5
495
331
492
  5
496
331
493
  5
497
331
494
  5
498
331
495
  5
499
331
496
  5
49A
331
497
  5
49B
331
498
  5
49C
331
499
  5
49D
331
49A
  5
49E
331
49B
  5
49F
331
49C
  5
4A0
331
49D
  5
4A1
331
49E
  5
4A2
331
49F
  5
4A3
331
4A0
  5
4A4
331
4A1
  5
4A5
331
4A2
  5
4A6
331
4A3
  5
4A7
331
4A4
  5
4A8
331
4A5
  5
4A9
331
4A6
  5
4AA
331
4A7
  5
4AB
331
4A8
  5
4AC
331
4A9
  5
4AD
331
4AA
  5
4AE
331
4AB
  5
4AF
331
4AC
  5
4B0
331
4AD
  5
4B1
331
4AE
  5
4B2
331
4AF
  5
4B3
331
4B0
  5
4B4
331
4B1
  5
4B5
331
4B2
  5
4B6
331
4B3
  5
4B7
331
4B4
  5
4B8
331
4B5
  5
4BD
331
4B6
  5
4BE
331
4B7
  5
4BF
331
4B8
  5
4C2
331
4BD
  5
4C3
331
4BE
  5
4D1
331
4BF
  5
4F1
331
4C2
  5
4F3
331
4C3
  5
4F4
331
4D1
  5
4F5
331
4F1
  5
4F6
331
4F3
  5
4F7
331
4F4
  5
4FA
331
4F5
  5
4FB
331
4F6
  5
4FC
331
4F7
  5
4FD
331
4FA
  5
4FE
331
4FB
  5
4FF
331
4FC
  5
500
331
4FD
  5
501
331
4FE
  5
502
331
4FF
  5
503
331
500
  5
504
331
501
  5
505
331
502
  5
506
331
503
  5
507
331
504
  5
508
331
505
  5
509
331
506
  5
50A
331
507
  5
510
331
508
  5
53C
331
509
  5
53D
331
50A
  5
53E
331
510
  5
55E
331
53C
  5
55F
331
53D
  5
560
331
53E
  5
561
331
55E
  5
562
331
55F
  5
563
331
560
  5
564
331
561
  5
565
331
562
  5
566
331
563
  5
567
331
564
  5
568
331
565
  5
569
331
566
  5
56A
331
567
  5
56B
331
568
  5
56D
331
569
  5
56F
331
56A
  5
570
331
56B
  5
576
331
56D
  5
578
331
56F
  5
579
331
570
  5
57A
331
576
  5
57B
331
578
  5
5A9
331
579
  5
5AA
331
57A
  5
5AB
331
57B
  5
5AC
331
5A9
  5
5AD
331
5AA
  5
5AE
331
5AB
  5
5AF
331
5AC
  5
5B0
331
5AD
  5
5B1
331
5AE
  5
5B2
331
5AF
  5
5B3
331
5B0
  5
5B4
331
5B1
  5
5B5
331
5B2
  5
5B7
331
5B3
  5
5B8
331
5B4
  5
5B9
331
5B5
  5
5BA
331
5B6
  5
5BB
331
5B7
  5
5BC
331
5B8
  5
5BD
331
5B9
  5
5BE
331
5BA
  5
5BF
331
5BB
  5
5C0
331
5BC
  5
5C1
331
5BD
  5
5C2
331
5BE
  5
5C3
331
5BF
  5
5C4
331
5C0
  5
5C5
331
5C1
  5
5C6
331
5C2
  5
5C7
331
5C3
  5
5C8
331
5C4
  5
5C9
331
5C5
  5
5CA
331
5C6
  5
5CB
331
5C7
  5
5CC
331
5C8
  5
5CD
331
5C9
  5
5CE
331
5CA
  5
5CF
331
5CB
  5
5D0
331
5CC
  5
5D1
331
5CD
  5
5D2
331
5CE
  5
5D3
331
5CF
  5
5D4
331
5D0
  5
5D5
331
5D1
  5
5D6
331
5D2
  5
5D7
331
5D3
  5
5D8
331
5D4
  5
5D9
331
5D5
  5
5DA
331
5D6
  5
5DB
331
5D7
  5
5DC
331
5D8
  5
5DD
331
5D9
  5
5DE
331
5DA
  5
5DF
331
5DB
  5
5E0
331
5DC
  5
5E1
331
5DD
  5
5E2
331
5DE
  5
5E7
331
5E0
  5
5E9
331
5E1
  5
5EA
331
5E3
  5
5EB
331
5E4
  5
5EC
331
5E7
  5
5ED
331
5E8
  5
5EE
331
5E9
  5
5EF
331
5EA
  5
5F0
331
5EB
  5
5F1
331
5EC
  5
5F2
331
5ED
  5
5F6
331
5EE
  5
62B
331
5EF
  5
62C
331
5F0
  5
633
331
5F1
  5
6B9
331
5F2
  5
6BC
331
5F6
  5
6BD
331
633
  5
6BE
331
6B9
  5
6BF
331
6BA
  5
6C0
331
6BB
  5
6C1
331
6BC
  5
6C2
331
6BD
  5
6C3
331
6BE
  5
6C5
331
6BF
  5
6C6
331
6C1
  5
6C7
331
6C2
  5
6C8
331
6C3
  5
6C9
331
6C4
  5
6CA
331
6C5
  5
6CB
331
6C6
  5
6CC
331
6C7
  5
6CD
331
6C8
  5
6CE
331
6C9
  5
6CF
331
6CA
  5
6D0
331
6CB
  5
6D2
331
6CC
  5
6D3
331
6CE
  5
6D5
331
6CF
  5
6D6
331
6D1
  5
6D7
331
6D2
  5
6D8
331
6D3
  5
6D9
331
6D4
  5
6DA
331
6D5
  5
6DB
331
6D6
  5
6DC
331
6D7
  5
6DD
331
6D8
  5
6DE
331
6D9
  5
6DF
331
6DA
  5
6E0
331
6DB
  5
6E1
331
6DC
  5
6E2
331
6DD
  5
6E3
331
6DE
  5
6E4
331
6DF
  5
6E5
331
6E0
  5
6E6
331
6E1
  5
6E7
331
6E2
  5
6E8
331
6E3
  5
6E9
331
6E4
  5
6EA
331
6E5
  5
6EB
331
6E6
  5
6EC
331
6E7
  5
6ED
331
6E8
  5
6EF
331
6E9
  5
6F1
331
6EB
  5
6F3
331
6ED
  5
6F4
331
6EF
  5
6F6
331
6F0
  5
6F7
331
6F2
  5
6F8
331
6F3
  5
6F9
331
6F4
  5
6FA
331
6F5
  5
6FB
331
6F6
  5
6FC
331
6F7
  5
6FD
331
6F8
  5
6FE
331
6F9
  5
6FF
331
6FA
  5
700
331
6FB
  5
701
331
6FC
  5
702
331
6FD
  5
703
331
6FE
  5
704
331
6FF
  5
705
331
700
  5
706
331
701
  5
707
331
702
  5
708
331
703
  5
709
331
704
  5
70A
331
705
  5
70B
331
706
  5
70C
331
707
  5
70D
331
708
  5
70E
331
709
  5
70F
331
70A
  5
710
331
70B
  5
711
331
70C
  5
712
331
70D
  5
713
331
70E
  5
714
331
70F
  5
715
331
710
  5
716
331
711
  5
717
331
712
  5
718
331
713
  5
719
331
714
  5
71A
331
715
  5
71B
331
716
  5
71C
331
717
  5
71D
331
718
  5
71E
331
719
  5
71F
331
71A
  5
720
331
71B
  5
721
331
71C
  5
722
331
71D
  5
723
331
71E
  5
724
331
71F
  5
725
331
720
  5
726
331
721
  5
727
331
722
  5
728
331
723
  5
729
331
724
  5
72A
331
725
  5
72B
331
726
  5
72C
331
727
  5
72D
331
728
  5
72E
331
729
  5
72F
331
72A
  5
730
331
72B
  5
731
331
72C
  5
732
331
72D
  5
733
331
72E
  5
734
331
72F
  5
735
331
730
  5
736
331
731
  5
737
331
732
  5
738
331
733
  5
739
331
734
  5
73A
331
735
  5
73B
331
736
  5
73C
331
737
  5
73D
331
738
  5
73E
331
739
  5
73F
331
73A
  5
740
331
73B
  5
741
331
73C
  5
742
331
73D
  5
743
331
73E
  5
744
331
73F
  5
745
331
740
  5
74E
331
741
  5
74F
331
74A
  5
750
331
74B
  5
751
331
74C
  5
752
331
74D
  5
753
331
74E
  5
754
331
74F
  5
755
331
750
  5
756
331
751
  5
757
331
752
  5
758
331
753
  5
75A
331
754
  5
75B
331
756
  5
75C
331
757
  5
75E
331
758
  5
75F
331
75A
  5
760
331
75B
  5
761
331
75C
  5
762
331
75D
  5
764
331
75E
  5
765
331
760
  5
766
331
761
  5
767
331
762
  5
768
331
763
  5
769
331
764
  5
76A
331
765
  5
76B
331
766
  5
76C
331
767
  5
76D
331
768
  5
76E
331
769
  5
76F
331
76A
  5
770
331
76B
  5
771
331
76C
  5
772
331
76D
  5
774
331
76E
  5
775
331
770
  5
776
331
771
  5
777
331
772
  5
778
331
773
  5
779
331
774
  5
77B
331
775
  5
77C
331
777
  5
77D
331
778
  5
77E
331
779
  5
77F
331
77A
  5
780
331
77B
  5
781
331
77C
  5
782
331
77D
  5
783
331
77E
  5
784
331
77F
  5
785
331
780
  5
786
331
781
  5
787
331
782
  5
788
331
783
  5
789
331
784
  5
78A
331
785
  5
78B
331
786
  5
78C
331
787
  5
78D
331
788
  5
78E
331
789
  5
78F
331
78A
  5
790
331
78B
  5
791
331
78C
  5
792
331
78D
  5
793
331
78E
  5
794
331
78F
  5
795
331
790
  5
796
331
791
  5
797
331
792
  5
798
331
793
  5
799
331
794
  5
79A
331
795
  5
79B
331
796
  5
79C
331
797
  5
79D
331
798
  5
79E
331
799
  5
7A0
331
79A
  5
7A1
331
79C
  5
7A2
331
79D
  5
7A4
331
79E
  5
7A5
331
7A0
  5
7A6
331
7A1
  5
7A7
331
7A2
  5
7A8
331
7A3
  5
7A9
331
7A4
  5
7AA
331
7A5
  5
7AB
331
7A6
  5
7AC
331
7A7
  5
7AD
331
7A8
  5
7AE
331
7A9
  5
7AF
331
7AA
  5
7B1
331
7AB
  5
7B2
331
7AD
  5
7B3
331
7AE
  5
7B4
331
7AF
  5
7B5
331
7B0
  5
7B6
331
7B1
  5
7B7
331
7B2
  5
7B8
331
7B3
  5
7B9
331
7B4
  5
7BA
331
7B5
  5
7BB
331
7B6
  5
7BC
331
7B7
  5
7BD
331
7B8
  5
7BE
331
7B9
  5
7BF
331
7BA
  5
7C0
331
7BB
  5
7C1
331
7BC
  5
7C2
331
7BD
  5
7C3
331
7BE
  5
7C4
331
7BF
  5
7C6
331
7C0
  5
7C7
331
7C2
  5
7C8
331
7C3
  5
7C9
331
7C4
  5
7CA
331
7C5
  5
7CB
331
7C6
  5
7CD
331
7C7
  5
7CE
331
7C9
  5
7CF
331
7CA
  5
7D0
331
7CB
  5
7D1
331
7CC
  5
7D2
331
7CD
  5
7D3
331
7CE
  5
7D5
331
7CF
  5
7D6
331
7D1
  5
7D7
331
7D2
  5
7D8
331
7D3
  5
7D9
331
7D4
  5
7DA
331
7D5
  5
7DC
331
7D6
  5
7DD
331
7D8
  5
7DE
331
7D9
  5
7DF
331
7DA
  5
7E0
331
7DB
  5
7E1
331
7DC
  5
7E2
331
7DD
  5
7E3
331
7DE
  5
7E4
331
7DF
  5
7E5
331
7E0
  5
7E6
331
7E1
  5
7E7
331
7E2
  5
7E8
331
7E3
  5
7EB
331
7E4
  5
7EE
331
7E7
  5
7EF
331
7EA
  5
7F1
331
7EB
  5
7F2
331
7ED
  5
7F3
331
7EE
  5
7F4
331
7EF
  5
7F5
331
7F0
  5
7F6
331
7F1
  5
7F7
331
7F2
  5
7F8
331
7F3
  5
7F9
331
7F4
  5
7FA
331
7F5
  5
7FB
331
7F6
  5
7FC
331
7F7
  5
7FD
331
7F8
  5
7FE
331
7F9
  5
7FF
331
7FA
  5
800
331
7FB
  5
801
331
7FC
  5
802
331
7FD
  5
803
331
7FE
  5
804
331
7FF
  5
805
331
800
  5
806
331
801
  5
807
331
802
  5
809
331
803
  5
80A
331
805
  5
80B
331
806
  5
80D
331
807
  5
80E
331
809
  5
80F
331
80A
  5
810
331
80B
  5
811
331
80C
  5
812
331
80D
  5
813
331
80E
  5
814
331
80F
  5
815
331
810
  5
816
331
811
  5
817
331
812
  5
818
331
813
  5
819
331
814
  5
81A
331
815
  5
81B
331
816
  5
81C
331
817
  5
81D
331
818
  5
81E
331
819
  5
81F
331
81A
  5
820
331
81B
  5
821
331
81C
  5
822
331
81D
  5
823
331
81E
  5
824
331
81F
  5
825
331
820
  5
826
331
821
  5
827
331
822
  5
828
331
823
  5
829
331
824
  5
82A
331
825
  5
82B
331
826
  5
82C
331
827
  5
82D
331
828
  5
82E
331
829
  5
82F
331
82A
  5
830
331
82B
  5
831
331
82C
  5
832
331
82D
  5
833
331
82E
  5
834
331
82F
  5
835
331
830
  5
836
331
831
  5
837
331
832
  5
838
331
833
  5
839
331
834
  5
83A
331
835
  5
83B
331
836
  5
83C
331
837
  5
83D
331
838
  5
83F
331
839
  5
840
331
83B
  5
841
331
83C
  5
842
331
83D
  5
843
331
83E
  5
845
331
83F
  5
846
331
841
  5
847
331
842
  5
848
331
843
  5
849
331
844
  5
84A
331
845
  5
84B
331
846
  5
84C
331
847
  5
84D
331
848
  5
84E
331
849
  5
84F
331
84A
  5
850
331
84B
  5
851
331
84C
  5
852
331
84D
  5
853
331
84E
  5
854
331
84F
  5
855
331
850
  5
856
331
851
  5
857
331
852
  5
858
331
853
  5
859
331
854
  5
85A
331
855
  5
85B
331
856
  5
85C
331
857
  5
85D
331
858
  5
85E
331
859
  5
85F
331
85A
  5
860
331
85B
  5
861
331
85C
  5
862
331
85D
  5
863
331
85E
  5
864
331
85F
  5
865
331
860
  5
866
331
861
  5
867
331
862
  5
868
331
863
  5
869
331
864
  5
86A
331
865
  5
86B
331
866
  5
86C
331
867
  5
86D
331
868
  5
86E
331
869
  5
86F
331
86A
  5
870
331
86B
  5
871
331
86C
  5
872
331
86D
  5
873
331
86E
  5
874
331
86F
  5
875
331
870
  5
876
331
871
  5
877
331
872
  5
878
331
873
  5
879
331
874
  5
87A
331
875
  5
87C
331
876
  5
87D
331
877
  5
87E
331
878
  5
87F
331
879
  5
880
331
87A
  5
881
331
87C
  5
882
331
87D
  5
884
331
87E
  5
885
331
87F
  5
886
331
880
  5
887
331
881
  5
888
331
882
  5
889
331
884
  5
88A
331
885
  5
88B
331
886
  5
88C
331
887
  5
88D
331
888
  5
88E
331
889
  5
88F
331
88A
  5
890
331
88B
  5
891
331
88C
  5
892
331
88D
  5
893
331
88E
  5
894
331
88F
  5
895
331
890
  5
896
331
891
  5
897
331
892
  5
898
331
893
  5
899
331
894
  5
89A
331
895
  5
89B
331
896
  5
89C
331
897
  5
89D
331
898
  5
89E
331
899
  5
89F
331
89A
  5
8A2
331
89B
  5
8A3
331
89E
  5
8A4
331
89F
  5
8A5
331
8A0
  5
8A6
331
8A1
  5
8A7
331
8A2
  5
8B2
331
8A3
  5
8B3
331
8A5
  5
8B4
331
8A6
  5
8B5
331
8A7
  5
8E7
331
8A8
  5
941
331
8B3
  5
9ED
331
8B5
  5
A17
331
8B6
  5
BCD
331
8E7
  5
BCE
331
941
  5
BCF
331
9ED
  5
BD0
331
A17
  5
BD1
331
BC8
  5
BD2
331
BCD
  5
BD3
331
BCE
  5
BD4
331
BCF
  5
BD6
331
BD0
  5
BD7
331
BD1
  5
BD9
331
BD2
  5
BEE
331
BD4
  5
C71
331
BD6
  5
C72
331
BD7
  5
C73
331
BD8
  5
C75
331
BD9
  5
C76
331
C71
  5
C77
331
C72
  5
C83
331
C73
  5
C86
331
C74
  5
C87
331
C76
  5
C8C
331
C77
  5
C8D
331
C83
  5
C8F
331
C85
  5
C90
331
C86
  5
C91
331
C87
  5
C92
331
C8C
  5
C93
331
C8D
  5
CB0
331
C8F
  5
CD8
331
C90
  5
CD9
331
C91
  5
CDA
331
C92
  5
CDC
331
C93
  5
CDD
331
CD8
  5
CDE
331
CD9
  5
CDF
331
CDA
  5
CE0
331
CDB
  5
CE1
331
CDC
  5
CE3
331
CDD
  5
CE4
331
CDF
  5
CE5
331
CE0
  5
CE6
331
CE1
  5
CE7
331
CE2
  5
CE8
331
CE3
  5
CE9
331
CE4
  5
CEA
331
CE5
  5
CEB
331
CE6
  5
CEC
331
CE7
  5
CED
331
CE8
  5
CEE
331
CE9
  5
CF0
331
CEA
  5
CF1
331
CEC
  5
CF2
331
CED
  5
CF3
331
CEE
  5
CF4
331
CEF
  5
CF5
331
CF0
  5
D3B
331
CF1
  5
D3E
331
CF2
  5
D3F
331
CF3
  5
D40
331
CF4
  5
D41
331
CF5
  5
D43
331
D3B
  5
D44
331
D3F
  5
D9D
331
D40
  5
D9E
331
D44
  5
D9F
331
D45
  5
DA0
331
D70
  5
DA1
331
D9C
  5
DA2
331
D9D
  5
DA3
331
D9E
  5
DA4
331
D9F
  5
DA5
331
DA0
  5
E1B
331
DA1
  5
E1C
331
DA5
  5
E1D
331
DA6
  5
E1E
331
DA7
  5
E1F
331
DD4
  5
E20
331
E1B
  5
E21
331
E1C
  5
E22
331
E1D
  5
EF2
331
E1E
  5
EF3
331
E1F
  5
EF4
331
E20
  5
EF5
331
E21
  5
EF6
331
E22
  5
EF7
331
EF2
  5
EF8
331
EF3
  5
EF9
331
EF4
  5
F25
331
EF5
  5
F26
331
EF6
  5
F5A
331
EF7
  5
F5B
331
EF8
  5
F5D
331
EF9
  5
F5E
331
F25
  5
F5F
331
F26
  5
F60
331
F5A
  5
F61
331
F5B
  5
F62
331
F5D
  5
FE9
331
F5E
  5
FEA
331
F5F
  5
FEB
331
F60
  5
FEC
331
F61
  5
FED
331
F62
  5
10AC
331
FE9
  5
10AD
331
FEA
  5
12EF
331
FEB
  5
12F0
331
FEC
  5
12F1
331
FED
  5
12F6
331
10AC
  5
12FA
331
10AD
  5
12FE
331
12EF
  5
1302
331
12FA
  5
5E4
331
12FE
  5
5B6
331
1302
  5
1304
331
1303
  5
1305
331
130F
  5
1516
331
14A9
  5
483
331
1516
  5
47E
  0
SORTENTSTABLE
  5
A6D
102
{ACAD_REACTORS
330
A6C
330
A6C
102
}
330
A6C
100
AcDbSortentsTable
330
A42
  0
SORTENTSTABLE
  5
AA6
102
{ACAD_REACTORS
330
AA5
330
AA5
102
}
330
AA5
100
AcDbSortentsTable
330
AA4
  0
SORTENTSTABLE
  5
D2C
102
{ACAD_REACTORS
330
D2B
330
D2B
102
}
330
D2B
100
AcDbSortentsTable
330
D06
  0
SORTENTSTABLE
  5
D6B
102
{ACAD_REACTORS
330
D6A
330
D6A
102
}
330
D6A
100
AcDbSortentsTable
330
D46
  0
SORTENTSTABLE
  5
D97
102
{ACAD_REACTORS
330
D96
330
D96
102
}
330
D96
100
AcDbSortentsTable
330
D71
  0
SORTENTSTABLE
  5
DCF
102
{ACAD_REACTORS
330
DCE
330
DCE
102
}
330
DCE
100
AcDbSortentsTable
330
DA8
  0
SORTENTSTABLE
  5
E0B
102
{ACAD_REACTORS
330
E0A
330
E0A
102
}
330
E0A
100
AcDbSortentsTable
330
DE5
  0
SORTENTSTABLE
  5
F4E
102
{ACAD_REACTORS
330
F4D
330
F4D
102
}
330
F4D
100
AcDbSortentsTable
330
F28
  0
SORTENTSTABLE
  5
F89
102
{ACAD_REACTORS
330
F88
330
F88
102
}
330
F88
100
AcDbSortentsTable
330
F63
  0
SORTENTSTABLE
  5
FB7
102
{ACAD_REACTORS
330
FB6
330
FB6
102
}
330
FB6
100
AcDbSortentsTable
330
F91
  0
DICTIONARY
  5
12FC
102
{ACAD_REACTORS
330
12FB
102
}
330
12FB
100
AcDbDictionary
281
     1
  3
ACDB_ANNOTATIONSCALES
350
12FD
  0
DICTIONARY
  5
1300
102
{ACAD_REACTORS
330
12FF
102
}
330
12FF
100
AcDbDictionary
281
     1
  3
ACDB_ANNOTATIONSCALES
350
1301
  0
DICTIONARY
  5
14AB
102
{ACAD_REACTORS
330
14AA
102
}
330
14AA
100
AcDbDictionary
281
     1
  3
ACDB_ANNOTATIONSCALES
350
14AC
  0
DICTIONARY
  5
1518
102
{ACAD_REACTORS
330
1517
102
}
330
1517
100
AcDbDictionary
281
     1
  3
ACDB_ANNOTATIONSCALES
350
1519
  0
LAYOUT
  5
1C
102
{ACAD_REACTORS
330
1A
102
}
330
1A
100
AcDbPlotSettings
  1

  2
none_device
  4

  6

 40
0.0
 41
0.0
 42
0.0
 43
0.0
 44
0.0
 45
0.0
 46
0.0
 47
0.0
 48
0.0
 49
0.0
140
0.0
141
0.0
142
1.0
143
1.0
 70
   688
 72
     0
 73
     0
 74
     5
  7
monochrome.ctb
 75
    16
 76
     0
 77
     2
 78
   300
147
1.0
148
0.0
149
0.0
100
AcDbLayout
  1
Layout1
 70
     1
 71
     1
 10
0.0
 20
0.0
 11
12.0
 21
9.0
 12
0.0
 22
0.0
 32
0.0
 14
1.000000000000E+20
 24
1.000000000000E+20
 34
1.000000000000E+20
 15
-1.000000000000E+20
 25
-1.000000000000E+20
 35
-1.000000000000E+20
146
0.0
 13
0.0
 23
0.0
 33
0.0
 16
1.0
 26
0.0
 36
0.0
 17
0.0
 27
1.0
 37
0.0
 76
     0
330
1B
  0
LAYOUT
  5
1E
102
{ACAD_REACTORS
330
1A
102
}
330
1A
100
AcDbPlotSettings
  1

  2
RICOH imagio MP C3500 RPCS
  4
A3
  6

 40
5.08
 41
5.08
 42
5.08
 43
5.08
 44
297.0
 45
420.0
 46
7.979308265018
 47
0.0
 48
-35.0
 49
-1.0002
140
593.2406
141
414.2318
142
1.0
143
38.93546564513
 70
  1716
 72
     0
 73
     1
 74
     4
  7
monochrome.ctb
 75
     0
 76
     0
 77
     2
 78
   300
147
0.025683524864
148
-5972.36669683611
149
-6329.831187356892
100
AcDbLayout
  1
Model
 70
     1
 71
     0
 10
0.0
 20
0.0
 11
12.0
 21
9.0
 12
0.0
 22
0.0
 32
0.0
 14
-9.349138797568
 24
20.819404
 34
0.0
 15
572.80031
 25
407.682269919985
 35
0.0
146
0.0
 13
0.0
 23
0.0
 33
0.0
 16
1.0
 26
0.0
 36
0.0
 17
0.0
 27
1.0
 37
0.0
 76
     0
330
1D
331
3B
  0
MATERIAL
  5
6AE
102
{ACAD_REACTORS
330
6AC
102
}
330
6AC
100
AcDbMaterial
  1
ByBlock
 72
     1
 94
      127
  0
MATERIAL
  5
6AD
102
{ACAD_REACTORS
330
6AC
102
}
330
6AC
100
AcDbMaterial
  1
ByLayer
 72
     1
 94
      127
  0
MATERIAL
  5
6AF
102
{ACAD_REACTORS
330
6AC
102
}
330
6AC
100
AcDbMaterial
  1
Global
 72
     1
 94
      127
  0
MLEADERSTYLE
  5
6B3
102
{ACAD_REACTORS
330
6B2
102
}
330
6B2
100
AcDbMLeaderStyle
179
     2
170
     2
171
     1
172
     0
 90
        2
 40
0.0
 41
0.0
173
     1
 91
-1056964608
340
14
 92
       -2
290
     1
 42
0.09
291
     1
 43
0.36
  3
Standard
341
0
 44
0.18
300

342
11
174
     1
178
     6
175
     1
176
     0
 93
-1056964608
 45
0.18
292
     0
297
     0
 46
0.18
343
0
 94
-1056964608
 47
1.0
 49
1.0
140
1.0
293
     1
141
0.0
294
     1
177
     0
142
1.0
295
     0
296
     0
143
0.125
271
     0
272
     9
273
     9
298
     0
  0
MLINESTYLE
  5
18
102
{ACAD_REACTORS
330
17
102
}
330
17
100
AcDbMlineStyle
  2
Standard
 70
     0
  3

 62
   256
 51
90.0
 52
90.0
 71
     2
 49
0.5
 62
   256
  6
BYLAYER
 49
-0.5
 62
   256
  6
BYLAYER
  0
ACDBPLACEHOLDER
  5
F
102
{ACAD_REACTORS
330
E
102
}
330
E
  0
SCALE
  5
66E
102
{ACAD_REACTORS
330
66D
102
}
330
66D
100
AcDbScale
 70
     0
300
1:1
140
1.0
141
1.0
290
     1
  0
SCALE
  5
66F
102
{ACAD_REACTORS
330
66D
102
}
330
66D
100
AcDbScale
 70
     0
300
1:2
140
1.0
141
2.0
290
     0
  0
SCALE
  5
670
102
{ACAD_REACTORS
330
66D
102
}
330
66D
100
AcDbScale
 70
     0
300
1:4
140
1.0
141
4.0
290
     0
  0
SCALE
  5
671
102
{ACAD_REACTORS
330
66D
102
}
330
66D
100
AcDbScale
 70
     0
300
1:5
140
1.0
141
5.0
290
     0
  0
SCALE
  5
672
102
{ACAD_REACTORS
330
66D
102
}
330
66D
100
AcDbScale
 70
     0
300
1:8
140
1.0
141
8.0
290
     0
  0
SCALE
  5
673
102
{ACAD_REACTORS
330
66D
102
}
330
66D
100
AcDbScale
 70
     0
300
1:10
140
1.0
141
10.0
290
     0
  0
SCALE
  5
674
102
{ACAD_REACTORS
330
66D
102
}
330
66D
100
AcDbScale
 70
     0
300
1:16
140
1.0
141
16.0
290
     0
  0
SCALE
  5
675
102
{ACAD_REACTORS
330
66D
102
}
330
66D
100
AcDbScale
 70
     0
300
1:20
140
1.0
141
20.0
290
     0
  0
SCALE
  5
676
102
{ACAD_REACTORS
330
66D
102
}
330
66D
100
AcDbScale
 70
     0
300
1:30
140
1.0
141
30.0
290
     0
  0
SCALE
  5
677
102
{ACAD_REACTORS
330
66D
102
}
330
66D
100
AcDbScale
 70
     0
300
1:40
140
1.0
141
40.0
290
     0
  0
SCALE
  5
678
102
{ACAD_REACTORS
330
66D
102
}
330
66D
100
AcDbScale
 70
     0
300
1:50
140
1.0
141
50.0
290
     0
  0
SCALE
  5
679
102
{ACAD_REACTORS
330
66D
102
}
330
66D
100
AcDbScale
 70
     0
300
1:100
140
1.0
141
100.0
290
     0
  0
SCALE
  5
67A
102
{ACAD_REACTORS
330
66D
102
}
330
66D
100
AcDbScale
 70
     0
300
2:1
140
2.0
141
1.0
290
     0
  0
SCALE
  5
67B
102
{ACAD_REACTORS
330
66D
102
}
330
66D
100
AcDbScale
 70
     0
300
4:1
140
4.0
141
1.0
290
     0
  0
SCALE
  5
67C
102
{ACAD_REACTORS
330
66D
102
}
330
66D
100
AcDbScale
 70
     0
300
8:1
140
8.0
141
1.0
290
     0
  0
SCALE
  5
67D
102
{ACAD_REACTORS
330
66D
102
}
330
66D
100
AcDbScale
 70
     0
300
10:1
140
10.0
141
1.0
290
     0
  0
SCALE
  5
67E
102
{ACAD_REACTORS
330
66D
102
}
330
66D
100
AcDbScale
 70
     0
300
100:1
140
100.0
141
1.0
290
     0
  0
SCALE
  5
67F
102
{ACAD_REACTORS
330
66D
102
}
330
66D
100
AcDbScale
 70
     0
300
1/128" = 1'-0"
140
0.0078125
141
12.0
290
     0
  0
SCALE
  5
680
102
{ACAD_REACTORS
330
66D
102
}
330
66D
100
AcDbScale
 70
     0
300
1/64" = 1'-0"
140
0.015625
141
12.0
290
     0
  0
SCALE
  5
681
102
{ACAD_REACTORS
330
66D
102
}
330
66D
100
AcDbScale
 70
     0
300
1/32" = 1'-0"
140
0.03125
141
12.0
290
     0
  0
SCALE
  5
682
102
{ACAD_REACTORS
330
66D
102
}
330
66D
100
AcDbScale
 70
     0
300
1/16" = 1'-0"
140
0.0625
141
12.0
290
     0
  0
SCALE
  5
683
102
{ACAD_REACTORS
330
66D
102
}
330
66D
100
AcDbScale
 70
     0
300
3/32" = 1'-0"
140
0.09375
141
12.0
290
     0
  0
SCALE
  5
684
102
{ACAD_REACTORS
330
66D
102
}
330
66D
100
AcDbScale
 70
     0
300
1/8" = 1'-0"
140
0.125
141
12.0
290
     0
  0
SCALE
  5
685
102
{ACAD_REACTORS
330
66D
102
}
330
66D
100
AcDbScale
 70
     0
300
3/16" = 1'-0"
140
0.1875
141
12.0
290
     0
  0
SCALE
  5
686
102
{ACAD_REACTORS
330
66D
102
}
330
66D
100
AcDbScale
 70
     0
300
1/4" = 1'-0"
140
0.25
141
12.0
290
     0
  0
SCALE
  5
687
102
{ACAD_REACTORS
330
66D
102
}
330
66D
100
AcDbScale
 70
     0
300
3/8" = 1'-0"
140
0.375
141
12.0
290
     0
  0
SCALE
  5
688
102
{ACAD_REACTORS
330
66D
102
}
330
66D
100
AcDbScale
 70
     0
300
1/2" = 1'-0"
140
0.5
141
12.0
290
     0
  0
SCALE
  5
689
102
{ACAD_REACTORS
330
66D
102
}
330
66D
100
AcDbScale
 70
     0
300
3/4" = 1'-0"
140
0.75
141
12.0
290
     0
  0
SCALE
  5
68A
102
{ACAD_REACTORS
330
66D
102
}
330
66D
100
AcDbScale
 70
     0
300
1" = 1'-0"
140
1.0
141
12.0
290
     0
  0
SCALE
  5
68B
102
{ACAD_REACTORS
330
66D
102
}
330
66D
100
AcDbScale
 70
     0
300
1-1/2" = 1'-0"
140
1.5
141
12.0
290
     0
  0
SCALE
  5
68C
102
{ACAD_REACTORS
330
66D
102
}
330
66D
100
AcDbScale
 70
     0
300
3" = 1'-0"
140
3.0
141
12.0
290
     0
  0
SCALE
  5
68D
102
{ACAD_REACTORS
330
66D
102
}
330
66D
100
AcDbScale
 70
     0
300
6" = 1'-0"
140
6.0
141
12.0
290
     0
  0
SCALE
  5
68E
102
{ACAD_REACTORS
330
66D
102
}
330
66D
100
AcDbScale
 70
     0
300
1'-0" = 1'-0"
140
12.0
141
12.0
290
     0
  0
TABLESTYLE
  5
6B1
102
{ACAD_REACTORS
330
6B0
102
}
102
{ACAD_XDICTIONARY
360
16CE
102
}
330
6B0
100
AcDbTableStyle
  3
Standard
 70
     0
 71
     0
 40
0.06
 41
0.06
280
     0
281
     0
  7
Standard
140
0.18
170
     2
 62
     0
 63
   257
283
     0
 90
        4
 91
        0
  1

274
    -2
284
     1
 64
     0
275
    -2
285
     1
 65
     0
276
    -2
286
     1
 66
     0
277
    -2
287
     1
 67
     0
278
    -2
288
     1
 68
     0
279
    -2
289
     1
 69
     0
  7
Standard
140
0.25
170
     5
 62
     0
 63
   257
283
     0
 90
        4
 91
        0
  1

274
    -2
284
     1
 64
     0
275
    -2
285
     1
 65
     0
276
    -2
286
     1
 66
     0
277
    -2
287
     1
 67
     0
278
    -2
288
     1
 68
     0
279
    -2
289
     1
 69
     0
  7
Standard
140
0.18
170
     5
 62
     0
 63
   257
283
     0
 90
        4
 91
        0
  1

274
    -2
284
     1
 64
     0
275
    -2
285
     1
 65
     0
276
    -2
286
     1
 66
     0
277
    -2
287
     1
 67
     0
278
    -2
288
     1
 68
     0
279
    -2
289
     1
 69
     0
  0
VISUALSTYLE
  5
698
102
{ACAD_REACTORS
330
693
102
}
330
693
100
AcDbVisualStyle
  2
2dWireframe
 70
     4
177
     3
291
     0
 70
    58
 90
        0
176
     1
 90
        2
176
     1
 90
        0
176
     1
 90
        0
176
     1
 40
0.6
176
     1
 40
30.0
176
     1
 62
     7
176
     1
 90
        1
176
     1
 90
        4
176
     1
 62
     7
176
     1
 62
   257
176
     1
 90
        1
176
     1
 90
        1
176
     1
 40
1.0
176
     1
 90
        0
176
     1
 62
   257
176
     1
 40
1.0
176
     1
 90
        1
176
     1
 90
        6
176
     1
 90
        2
176
     1
 62
     7
176
     1
 90
        5
176
     1
 90
        0
176
     1
 90
        0
176
     1
290
     0
176
     1
 90
        1
176
     1
 40
0.0
176
     1
 90
        0
176
     1
290
     1
176
     1
290
     1
176
     1
290
     0
176
     1
290
     0
176
     1
290
     0
176
     1
290
     0
176
     1
290
     0
176
     1
290
     0
176
     1
290
     0
176
     1
 90
       50
176
     1
 40
0.0
176
     1
 40
1.0
176
     1
 90
        0
176
     1
 62
    18
420
        0
176
     1
 90
       50
176
     1
 90
        3
176
     1
 62
     5
420
      255
176
     1
290
     0
176
     1
 90
       50
176
     1
 90
       50
176
     1
 90
       50
176
     1
290
     0
176
     1
 90
       50
176
     1
 62
   256
176
     0
 40
1.0
176
     0
 90
        2
176
     1
  1
strokes_ogs.tif
176
     1
290
     0
176
     1
 40
1.0
176
     1
 40
1.0
176
     1
  0
VISUALSTYLE
  5
69B
102
{ACAD_REACTORS
330
693
102
}
330
693
100
AcDbVisualStyle
  2
Basic
 70
     7
177
     3
291
     1
 70
    58
 90
        1
176
     1
 90
        0
176
     1
 90
        1
176
     1
 90
        0
176
     1
 40
0.6
176
     1
 40
30.0
176
     1
 62
     7
176
     1
 90
        0
176
     1
 90
        4
176
     1
 62
     7
176
     1
 62
   257
176
     1
 90
        1
176
     1
 90
        1
176
     1
 40
1.0
176
     1
 90
        8
176
     1
 62
     7
176
     1
 40
1.0
176
     1
 90
        1
176
     1
 90
        6
176
     1
 90
        2
176
     1
 62
     7
176
     1
 90
        5
176
     1
 90
        0
176
     1
 90
        0
176
     1
290
     0
176
     1
 90
        1
176
     1
 40
0.0
176
     1
 90
        0
176
     1
290
     0
176
     1
290
     1
176
     1
290
     1
176
     1
290
     0
176
     1
290
     0
176
     1
290
     0
176
     1
290
     0
176
     1
290
     0
176
     1
290
     0
176
     1
 90
       50
176
     1
 40
0.0
176
     1
 40
1.0
176
     1
 90
        0
176
     1
 62
    18
420
        0
176
     1
 90
       50
176
     1
 90
        3
176
     1
 62
     5
420
      255
176
     1
290
     0
176
     1
 90
       50
176
     1
 90
       50
176
     1
 90
       50
176
     1
290
     0
176
     1
 90
       50
176
     1
 62
   256
176
     0
 40
1.0
176
     0
 90
        2
176
     1
  1
strokes_ogs.tif
176
     1
290
     0
176
     1
 40
1.0
176
     1
 40
1.0
176
     1
  0
VISUALSTYLE
  5
69F
102
{ACAD_REACTORS
330
693
102
}
330
693
100
AcDbVisualStyle
  2
Brighten
 70
    12
177
     3
291
     1
 70
    58
 90
        2
176
     1
 90
        2
176
     1
 90
        0
176
     1
 90
        0
176
     1
 40
0.6
176
     1
 40
30.0
176
     1
 62
     7
176
     1
 90
        1
176
     1
 90
        4
176
     1
 62
     7
176
     1
 62
   257
176
     1
 90
        1
176
     1
 90
        1
176
     1
 40
1.0
176
     1
 90
        8
176
     1
 62
     7
176
     1
 40
1.0
176
     1
 90
        1
176
     1
 90
        6
176
     1
 90
        2
176
     1
 62
     7
176
     1
 90
        5
176
     1
 90
        0
176
     1
 90
        0
176
     1
290
     0
176
     1
 90
        1
176
     1
 40
50.0
176
     1
 90
        0
176
     1
290
     0
176
     1
290
     1
176
     1
290
     1
176
     1
290
     0
176
     1
290
     0
176
     1
290
     0
176
     1
290
     0
176
     1
290
     0
176
     1
290
     0
176
     1
 90
       50
176
     1
 40
0.0
176
     1
 40
1.0
176
     1
 90
        0
176
     1
 62
    18
420
        0
176
     1
 90
       50
176
     1
 90
        3
176
     1
 62
     5
420
      255
176
     1
290
     0
176
     1
 90
       50
176
     1
 90
       50
176
     1
 90
       50
176
     1
290
     0
176
     1
 90
       50
176
     1
 62
   256
176
     0
 40
1.0
176
     0
 90
        2
176
     1
  1
strokes_ogs.tif
176
     1
290
     0
176
     1
 40
1.0
176
     1
 40
1.0
176
     1
  0
VISUALSTYLE
  5
6A3
102
{ACAD_REACTORS
330
693
102
}
330
693
100
AcDbVisualStyle
  2
ColorChange
 70
    16
177
     3
291
     1
 70
    58
 90
        2
176
     1
 90
        2
176
     1
 90
        3
176
     1
 90
        0
176
     1
 40
0.6
176
     1
 40
30.0
176
     1
 62
     8
176
     1
 90
        1
176
     1
 90
        4
176
     1
 62
     7
176
     1
 62
   257
176
     1
 90
        1
176
     1
 90
        1
176
     1
 40
1.0
176
     1
 90
        8
176
     1
 62
     8
176
     1
 40
1.0
176
     1
 90
        1
176
     1
 90
        6
176
     1
 90
        2
176
     1
 62
     7
176
     1
 90
        5
176
     1
 90
        0
176
     1
 90
        0
176
     1
290
     0
176
     1
 90
        1
176
     1
 40
0.0
176
     1
 90
        0
176
     1
290
     0
176
     1
290
     1
176
     1
290
     1
176
     1
290
     0
176
     1
290
     0
176
     1
290
     0
176
     1
290
     0
176
     1
290
     0
176
     1
290
     0
176
     1
 90
       50
176
     1
 40
0.0
176
     1
 40
1.0
176
     1
 90
        0
176
     1
 62
    18
420
        0
176
     1
 90
       50
176
     1
 90
        3
176
     1
 62
     5
420
      255
176
     1
290
     0
176
     1
 90
       50
176
     1
 90
       50
176
     1
 90
       50
176
     1
290
     0
176
     1
 90
       50
176
     1
 62
   256
176
     0
 40
1.0
176
     0
 90
        2
176
     1
  1
strokes_ogs.tif
176
     1
290
     0
176
     1
 40
1.0
176
     1
 40
1.0
176
     1
  0
VISUALSTYLE
  5
69D
102
{ACAD_REACTORS
330
693
102
}
330
693
100
AcDbVisualStyle
  2
Conceptual
 70
     9
177
     3
291
     0
 70
    58
 90
        3
176
     1
 90
        2
176
     1
 90
        0
176
     1
 90
        0
176
     1
 40
0.6
176
     1
 40
30.0
176
     1
 62
     7
176
     1
 90
        2
176
     1
 90
        2
176
     1
 62
     7
176
     1
 62
   257
176
     1
 90
        1
176
     1
 90
        1
176
     1
 40
179.0
176
     1
 90
        8
176
     1
 62
     7
176
     1
 40
1.0
176
     1
 90
        1
176
     1
 90
        6
176
     1
 90
        2
176
     1
 62
     7
176
     1
 90
        3
176
     1
 90
        0
176
     1
 90
        0
176
     1
290
     0
176
     1
 90
        1
176
     1
 40
0.0
176
     1
 90
        0
176
     1
290
     0
176
     1
290
     1
176
     1
290
     1
176
     1
290
     0
176
     1
290
     0
176
     1
290
     0
176
     1
290
     0
176
     1
290
     0
176
     1
290
     0
176
     1
 90
       50
176
     1
 40
0.0
176
     1
 40
1.0
176
     1
 90
        0
176
     1
 62
    18
420
        0
176
     1
 90
       50
176
     1
 90
        3
176
     1
 62
     5
420
      255
176
     1
290
     0
176
     1
 90
       50
176
     1
 90
       50
176
     1
 90
       50
176
     1
290
     0
176
     1
 90
       50
176
     1
 62
   256
176
     0
 40
1.0
176
     0
 90
        2
176
     1
  1
strokes_ogs.tif
176
     1
290
     0
176
     1
 40
1.0
176
     1
 40
1.0
176
     1
  0
VISUALSTYLE
  5
69E
102
{ACAD_REACTORS
330
693
102
}
330
693
100
AcDbVisualStyle
  2
Dim
 70
    11
177
     3
291
     1
 70
    58
 90
        2
176
     1
 90
        2
176
     1
 90
        0
176
     1
 90
        0
176
     1
 40
0.6
176
     1
 40
30.0
176
     1
 62
     7
176
     1
 90
        1
176
     1
 90
        4
176
     1
 62
     7
176
     1
 62
   257
176
     1
 90
        1
176
     1
 90
        1
176
     1
 40
1.0
176
     1
 90
        8
176
     1
 62
     7
176
     1
 40
1.0
176
     1
 90
        1
176
     1
 90
        6
176
     1
 90
        2
176
     1
 62
     7
176
     1
 90
        5
176
     1
 90
        0
176
     1
 90
        0
176
     1
290
     0
176
     1
 90
        1
176
     1
 40
-50.0
176
     1
 90
        0
176
     1
290
     0
176
     1
290
     1
176
     1
290
     1
176
     1
290
     0
176
     1
290
     0
176
     1
290
     0
176
     1
290
     0
176
     1
290
     0
176
     1
290
     0
176
     1
 90
       50
176
     1
 40
0.0
176
     1
 40
1.0
176
     1
 90
        0
176
     1
 62
    18
420
        0
176
     1
 90
       50
176
     1
 90
        3
176
     1
 62
     5
420
      255
176
     1
290
     0
176
     1
 90
       50
176
     1
 90
       50
176
     1
 90
       50
176
     1
290
     0
176
     1
 90
       50
176
     1
 62
   256
176
     0
 40
1.0
176
     0
 90
        2
176
     1
  1
strokes_ogs.tif
176
     1
290
     0
176
     1
 40
1.0
176
     1
 40
1.0
176
     1
  0
VISUALSTYLE
  5
6A6
102
{ACAD_REACTORS
330
693
102
}
330
693
100
AcDbVisualStyle
  2
EdgeColorOff
 70
    22
177
     3
291
     1
 70
    58
 90
        2
176
     1
 90
        2
176
     1
 90
        0
176
     1
 90
        0
176
     1
 40
0.6
176
     1
 40
30.0
176
     1
 62
     7
176
     1
 90
        1
176
     1
 90
        4
176
     1
 62
     7
176
     1
 62
   257
176
     1
 90
        1
176
     1
 90
        1
176
     1
 40
1.0
176
     1
 90
        8
176
     1
 62
     7
176
     1
 40
1.0
176
     1
 90
        1
176
     1
 90
        6
176
     1
 90
        2
176
     1
 62
     7
176
     1
 90
        5
176
     1
 90
        0
176
     1
 90
        0
176
     1
290
     0
176
     1
 90
        1
176
     1
 40
0.0
176
     1
 90
        0
176
     1
290
     0
176
     1
290
     1
176
     1
290
     1
176
     1
290
     0
176
     1
290
     0
176
     1
290
     0
176
     1
290
     0
176
     1
290
     0
176
     1
290
     0
176
     1
 90
       50
176
     1
 40
0.0
176
     1
 40
1.0
176
     1
 90
        0
176
     1
 62
    18
420
        0
176
     1
 90
       50
176
     1
 90
        3
176
     1
 62
     5
420
      255
176
     1
290
     0
176
     1
 90
       50
176
     1
 90
       50
176
     1
 90
       50
176
     1
290
     0
176
     1
 90
       50
176
     1
 62
   256
176
     0
 40
1.0
176
     0
 90
        2
176
     1
  1
strokes_ogs.tif
176
     1
290
     0
176
     1
 40
1.0
176
     1
 40
1.0
176
     1
  0
VISUALSTYLE
  5
6A2
102
{ACAD_REACTORS
330
693
102
}
330
693
100
AcDbVisualStyle
  2
Facepattern
 70
    15
177
     3
291
     1
 70
    58
 90
        2
176
     1
 90
        2
176
     1
 90
        0
176
     1
 90
        0
176
     1
 40
0.6
176
     1
 40
30.0
176
     1
 62
     7
176
     1
 90
        1
176
     1
 90
        4
176
     1
 62
     7
176
     1
 62
   257
176
     1
 90
        1
176
     1
 90
        1
176
     1
 40
1.0
176
     1
 90
        8
176
     1
 62
     7
176
     1
 40
1.0
176
     1
 90
        1
176
     1
 90
        6
176
     1
 90
        2
176
     1
 62
     7
176
     1
 90
        5
176
     1
 90
        0
176
     1
 90
        0
176
     1
290
     0
176
     1
 90
        1
176
     1
 40
0.0
176
     1
 90
        0
176
     1
290
     0
176
     1
290
     1
176
     1
290
     1
176
     1
290
     0
176
     1
290
     0
176
     1
290
     0
176
     1
290
     0
176
     1
290
     0
176
     1
290
     0
176
     1
 90
       50
176
     1
 40
0.0
176
     1
 40
1.0
176
     1
 90
        0
176
     1
 62
    18
420
        0
176
     1
 90
       50
176
     1
 90
        3
176
     1
 62
     5
420
      255
176
     1
290
     0
176
     1
 90
       50
176
     1
 90
       50
176
     1
 90
       50
176
     1
290
     0
176
     1
 90
       50
176
     1
 62
   256
176
     0
 40
1.0
176
     0
 90
        2
176
     1
  1
strokes_ogs.tif
176
     1
290
     0
176
     1
 40
1.0
176
     1
 40
1.0
176
     1
  0
VISUALSTYLE
  5
694
102
{ACAD_REACTORS
330
693
102
}
330
693
100
AcDbVisualStyle
  2
Flat
 70
     0
177
     3
291
     1
 70
    58
 90
        2
176
     1
 90
        1
176
     1
 90
        1
176
     1
 90
        2
176
     1
 40
0.6
176
     1
 40
30.0
176
     1
 62
     7
176
     1
 90
        0
176
     1
 90
        0
176
     1
 62
     7
176
     1
 62
   257
176
     1
 90
        1
176
     1
 90
        1
176
     1
 40
1.0
176
     1
 90
        8
176
     1
 62
     7
176
     1
 40
1.0
176
     1
 90
        1
176
     1
 90
        6
176
     1
 90
        2
176
     1
 62
     7
176
     1
 90
        5
176
     1
 90
        0
176
     1
 90
        0
176
     1
290
     0
176
     1
 90
       13
176
     1
 40
0.0
176
     1
 90
        0
176
     1
290
     0
176
     1
290
     1
176
     1
290
     1
176
     1
290
     0
176
     1
290
     0
176
     1
290
     0
176
     1
290
     0
176
     1
290
     0
176
     1
290
     0
176
     1
 90
       50
176
     1
 40
0.0
176
     1
 40
1.0
176
     1
 90
        0
176
     1
 62
    18
420
        0
176
     1
 90
       50
176
     1
 90
        3
176
     1
 62
     5
420
      255
176
     1
290
     0
176
     1
 90
       50
176
     1
 90
       50
176
     1
 90
       50
176
     1
290
     0
176
     1
 90
       50
176
     1
 62
   256
176
     0
 40
1.0
176
     0
 90
        2
176
     1
  1
strokes_ogs.tif
176
     1
290
     0
176
     1
 40
1.0
176
     1
 40
1.0
176
     1
  0
VISUALSTYLE
  5
695
102
{ACAD_REACTORS
330
693
102
}
330
693
100
AcDbVisualStyle
  2
FlatWithEdges
 70
     1
177
     3
291
     1
 70
    58
 90
        2
176
     1
 90
        1
176
     1
 90
        1
176
     1
 90
        2
176
     1
 40
0.6
176
     1
 40
30.0
176
     1
 62
     7
176
     1
 90
        1
176
     1
 90
        0
176
     1
 62
     7
176
     1
 62
   257
176
     1
 90
        1
176
     1
 90
        1
176
     1
 40
1.0
176
     1
 90
        0
176
     1
 62
   257
176
     1
 40
1.0
176
     1
 90
        1
176
     1
 90
        6
176
     1
 90
        2
176
     1
 62
     7
176
     1
 90
        5
176
     1
 90
        0
176
     1
 90
        0
176
     1
290
     0
176
     1
 90
       13
176
     1
 40
0.0
176
     1
 90
        0
176
     1
290
     0
176
     1
290
     1
176
     1
290
     1
176
     1
290
     0
176
     1
290
     0
176
     1
290
     0
176
     1
290
     0
176
     1
290
     0
176
     1
290
     0
176
     1
 90
       50
176
     1
 40
0.0
176
     1
 40
1.0
176
     1
 90
        0
176
     1
 62
    18
420
        0
176
     1
 90
       50
176
     1
 90
        3
176
     1
 62
     5
420
      255
176
     1
290
     0
176
     1
 90
       50
176
     1
 90
       50
176
     1
 90
       50
176
     1
290
     0
176
     1
 90
       50
176
     1
 62
   256
176
     0
 40
1.0
176
     0
 90
        2
176
     1
  1
strokes_ogs.tif
176
     1
290
     0
176
     1
 40
1.0
176
     1
 40
1.0
176
     1
  0
VISUALSTYLE
  5
696
102
{ACAD_REACTORS
330
693
102
}
330
693
100
AcDbVisualStyle
  2
Gouraud
 70
     2
177
     3
291
     1
 70
    58
 90
        2
176
     1
 90
        2
176
     1
 90
        1
176
     1
 90
        2
176
     1
 40
0.6
176
     1
 40
30.0
176
     1
 62
     7
176
     1
 90
        0
176
     1
 90
        0
176
     1
 62
     7
176
     1
 62
   257
176
     1
 90
        1
176
     1
 90
        1
176
     1
 40
1.0
176
     1
 90
        0
176
     1
 62
     7
176
     1
 40
1.0
176
     1
 90
        1
176
     1
 90
        6
176
     1
 90
        2
176
     1
 62
     7
176
     1
 90
        5
176
     1
 90
        0
176
     1
 90
        0
176
     1
290
     0
176
     1
 90
       13
176
     1
 40
0.0
176
     1
 90
        0
176
     1
290
     0
176
     1
290
     1
176
     1
290
     1
176
     1
290
     0
176
     1
290
     0
176
     1
290
     0
176
     1
290
     0
176
     1
290
     0
176
     1
290
     0
176
     1
 90
       50
176
     1
 40
0.0
176
     1
 40
1.0
176
     1
 90
        0
176
     1
 62
    18
420
        0
176
     1
 90
       50
176
     1
 90
        3
176
     1
 62
     5
420
      255
176
     1
290
     0
176
     1
 90
       50
176
     1
 90
       50
176
     1
 90
       50
176
     1
290
     0
176
     1
 90
       50
176
     1
 62
   256
176
     0
 40
1.0
176
     0
 90
        2
176
     1
  1
strokes_ogs.tif
176
     1
290
     0
176
     1
 40
1.0
176
     1
 40
1.0
176
     1
  0
VISUALSTYLE
  5
697
102
{ACAD_REACTORS
330
693
102
}
330
693
100
AcDbVisualStyle
  2
GouraudWithEdges
 70
     3
177
     3
291
     1
 70
    58
 90
        2
176
     1
 90
        2
176
     1
 90
        1
176
     1
 90
        2
176
     1
 40
0.6
176
     1
 40
30.0
176
     1
 62
     7
176
     1
 90
        1
176
     1
 90
        0
176
     1
 62
     7
176
     1
 62
   257
176
     1
 90
        1
176
     1
 90
        1
176
     1
 40
1.0
176
     1
 90
        0
176
     1
 62
   257
176
     1
 40
1.0
176
     1
 90
        1
176
     1
 90
        6
176
     1
 90
        2
176
     1
 62
     7
176
     1
 90
        5
176
     1
 90
        0
176
     1
 90
        0
176
     1
290
     0
176
     1
 90
       13
176
     1
 40
0.0
176
     1
 90
        0
176
     1
290
     0
176
     1
290
     1
176
     1
290
     1
176
     1
290
     0
176
     1
290
     0
176
     1
290
     0
176
     1
290
     0
176
     1
290
     0
176
     1
290
     0
176
     1
 90
       50
176
     1
 40
0.0
176
     1
 40
1.0
176
     1
 90
        0
176
     1
 62
    18
420
        0
176
     1
 90
       50
176
     1
 90
        3
176
     1
 62
     5
420
      255
176
     1
290
     0
176
     1
 90
       50
176
     1
 90
       50
176
     1
 90
       50
176
     1
290
     0
176
     1
 90
       50
176
     1
 62
   256
176
     0
 40
1.0
176
     0
 90
        2
176
     1
  1
strokes_ogs.tif
176
     1
290
     0
176
     1
 40
1.0
176
     1
 40
1.0
176
     1
  0
VISUALSTYLE
  5
69A
102
{ACAD_REACTORS
330
693
102
}
330
693
100
AcDbVisualStyle
  2
Hidden
 70
     6
177
     3
291
     0
 70
    58
 90
        1
176
     1
 90
        2
176
     1
 90
        2
176
     1
 90
        0
176
     1
 40
0.6
176
     1
 40
30.0
176
     1
 62
     7
176
     1
 90
        2
176
     1
 90
        2
176
     1
 62
     7
176
     1
 62
   257
176
     1
 90
        2
176
     1
 90
        1
176
     1
 40
40.0
176
     1
 90
        0
176
     1
 62
   257
176
     1
 40
1.0
176
     1
 90
        1
176
     1
 90
        6
176
     1
 90
        2
176
     1
 62
     7
176
     1
 90
        3
176
     1
 90
        0
176
     1
 90
        0
176
     1
290
     0
176
     1
 90
        1
176
     1
 40
0.0
176
     1
 90
        0
176
     1
290
     0
176
     1
290
     1
176
     1
290
     1
176
     1
290
     0
176
     1
290
     0
176
     1
290
     0
176
     1
290
     0
176
     1
290
     0
176
     1
290
     0
176
     1
 90
       50
176
     1
 40
0.0
176
     1
 40
1.0
176
     1
 90
        0
176
     1
 62
    18
420
        0
176
     1
 90
       50
176
     1
 90
        3
176
     1
 62
     5
420
      255
176
     1
290
     0
176
     1
 90
       50
176
     1
 90
       50
176
     1
 90
       50
176
     1
290
     0
176
     1
 90
       50
176
     1
 62
   256
176
     0
 40
1.0
176
     0
 90
        2
176
     1
  1
strokes_ogs.tif
176
     1
290
     0
176
     1
 40
1.0
176
     1
 40
1.0
176
     1
  0
VISUALSTYLE
  5
6A4
102
{ACAD_REACTORS
330
693
102
}
330
693
100
AcDbVisualStyle
  2
JitterOff
 70
    20
177
     3
291
     1
 70
    58
 90
        2
176
     1
 90
        2
176
     1
 90
        0
176
     1
 90
        0
176
     1
 40
0.6
176
     1
 40
30.0
176
     1
 62
     7
176
     1
 90
        1
176
     1
 90
        4
176
     1
 62
     7
176
     1
 62
   257
176
     1
 90
        1
176
     1
 90
        1
176
     1
 40
1.0
176
     1
 90
       10
176
     1
 62
     7
176
     1
 40
1.0
176
     1
 90
        1
176
     1
 90
        6
176
     1
 90
        2
176
     1
 62
     7
176
     1
 90
        5
176
     1
 90
        0
176
     1
 90
        0
176
     1
290
     0
176
     1
 90
        1
176
     1
 40
0.0
176
     1
 90
        0
176
     1
290
     0
176
     1
290
     1
176
     1
290
     1
176
     1
290
     0
176
     1
290
     0
176
     1
290
     0
176
     1
290
     0
176
     1
290
     0
176
     1
290
     0
176
     1
 90
       50
176
     1
 40
0.0
176
     1
 40
1.0
176
     1
 90
        0
176
     1
 62
    18
420
        0
176
     1
 90
       50
176
     1
 90
        3
176
     1
 62
     5
420
      255
176
     1
290
     0
176
     1
 90
       50
176
     1
 90
       50
176
     1
 90
       50
176
     1
290
     0
176
     1
 90
       50
176
     1
 62
   256
176
     0
 40
1.0
176
     0
 90
        2
176
     1
  1
strokes_ogs.tif
176
     1
290
     0
176
     1
 40
1.0
176
     1
 40
1.0
176
     1
  0
VISUALSTYLE
  5
6A1
102
{ACAD_REACTORS
330
693
102
}
330
693
100
AcDbVisualStyle
  2
Linepattern
 70
    14
177
     3
291
     1
 70
    58
 90
        2
176
     1
 90
        2
176
     1
 90
        0
176
     1
 90
        0
176
     1
 40
0.6
176
     1
 40
30.0
176
     1
 62
     7
176
     1
 90
        1
176
     1
 90
        4
176
     1
 62
     7
176
     1
 62
   257
176
     1
 90
        7
176
     1
 90
        7
176
     1
 40
1.0
176
     1
 90
        8
176
     1
 62
     7
176
     1
 40
1.0
176
     1
 90
        1
176
     1
 90
        6
176
     1
 90
        2
176
     1
 62
     7
176
     1
 90
        5
176
     1
 90
        0
176
     1
 90
        0
176
     1
290
     0
176
     1
 90
        1
176
     1
 40
0.0
176
     1
 90
        0
176
     1
290
     0
176
     1
290
     1
176
     1
290
     1
176
     1
290
     0
176
     1
290
     0
176
     1
290
     0
176
     1
290
     0
176
     1
290
     0
176
     1
290
     0
176
     1
 90
       50
176
     1
 40
0.0
176
     1
 40
1.0
176
     1
 90
        0
176
     1
 62
    18
420
        0
176
     1
 90
       50
176
     1
 90
        3
176
     1
 62
     5
420
      255
176
     1
290
     0
176
     1
 90
       50
176
     1
 90
       50
176
     1
 90
       50
176
     1
290
     0
176
     1
 90
       50
176
     1
 62
   256
176
     0
 40
1.0
176
     0
 90
        2
176
     1
  1
strokes_ogs.tif
176
     1
290
     0
176
     1
 40
1.0
176
     1
 40
1.0
176
     1
  0
VISUALSTYLE
  5
6B4
102
{ACAD_REACTORS
330
693
102
}
330
693
100
AcDbVisualStyle
  2

 70
    10
177
     3
291
     0
 70
    58
 90
        2
176
     1
 90
        3
176
     1
 90
        0
176
     1
 90
        2
176
     1
 40
0.6
176
     1
 40
30.0
176
     1
 62
     7
176
     1
 90
        2
176
     1
 90
        0
176
     1
 62
     7
176
     1
 62
   257
176
     1
 90
        1
176
     1
 90
        1
176
     1
 40
180.0
176
     1
 90
        8
176
     1
 62
     8
176
     1
 40
1.0
176
     1
 90
        1
176
     1
 90
        6
176
     1
 90
        2
176
     1
 62
     7
176
     1
 90
        5
176
     1
 90
        0
176
     1
 90
        0
176
     1
290
     0
176
     1
 90
       13
176
     1
 40
0.0
176
     1
 90
        0
176
     1
290
     0
176
     1
290
     1
176
     1
290
     1
176
     1
290
     0
176
     1
290
     0
176
     1
290
     0
176
     1
290
     0
176
     1
290
     0
176
     1
290
     0
176
     1
 90
       50
176
     1
 40
0.0
176
     1
 40
1.0
176
     1
 90
        0
176
     1
 62
    18
420
        0
176
     1
 90
       50
176
     1
 90
        3
176
     1
 62
     5
420
      255
176
     1
290
     0
176
     1
 90
       50
176
     1
 90
       50
176
     1
 90
       50
176
     1
290
     0
176
     1
 90
       50
176
     1
 62
   256
176
     0
 40
1.0
176
     0
 90
        2
176
     1
  1
strokes_ogs.tif
176
     1
290
     0
176
     1
 40
1.0
176
     1
 40
1.0
176
     1
  0
VISUALSTYLE
  5
6A5
102
{ACAD_REACTORS
330
693
102
}
330
693
100
AcDbVisualStyle
  2
OverhangOff
 70
    21
177
     3
291
     1
 70
    58
 90
        2
176
     1
 90
        2
176
     1
 90
        0
176
     1
 90
        0
176
     1
 40
0.6
176
     1
 40
30.0
176
     1
 62
     7
176
     1
 90
        1
176
     1
 90
        4
176
     1
 62
     7
176
     1
 62
   257
176
     1
 90
        1
176
     1
 90
        1
176
     1
 40
1.0
176
     1
 90
        9
176
     1
 62
     7
176
     1
 40
1.0
176
     1
 90
        1
176
     1
 90
        6
176
     1
 90
        2
176
     1
 62
     7
176
     1
 90
        5
176
     1
 90
        0
176
     1
 90
        0
176
     1
290
     0
176
     1
 90
        1
176
     1
 40
0.0
176
     1
 90
        0
176
     1
290
     0
176
     1
290
     1
176
     1
290
     1
176
     1
290
     0
176
     1
290
     0
176
     1
290
     0
176
     1
290
     0
176
     1
290
     0
176
     1
290
     0
176
     1
 90
       50
176
     1
 40
0.0
176
     1
 40
1.0
176
     1
 90
        0
176
     1
 62
    18
420
        0
176
     1
 90
       50
176
     1
 90
        3
176
     1
 62
     5
420
      255
176
     1
290
     0
176
     1
 90
       50
176
     1
 90
       50
176
     1
 90
       50
176
     1
290
     0
176
     1
 90
       50
176
     1
 62
   256
176
     0
 40
1.0
176
     0
 90
        2
176
     1
  1
strokes_ogs.tif
176
     1
290
     0
176
     1
 40
1.0
176
     1
 40
1.0
176
     1
  0
VISUALSTYLE
  5
69C
102
{ACAD_REACTORS
330
693
102
}
330
693
100
AcDbVisualStyle
  2
Realistic
 70
     8
177
     3
291
     0
 70
    58
 90
        2
176
     1
 90
        3
176
     1
 90
        0
176
     1
 90
        2
176
     1
 40
0.6
176
     1
 40
30.0
176
     1
 62
     7
176
     1
 90
        0
176
     1
 90
        0
176
     1
 62
     7
176
     1
 62
   257
176
     1
 90
        1
176
     1
 90
        1
176
     1
 40
1.0
176
     1
 90
        8
176
     1
 62
   257
176
     1
 40
1.0
176
     1
 90
        1
176
     1
 90
        6
176
     1
 90
        2
176
     1
 62
     7
176
     1
 90
        3
176
     1
 90
        0
176
     1
 90
        0
176
     1
290
     0
176
     1
 90
       13
176
     1
 40
0.0
176
     1
 90
        0
176
     1
290
     0
176
     1
290
     1
176
     1
290
     1
176
     1
290
     0
176
     1
290
     0
176
     1
290
     0
176
     1
290
     0
176
     1
290
     0
176
     1
290
     0
176
     1
 90
       50
176
     1
 40
0.0
176
     1
 40
1.0
176
     1
 90
        0
176
     1
 62
    18
420
        0
176
     1
 90
       50
176
     1
 90
        3
176
     1
 62
     5
420
      255
176
     1
290
     0
176
     1
 90
       50
176
     1
 90
       50
176
     1
 90
       50
176
     1
290
     0
176
     1
 90
       50
176
     1
 62
   256
176
     0
 40
1.0
176
     0
 90
        2
176
     1
  1
strokes_ogs.tif
176
     1
290
     0
176
     1
 40
1.0
176
     1
 40
1.0
176
     1
  0
VISUALSTYLE
  5
6AB
102
{ACAD_REACTORS
330
693
102
}
330
693
100
AcDbVisualStyle
  2
Shaded
 70
    27
177
     3
291
     0
 70
    58
 90
        2
176
     1
 90
        2
176
     1
 90
        1
176
     1
 90
        2
176
     1
 40
0.6
176
     1
 40
30.0
176
     1
 62
     7
176
     1
 90
        0
176
     1
 90
        4
176
     1
 62
     7
176
     1
 62
   257
176
     1
 90
        1
176
     1
 90
        1
176
     1
 40
1.0
176
     1
 90
        8
176
     1
 62
   257
176
     1
 40
1.0
176
     1
 90
        1
176
     1
 90
        6
176
     1
 90
        2
176
     1
 62
     8
176
     1
 90
        3
176
     1
 90
        0
176
     1
 90
        0
176
     1
290
     0
176
     1
 90
        5
176
     1
 40
0.0
176
     1
 90
        0
176
     1
290
     0
176
     1
290
     1
176
     1
290
     1
176
     1
290
     0
176
     1
290
     0
176
     1
290
     0
176
     1
290
     0
176
     1
290
     0
176
     1
290
     0
176
     1
 90
       50
176
     1
 40
0.0
176
     1
 40
1.0
176
     1
 90
        0
176
     1
 62
    18
420
        0
176
     1
 90
       50
176
     1
 90
        3
176
     1
 62
     5
420
      255
176
     1
290
     0
176
     1
 90
       50
176
     1
 90
       50
176
     1
 90
       50
176
     1
290
     0
176
     1
 90
       50
176
     1
 62
   256
176
     0
 40
1.0
176
     0
 90
        2
176
     1
  1
strokes_ogs.tif
176
     1
290
     0
176
     1
 40
1.0
176
     1
 40
1.0
176
     1
  0
VISUALSTYLE
  5
6AA
102
{ACAD_REACTORS
330
693
102
}
330
693
100
AcDbVisualStyle
  2
Shaded with edges
 70
    26
177
     3
291
     0
 70
    58
 90
        2
176
     1
 90
        2
176
     1
 90
        1
176
     1
 90
        2
176
     1
 40
0.6
176
     1
 40
30.0
176
     1
 62
     7
176
     1
 90
        1
176
     1
 90
       10
176
     1
 62
     7
176
     1
 62
   257
176
     1
 90
        2
176
     1
 90
        1
176
     1
 40
1.0
176
     1
 90
        8
176
     1
 62
   257
176
     1
 40
1.0
176
     1
 90
        1
176
     1
 90
        6
176
     1
 90
        2
176
     1
 62
     7
176
     1
 90
        3
176
     1
 90
        0
176
     1
 90
        0
176
     1
290
     0
176
     1
 90
        5
176
     1
 40
0.0
176
     1
 90
        0
176
     1
290
     0
176
     1
290
     1
176
     1
290
     1
176
     1
290
     0
176
     1
290
     0
176
     1
290
     0
176
     1
290
     0
176
     1
290
     0
176
     1
290
     0
176
     1
 90
       50
176
     1
 40
0.0
176
     1
 40
1.0
176
     1
 90
        0
176
     1
 62
    18
420
        0
176
     1
 90
       50
176
     1
 90
        3
176
     1
 62
     5
420
      255
176
     1
290
     0
176
     1
 90
       50
176
     1
 90
       50
176
     1
 90
       50
176
     1
290
     0
176
     1
 90
       50
176
     1
 62
   256
176
     0
 40
1.0
176
     0
 90
        2
176
     1
  1
strokes_ogs.tif
176
     1
290
     0
176
     1
 40
1.0
176
     1
 40
1.0
176
     1
  0
VISUALSTYLE
  5
6A7
102
{ACAD_REACTORS
330
693
102
}
330
693
100
AcDbVisualStyle
  2
Shades of Gray
 70
    23
177
     3
291
     0
 70
    58
 90
        2
176
     1
 90
        2
176
     1
 90
        3
176
     1
 90
        0
176
     1
 40
0.6
176
     1
 40
30.0
176
     1
 62
     7
176
     1
 90
        2
176
     1
 90
        2
176
     1
 62
     7
176
     1
 62
     7
176
     1
 90
        1
176
     1
 90
        1
176
     1
 40
40.0
176
     1
 90
        8
176
     1
 62
     7
176
     1
 40
1.0
176
     1
 90
        1
176
     1
 90
        6
176
     1
 90
        2
176
     1
 62
     7
176
     1
 90
        3
176
     1
 90
        0
176
     1
 90
        0
176
     1
290
     0
176
     1
 90
        1
176
     1
 40
0.0
176
     1
 90
        0
176
     1
290
     0
176
     1
290
     1
176
     1
290
     1
176
     1
290
     0
176
     1
290
     0
176
     1
290
     0
176
     1
290
     0
176
     1
290
     0
176
     1
290
     0
176
     1
 90
       50
176
     1
 40
0.0
176
     1
 40
1.0
176
     1
 90
        0
176
     1
 62
    18
420
        0
176
     1
 90
       50
176
     1
 90
        3
176
     1
 62
     5
420
      255
176
     1
290
     0
176
     1
 90
       50
176
     1
 90
       50
176
     1
 90
       50
176
     1
290
     0
176
     1
 90
       50
176
     1
 62
   256
176
     0
 40
1.0
176
     0
 90
        2
176
     1
  1
strokes_ogs.tif
176
     1
290
     0
176
     1
 40
1.0
176
     1
 40
1.0
176
     1
  0
VISUALSTYLE
  5
6A8
102
{ACAD_REACTORS
330
693
102
}
330
693
100
AcDbVisualStyle
  2
Sketchy
 70
    24
177
     3
291
     0
 70
    58
 90
        1
176
     1
 90
        2
176
     1
 90
        2
176
     1
 90
        0
176
     1
 40
0.6
176
     1
 40
30.0
176
     1
 62
     7
176
     1
 90
        2
176
     1
 90
        2
176
     1
 62
     7
176
     1
 62
     7
176
     1
 90
        1
176
     1
 90
        1
176
     1
 40
40.0
176
     1
 90
       11
176
     1
 62
     7
176
     1
 40
1.0
176
     1
 90
        1
176
     1
 90
        6
176
     1
 90
        2
176
     1
 62
     7
176
     1
 90
        6
176
     1
 90
        0
176
     1
 90
        0
176
     1
290
     0
176
     1
 90
        1
176
     1
 40
0.0
176
     1
 90
        0
176
     1
290
     0
176
     1
290
     1
176
     1
290
     1
176
     1
290
     0
176
     1
290
     0
176
     1
290
     0
176
     1
290
     0
176
     1
290
     0
176
     1
290
     0
176
     1
 90
       50
176
     1
 40
0.0
176
     1
 40
1.0
176
     1
 90
        0
176
     1
 62
    18
420
        0
176
     1
 90
       50
176
     1
 90
        3
176
     1
 62
     5
420
      255
176
     1
290
     0
176
     1
 90
       50
176
     1
 90
       50
176
     1
 90
       50
176
     1
290
     0
176
     1
 90
       50
176
     1
 62
   256
176
     0
 40
1.0
176
     0
 90
        2
176
     1
  1
strokes_ogs.tif
176
     1
290
     0
176
     1
 40
1.0
176
     1
 40
1.0
176
     1
  0
VISUALSTYLE
  5
6A0
102
{ACAD_REACTORS
330
693
102
}
330
693
100
AcDbVisualStyle
  2
Thicken
 70
    13
177
     3
291
     1
 70
    58
 90
        2
176
     1
 90
        2
176
     1
 90
        0
176
     1
 90
        0
176
     1
 40
0.6
176
     1
 40
30.0
176
     1
 62
     7
176
     1
 90
        1
176
     1
 90
        4
176
     1
 62
     7
176
     1
 62
   257
176
     1
 90
        1
176
     1
 90
        1
176
     1
 40
1.0
176
     1
 90
       12
176
     1
 62
     7
176
     1
 40
1.0
176
     1
 90
        1
176
     1
 90
        6
176
     1
 90
        2
176
     1
 62
     7
176
     1
 90
        5
176
     1
 90
        0
176
     1
 90
        0
176
     1
290
     0
176
     1
 90
        1
176
     1
 40
0.0
176
     1
 90
        0
176
     1
290
     0
176
     1
290
     1
176
     1
290
     1
176
     1
290
     0
176
     1
290
     0
176
     1
290
     0
176
     1
290
     0
176
     1
290
     0
176
     1
290
     0
176
     1
 90
       50
176
     1
 40
0.0
176
     1
 40
1.0
176
     1
 90
        0
176
     1
 62
    18
420
        0
176
     1
 90
       50
176
     1
 90
        3
176
     1
 62
     5
420
      255
176
     1
290
     0
176
     1
 90
       50
176
     1
 90
       50
176
     1
 90
       50
176
     1
290
     0
176
     1
 90
       50
176
     1
 62
   256
176
     0
 40
1.0
176
     0
 90
        2
176
     1
  1
strokes_ogs.tif
176
     1
290
     0
176
     1
 40
1.0
176
     1
 40
1.0
176
     1
  0
VISUALSTYLE
  5
699
102
{ACAD_REACTORS
330
693
102
}
330
693
100
AcDbVisualStyle
  2
Wireframe
 70
     5
177
     3
291
     0
 70
    58
 90
        0
176
     1
 90
        2
176
     1
 90
        0
176
     1
 90
        0
176
     1
 40
0.6
176
     1
 40
30.0
176
     1
 62
     7
176
     1
 90
        1
176
     1
 90
        4
176
     1
 62
     7
176
     1
 62
   257
176
     1
 90
        1
176
     1
 90
        1
176
     1
 40
1.0
176
     1
 90
        0
176
     1
 62
   257
176
     1
 40
1.0
176
     1
 90
        1
176
     1
 90
        6
176
     1
 90
        2
176
     1
 62
     7
176
     1
 90
        3
176
     1
 90
        0
176
     1
 90
        0
176
     1
290
     0
176
     1
 90
        1
176
     1
 40
0.0
176
     1
 90
        0
176
     1
290
     0
176
     1
290
     1
176
     1
290
     1
176
     1
290
     0
176
     1
290
     0
176
     1
290
     0
176
     1
290
     0
176
     1
290
     0
176
     1
290
     0
176
     1
 90
       50
176
     1
 40
0.0
176
     1
 40
1.0
176
     1
 90
        0
176
     1
 62
    18
420
        0
176
     1
 90
       50
176
     1
 90
        3
176
     1
 62
     5
420
      255
176
     1
290
     0
176
     1
 90
       50
176
     1
 90
       50
176
     1
 90
       50
176
     1
290
     0
176
     1
 90
       50
176
     1
 62
   256
176
     0
 40
1.0
176
     0
 90
        2
176
     1
  1
strokes_ogs.tif
176
     1
290
     0
176
     1
 40
1.0
176
     1
 40
1.0
176
     1
  0
VISUALSTYLE
  5
6A9
102
{ACAD_REACTORS
330
693
102
}
330
693
100
AcDbVisualStyle
  2
X-Ray
 70
    25
177
     3
291
     0
 70
    58
 90
        2
176
     1
 90
        2
176
     1
 90
        1
176
     1
 90
        1
176
     1
 40
0.5
176
     1
 40
30.0
176
     1
 62
     7
176
     1
 90
        1
176
     1
 90
        0
176
     1
 62
     7
176
     1
 62
   257
176
     1
 90
        1
176
     1
 90
        1
176
     1
 40
1.0
176
     1
 90
        8
176
     1
 62
     7
176
     1
 40
1.0
176
     1
 90
        1
176
     1
 90
        6
176
     1
 90
        2
176
     1
 62
     7
176
     1
 90
        3
176
     1
 90
        0
176
     1
 90
        0
176
     1
290
     0
176
     1
 90
       13
176
     1
 40
0.0
176
     1
 90
        0
176
     1
290
     0
176
     1
290
     1
176
     1
290
     1
176
     1
290
     0
176
     1
290
     0
176
     1
290
     0
176
     1
290
     0
176
     1
290
     0
176
     1
290
     0
176
     1
 90
       50
176
     1
 40
0.0
176
     1
 40
1.0
176
     1
 90
        0
176
     1
 62
    18
420
        0
176
     1
 90
       50
176
     1
 90
        3
176
     1
 62
     5
420
      255
176
     1
290
     0
176
     1
 90
       50
176
     1
 90
       50
176
     1
 90
       50
176
     1
290
     0
176
     1
 90
       50
176
     1
 62
   256
176
     0
 40
1.0
176
     0
 90
        2
176
     1
  1
strokes_ogs.tif
176
     1
290
     0
176
     1
 40
1.0
176
     1
 40
1.0
176
     1
  0
DICTIONARYVAR
  5
16CD
102
{ACAD_REACTORS
330
911
102
}
330
911
100
DictionaryVariables
280
     0
  1
1:1
  0
DICTIONARYVAR
  5
914
102
{ACAD_REACTORS
330
911
102
}
330
911
100
DictionaryVariables
280
     0
  1
Standard
  0
DICTIONARYVAR
  5
913
102
{ACAD_REACTORS
330
911
102
}
330
911
100
DictionaryVariables
280
     0
  1
Standard
  0
DICTIONARYVAR
  5
E45
102
{ACAD_REACTORS
330
911
102
}
330
911
100
DictionaryVariables
280
     0
  1
2
  0
DICTIONARYVAR
  5
E46
102
{ACAD_REACTORS
330
911
102
}
330
911
100
DictionaryVariables
280
     0
  1
1
  0
DICTIONARYVAR
  5
915
102
{ACAD_REACTORS
330
911
102
}
330
911
100
DictionaryVariables
280
     0
  1
0
  0
DICTIONARY
  5
12FD
102
{ACAD_REACTORS
330
12FC
102
}
330
12FC
100
AcDbDictionary
281
     1
  0
DICTIONARY
  5
1301
102
{ACAD_REACTORS
330
1300
102
}
330
1300
100
AcDbDictionary
281
     1
  0
DICTIONARY
  5
14AC
102
{ACAD_REACTORS
330
14AB
102
}
330
14AB
100
AcDbDictionary
281
     1
  0
DICTIONARY
  5
1519
102
{ACAD_REACTORS
330
1518
102
}
330
1518
100
AcDbDictionary
281
     1
  0
DICTIONARY
  5
16CE
330
6B1
100
AcDbDictionary
280
     1
281
     1
  3
ACAD_ROUNDTRIP_2008_TABLESTYLE_CELLSTYLEMAP
360
16CF
  0
CELLSTYLEMAP
  5
16CF
102
{ACAD_REACTORS
330
16CE
102
}
330
16CE
100
AcDbCellStyleMap
 90
        3
300
CELLSTYLE
  1
TABLEFORMAT_BEGIN
 90
        5
170
     1
 91
        0
 92
    32768
 62
   257
 93
        1
300
CONTENTFORMAT
  1
CONTENTFORMAT_BEGIN
 90
        0
 91
        0
 92
        4
 93
        0
300

 40
0.0
140
1.0
 94
        5
 62
     0
340
11
144
0.25
309
CONTENTFORMAT_END
171
     1
301
MARGIN
  1
CELLMARGIN_BEGIN
 40
0.06
 40
0.06
 40
0.06
 40
0.06
 40
0.06
 40
0.06
309
CELLMARGIN_END
 94
        6
 95
        1
302
GRIDFORMAT
  1
GRIDFORMAT_BEGIN
 90
        0
 91
        1
 62
     0
 92
       -2
340
14
 93
        0
 40
0.045
309
GRIDFORMAT_END
 95
        2
302
GRIDFORMAT
  1
GRIDFORMAT_BEGIN
 90
        0
 91
        1
 62
     0
 92
       -2
340
14
 93
        0
 40
0.045
309
GRIDFORMAT_END
 95
        4
302
GRIDFORMAT
  1
GRIDFORMAT_BEGIN
 90
        0
 91
        1
 62
     0
 92
       -2
340
14
 93
        0
 40
0.045
309
GRIDFORMAT_END
 95
        8
302
GRIDFORMAT
  1
GRIDFORMAT_BEGIN
 90
        0
 91
        1
 62
     0
 92
       -2
340
14
 93
        0
 40
0.045
309
GRIDFORMAT_END
 95
       16
302
GRIDFORMAT
  1
GRIDFORMAT_BEGIN
 90
        0
 91
        1
 62
     0
 92
       -2
340
14
 93
        0
 40
0.045
309
GRIDFORMAT_END
 95
       32
302
GRIDFORMAT
  1
GRIDFORMAT_BEGIN
 90
        0
 91
        1
 62
     0
 92
       -2
340
14
 93
        0
 40
0.045
309
GRIDFORMAT_END
309
TABLEFORMAT_END
  1
CELLSTYLE_BEGIN
 90
        1
 91
        1
300
_TITLE
309
CELLSTYLE_END
300
CELLSTYLE
  1
TABLEFORMAT_BEGIN
 90
        5
170
     1
 91
        0
 92
        0
 62
   257
 93
        1
300
CONTENTFORMAT
  1
CONTENTFORMAT_BEGIN
 90
        0
 91
        0
 92
        4
 93
        0
300

 40
0.0
140
1.0
 94
        5
 62
     0
340
11
144
0.18
309
CONTENTFORMAT_END
171
     1
301
MARGIN
  1
CELLMARGIN_BEGIN
 40
0.06
 40
0.06
 40
0.06
 40
0.06
 40
0.06
 40
0.06
309
CELLMARGIN_END
 94
        6
 95
        1
302
GRIDFORMAT
  1
GRIDFORMAT_BEGIN
 90
        0
 91
        1
 62
     0
 92
       -2
340
14
 93
        0
 40
0.045
309
GRIDFORMAT_END
 95
        2
302
GRIDFORMAT
  1
GRIDFORMAT_BEGIN
 90
        0
 91
        1
 62
     0
 92
       -2
340
14
 93
        0
 40
0.045
309
GRIDFORMAT_END
 95
        4
302
GRIDFORMAT
  1
GRIDFORMAT_BEGIN
 90
        0
 91
        1
 62
     0
 92
       -2
340
14
 93
        0
 40
0.045
309
GRIDFORMAT_END
 95
        8
302
GRIDFORMAT
  1
GRIDFORMAT_BEGIN
 90
        0
 91
        1
 62
     0
 92
       -2
340
14
 93
        0
 40
0.045
309
GRIDFORMAT_END
 95
       16
302
GRIDFORMAT
  1
GRIDFORMAT_BEGIN
 90
        0
 91
        1
 62
     0
 92
       -2
340
14
 93
        0
 40
0.045
309
GRIDFORMAT_END
 95
       32
302
GRIDFORMAT
  1
GRIDFORMAT_BEGIN
 90
        0
 91
        1
 62
     0
 92
       -2
340
14
 93
        0
 40
0.045
309
GRIDFORMAT_END
309
TABLEFORMAT_END
  1
CELLSTYLE_BEGIN
 90
        2
 91
        1
300
_HEADER
309
CELLSTYLE_END
300
CELLSTYLE
  1
TABLEFORMAT_BEGIN
 90
        5
170
     1
 91
        0
 92
        0
 62
   257
 93
        1
300
CONTENTFORMAT
  1
CONTENTFORMAT_BEGIN
 90
        0
 91
        0
 92
        4
 93
        0
300

 40
0.0
140
1.0
 94
        2
 62
     0
340
11
144
0.18
309
CONTENTFORMAT_END
171
     1
301
MARGIN
  1
CELLMARGIN_BEGIN
 40
0.06
 40
0.06
 40
0.06
 40
0.06
 40
0.06
 40
0.06
309
CELLMARGIN_END
 94
        6
 95
        1
302
GRIDFORMAT
  1
GRIDFORMAT_BEGIN
 90
        0
 91
        1
 62
     0
 92
       -2
340
14
 93
        0
 40
0.045
309
GRIDFORMAT_END
 95
        2
302
GRIDFORMAT
  1
GRIDFORMAT_BEGIN
 90
        0
 91
        1
 62
     0
 92
       -2
340
14
 93
        0
 40
0.045
309
GRIDFORMAT_END
 95
        4
302
GRIDFORMAT
  1
GRIDFORMAT_BEGIN
 90
        0
 91
        1
 62
     0
 92
       -2
340
14
 93
        0
 40
0.045
309
GRIDFORMAT_END
 95
        8
302
GRIDFORMAT
  1
GRIDFORMAT_BEGIN
 90
        0
 91
        1
 62
     0
 92
       -2
340
14
 93
        0
 40
0.045
309
GRIDFORMAT_END
 95
       16
302
GRIDFORMAT
  1
GRIDFORMAT_BEGIN
 90
        0
 91
        1
 62
     0
 92
       -2
340
14
 93
        0
 40
0.045
309
GRIDFORMAT_END
 95
       32
302
GRIDFORMAT
  1
GRIDFORMAT_BEGIN
 90
        0
 91
        1
 62
     0
 92
       -2
340
14
 93
        0
 40
0.045
309
GRIDFORMAT_END
309
TABLEFORMAT_END
  1
CELLSTYLE_BEGIN
 90
        3
 91
        2
300
_DATA
309
CELLSTYLE_END
  0
ENDSEC
  0
EOF
